  0
SECTION
  2
HEADER
  9
$ACADVER
  1
AC1015
  9
$ACADMAINTVER
 70
    13
  9
$DWGCODEPAGE
  3
ANSI_1252
  9
$INSBASE
 10
10.17244416543545
 20
0.1680493797603159
 30
0.0
  9
$EXTMIN
 10
0.0
 20
0.0
 30
0.0
  9
$EXTMAX
 10
16.49
 20
10.44
 30
0.03
  9
$LIMMIN
 10
0.0
 20
0.0
  9
$LIMMAX
 10
12.0
 20
9.0
  9
$ORTHOMODE
 70
     0
  9
$REGENMODE
 70
     1
  9
$FILLMODE
 70
     1
  9
$QTEXTMODE
 70
     0
  9
$MIRRTEXT
 70
     0
  9
$LTSCALE
 40
0.5
  9
$ATTMODE
 70
     1
  9
$TEXTSIZE
 40
0.1
  9
$TRACEWID
 40
0.05
  9
$TEXTSTYLE
  7
L200
  9
$CLAYER
  8
TITLE
  9
$CELTYPE
  6
ByLayer
  9
$CECOLOR
 62
   256
  9
$CELTSCALE
 40
1.0
  9
$DISPSILH
 70
     0
  9
$DIMSCALE
 40
1.0
  9
$DIMASZ
 40
0.1
  9
$DIMEXO
 40
0.0625
  9
$DIMDLI
 40
0.38
  9
$DIMRND
 40
0.0
  9
$DIMDLE
 40
0.0
  9
$DIMEXE
 40
0.18
  9
$DIMTP
 40
0.0
  9
$DIMTM
 40
0.0
  9
$DIMTXT
 40
0.18
  9
$DIMCEN
 40
0.09
  9
$DIMTSZ
 40
0.0
  9
$DIMTOL
 70
     0
  9
$DIMLIM
 70
     0
  9
$DIMTIH
 70
     1
  9
$DIMTOH
 70
     1
  9
$DIMSE1
 70
     0
  9
$DIMSE2
 70
     0
  9
$DIMTAD
 70
     0
  9
$DIMZIN
 70
     0
  9
$DIMBLK
  1

  9
$DIMASO
 70
     1
  9
$DIMSHO
 70
     0
  9
$DIMPOST
  1

  9
$DIMAPOST
  1

  9
$DIMALT
 70
     0
  9
$DIMALTD
 70
     2
  9
$DIMALTF
 40
25.4
  9
$DIMLFAC
 40
1.0
  9
$DIMTOFL
 70
     0
  9
$DIMTVP
 40
0.0
  9
$DIMTIX
 70
     0
  9
$DIMSOXD
 70
     0
  9
$DIMSAH
 70
     0
  9
$DIMBLK1
  1

  9
$DIMBLK2
  1

  9
$DIMSTYLE
  2
Standard
  9
$DIMCLRD
 70
     0
  9
$DIMCLRE
 70
     0
  9
$DIMCLRT
 70
     0
  9
$DIMTFAC
 40
1.0
  9
$DIMGAP
 40
0.09
  9
$DIMJUST
 70
     0
  9
$DIMSD1
 70
     0
  9
$DIMSD2
 70
     0
  9
$DIMTOLJ
 70
     1
  9
$DIMTZIN
 70
     0
  9
$DIMALTZ
 70
     0
  9
$DIMALTTZ
 70
     0
  9
$DIMUPT
 70
     0
  9
$DIMDEC
 70
     4
  9
$DIMTDEC
 70
     4
  9
$DIMALTU
 70
     2
  9
$DIMALTTD
 70
     2
  9
$DIMTXSTY
  7
STANDARD
  9
$DIMAUNIT
 70
     0
  9
$DIMADEC
 70
     0
  9
$DIMALTRND
 40
0.0
  9
$DIMAZIN
 70
     0
  9
$DIMDSEP
 70
    46
  9
$DIMATFIT
 70
     3
  9
$DIMFRAC
 70
     0
  9
$DIMLDRBLK
  1

  9
$DIMLUNIT
 70
     2
  9
$DIMLWD
 70
    -2
  9
$DIMLWE
 70
    -2
  9
$DIMTMOVE
 70
     2
  9
$LUNITS
 70
     2
  9
$LUPREC
 70
     4
  9
$SKETCHINC
 40
0.1
  9
$FILLETRAD
 40
0.0
  9
$AUNITS
 70
     0
  9
$AUPREC
 70
     0
  9
$MENU
  1
acad
  9
$ELEVATION
 40
0.0
  9
$PELEVATION
 40
0.0
  9
$THICKNESS
 40
0.0
  9
$LIMCHECK
 70
     0
  9
$CHAMFERA
 40
0.0
  9
$CHAMFERB
 40
0.0
  9
$CHAMFERC
 40
0.0
  9
$CHAMFERD
 40
0.0
  9
$SKPOLY
 70
     0
  9
$TDCREATE
 40
2450481.447990278
  9
$TDUCREATE
 40
2450481.739656944
  9
$TDUPDATE
 40
2453034.350214768
  9
$TDUUPDATE
 40
2453034.641881435
  9
$TDINDWG
 40
0.3396362500
  9
$TDUSRTIMER
 40
0.3396362500
  9
$USRTIMER
 70
     1
  9
$ANGBASE
 50
0.0
  9
$ANGDIR
 70
     0
  9
$PDMODE
 70
     0
  9
$PDSIZE
 40
0.0
  9
$PLINEWID
 40
0.018
  9
$SPLFRAME
 70
     0
  9
$SPLINETYPE
 70
     6
  9
$SPLINESEGS
 70
     8
  9
$HANDSEED
  5
1C40
  9
$SURFTAB1
 70
     6
  9
$SURFTAB2
 70
     6
  9
$SURFTYPE
 70
     6
  9
$SURFU
 70
     6
  9
$SURFV
 70
     6
  9
$UCSBASE
  2

  9
$UCSNAME
  2

  9
$UCSORG
 10
0.0
 20
0.0
 30
0.0
  9
$UCSXDIR
 10
1.0
 20
0.0
 30
0.0
  9
$UCSYDIR
 10
0.0
 20
1.0
 30
0.0
  9
$UCSORTHOREF
  2

  9
$UCSORTHOVIEW
 70
     0
  9
$UCSORGTOP
 10
0.0
 20
0.0
 30
0.0
  9
$UCSORGBOTTOM
 10
0.0
 20
0.0
 30
0.0
  9
$UCSORGLEFT
 10
0.0
 20
0.0
 30
0.0
  9
$UCSORGRIGHT
 10
0.0
 20
0.0
 30
0.0
  9
$UCSORGFRONT
 10
0.0
 20
0.0
 30
0.0
  9
$UCSORGBACK
 10
0.0
 20
0.0
 30
0.0
  9
$PUCSBASE
  2

  9
$PUCSNAME
  2

  9
$PUCSORG
 10
0.0
 20
0.0
 30
0.0
  9
$PUCSXDIR
 10
1.0
 20
0.0
 30
0.0
  9
$PUCSYDIR
 10
0.0
 20
1.0
 30
0.0
  9
$PUCSORTHOREF
  2

  9
$PUCSORTHOVIEW
 70
     0
  9
$PUCSORGTOP
 10
0.0
 20
0.0
 30
0.0
  9
$PUCSORGBOTTOM
 10
0.0
 20
0.0
 30
0.0
  9
$PUCSORGLEFT
 10
0.0
 20
0.0
 30
0.0
  9
$PUCSORGRIGHT
 10
0.0
 20
0.0
 30
0.0
  9
$PUCSORGFRONT
 10
0.0
 20
0.0
 30
0.0
  9
$PUCSORGBACK
 10
0.0
 20
0.0
 30
0.0
  9
$USERI1
 70
     0
  9
$USERI2
 70
     0
  9
$USERI3
 70
     0
  9
$USERI4
 70
     0
  9
$USERI5
 70
     0
  9
$USERR1
 40
0.0
  9
$USERR2
 40
0.0
  9
$USERR3
 40
0.0
  9
$USERR4
 40
0.0
  9
$USERR5
 40
0.0
  9
$WORLDVIEW
 70
     1
  9
$SHADEDGE
 70
     3
  9
$SHADEDIF
 70
    70
  9
$TILEMODE
 70
     1
  9
$MAXACTVP
 70
    16
  9
$PINSBASE
 10
0.0
 20
0.0
 30
0.0
  9
$PLIMCHECK
 70
     0
  9
$PEXTMIN
 10
1.000000000000000E+20
 20
1.000000000000000E+20
 30
1.000000000000000E+20
  9
$PEXTMAX
 10
-1.000000000000000E+20
 20
-1.000000000000000E+20
 30
-1.000000000000000E+20
  9
$PLIMMIN
 10
0.0
 20
0.0
  9
$PLIMMAX
 10
12.0
 20
9.0
  9
$UNITMODE
 70
     0
  9
$VISRETAIN
 70
     0
  9
$PLINEGEN
 70
     1
  9
$PSLTSCALE
 70
     0
  9
$TREEDEPTH
 70
  3020
  9
$CMLSTYLE
  2
Standard
  9
$CMLJUST
 70
     0
  9
$CMLSCALE
 40
1.0
  9
$PROXYGRAPHICS
 70
     1
  9
$MEASUREMENT
 70
     0
  9
$CELWEIGHT
370
    -1
  9
$ENDCAPS
280
     0
  9
$JOINSTYLE
280
     0
  9
$LWDISPLAY
290
     0
  9
$INSUNITS
 70
     0
  9
$HYPERLINKBASE
  1

  9
$STYLESHEET
  1
8500ColorShaded.ctb
  9
$XEDIT
290
     1
  9
$CEPSNTYPE
380
     0
  9
$PSTYLEMODE
290
     1
  9
$FINGERPRINTGUID
  2
{186BD48B-CF93-4793-9730-E81644766585}
  9
$VERSIONGUID
  2
{C2B51584-12EC-4123-AD4B-D1863BA85DCE}
  9
$EXTNAMES
290
     1
  9
$PSVPSCALE
 40
0.0
  9
$OLESTARTUP
290
     0
  0
ENDSEC
  0
SECTION
  2
CLASSES
  0
CLASS
  1
ACDBDICTIONARYWDFLT
  2
AcDbDictionaryWithDefault
  3
AutoCAD 2000
 90
        0
280
     0
281
     0
  0
CLASS
  1
ACDBPLACEHOLDER
  2
AcDbPlaceHolder
  3
AutoCAD 2000
 90
        0
280
     0
281
     0
  0
CLASS
  1
LAYOUT
  2
AcDbLayout
  3
AutoCAD 2000
 90
        0
280
     0
281
     0
  0
CLASS
  1
PLOTSETTINGS
  2
AcDbPlotSettings
  3
AutoCAD 2000
 90
        0
280
     0
281
     0
  0
CLASS
  1
DICTIONARYVAR
  2
AcDbDictionaryVar
  3
AutoCAD 2000
 90
        0
280
     0
281
     0
  0
ENDSEC
  0
SECTION
  2
TABLES
  0
TABLE
  2
VPORT
  5
8
330
0
100
AcDbSymbolTable
 70
     3
  0
VPORT
  5
1C3F
330
8
100
AcDbSymbolTableRecord
100
AcDbViewportTableRecord
  2
*Active
 70
     0
 10
0.0
 20
0.0
 11
1.0
 21
1.0
 12
8.24500003839377
 22
5.220000024307518
 13
0.0
 23
0.0
 14
1.0
 24
1.0
 15
0.0
 25
0.0
 16
0.0
 26
0.0
 36
1.0
 17
0.0
 27
0.0
 37
0.0
 40
11.0072450655855
 41
1.505548705302096
 42
50.0
 43
0.0
 44
0.0
 50
0.0
 51
0.0
 71
     0
 72
 10000
 73
     1
 74
     1
 75
     0
 76
     0
 77
     0
 78
     0
281
     0
 65
     1
110
0.0
120
0.0
130
0.0
111
1.0
121
0.0
131
0.0
112
0.0
122
1.0
132
0.0
 79
     0
146
0.0
  0
ENDTAB
  0
TABLE
  2
LTYPE
  5
5
330
0
100
AcDbSymbolTable
 70
     1
  0
LTYPE
  5
13
330
5
100
AcDbSymbolTableRecord
100
AcDbLinetypeTableRecord
  2
ByBlock
 70
     0
  3

 72
    65
 73
     0
 40
0.0
  0
LTYPE
  5
14
330
5
100
AcDbSymbolTableRecord
100
AcDbLinetypeTableRecord
  2
ByLayer
 70
     0
  3

 72
    65
 73
     0
 40
0.0
  0
LTYPE
  5
15
330
5
100
AcDbSymbolTableRecord
100
AcDbLinetypeTableRecord
  2
CONTINUOUS
 70
     0
  3
Solid line
 72
    65
 73
     0
 40
0.0
  0
ENDTAB
  0
TABLE
  2
LAYER
  5
2
330
0
100
AcDbSymbolTable
 70
     4
  0
LAYER
  5
10
330
2
100
AcDbSymbolTableRecord
100
AcDbLayerTableRecord
  2
0
 70
     0
 62
     7
  6
CONTINUOUS
370
    -3
390
F
  0
LAYER
  5
33
330
2
100
AcDbSymbolTableRecord
100
AcDbLayerTableRecord
  2
IMAGE
 70
     0
 62
     7
  6
CONTINUOUS
370
    -3
390
F
  0
LAYER
  5
34
330
2
100
AcDbSymbolTableRecord
100
AcDbLayerTableRecord
  2
TITLE
 70
     0
 62
     4
  6
CONTINUOUS
370
    -3
390
F
  0
LAYER
  5
1A22
330
2
100
AcDbSymbolTableRecord
100
AcDbLayerTableRecord
  2
TEXT_BUBBLES
 70
     0
 62
     6
  6
CONTINUOUS
370
    -3
390
F
1001
RAK
1000
{EFB-CP-BUBBLES
1070
     0
1070
     6
1000
CONTINUOUS
1000
EFB-CP-BUBBLES}
1000
{EFB-CP-LEADERS
1070
     0
1070
    -6
1000
CONTINUOUS
1000
EFB-CP-LEADERS}
1000
{EFB-CP-BSP-BUBBLES
1070
     0
1070
     6
1000
CONTINUOUS
1000
EFB-CP-BSP-BUBBLES}
1000
{EFB-CP-BSP-LEADERS
1070
     0
1070
    -6
1000
CONTINUOUS
1000
EFB-CP-BSP-LEADERS}
1000
{EFB-CP-NP-BUBBLES
1070
     0
1070
     6
1000
CONTINUOUS
1000
EFB-CP-NP-BUBBLES}
1000
{EFB-CP-NP-LEADERS
1070
     0
1070
    -6
1000
CONTINUOUS
1000
EFB-CP-NP-LEADERS}
1000
{EFB-CP-PRS-BUBBLES
1070
     0
1070
     6
1000
CONTINUOUS
1000
EFB-CP-PRS-BUBBLES}
1000
{EFB-CP-PRS-LEADERS
1070
     0
1070
    -6
1000
CONTINUOUS
1000
EFB-CP-PRS-LEADERS}
1000
{EFB-CP-PRS-BSP-BUBBLES
1070
     0
1070
     6
1000
CONTINUOUS
1000
EFB-CP-PRS-BSP-BUBBLES}
1000
{EFB-CP-PRS-BSP-LEADERS
1070
     0
1070
    -6
1000
CONTINUOUS
1000
EFB-CP-PRS-BSP-LEADERS}
1000
{EFB-CP-PRS-NP-BUBBLES
1070
     0
1070
     6
1000
CONTINUOUS
1000
EFB-CP-PRS-NP-BUBBLES}
1000
{EFB-CP-PRS-NP-LEADERS
1070
     0
1070
    -6
1000
CONTINUOUS
1000
EFB-CP-PRS-NP-LEADERS}
  0
ENDTAB
  0
TABLE
  2
STYLE
  5
3
330
0
100
AcDbSymbolTable
 70
     5
  0
STYLE
  5
11
330
3
100
AcDbSymbolTableRecord
100
AcDbTextStyleTableRecord
  2
STANDARD
 70
     0
 40
0.0
 41
1.0
 50
0.0
 71
     0
 42
0.0
  3
TXT
  4

  0
STYLE
  5
2D
330
3
100
AcDbSymbolTableRecord
100
AcDbTextStyleTableRecord
  2
L100
 70
     0
 40
0.1
 41
1.0
 50
0.0
 71
     0
 42
0.1
  3
simplex
  4

  0
STYLE
  5
2E
330
3
100
AcDbSymbolTableRecord
100
AcDbTextStyleTableRecord
  2
L80
 70
     0
 40
0.08
 41
1.0
 50
0.0
 71
     0
 42
0.08
  3
simplex
  4

  0
STYLE
  5
2F
330
3
100
AcDbSymbolTableRecord
100
AcDbTextStyleTableRecord
  2
L200
 70
     0
 40
0.2
 41
1.0
 50
0.0
 71
     0
 42
0.1
  3
ARIAL.TTF
  4

1001
ACAD
1000
Arial
1071
       34
  0
STYLE
  5
1A24
330
3
100
AcDbSymbolTableRecord
100
AcDbTextStyleTableRecord
  2
ROMANS
 70
     0
 40
0.0
 41
1.0
 50
0.0
 71
     0
 42
0.125
  3
ROMANS.SHX
  4

  0
ENDTAB
  0
TABLE
  2
VIEW
  5
6
330
0
100
AcDbSymbolTable
 70
     1
  0
VIEW
  5
1BF0
330
6
100
AcDbSymbolTableRecord
100
AcDbViewTableRecord
  2
PS1
 70
     0
 40
10.44
 10
8.244999999999999
 20
5.22
 41
16.49
 11
0.0
 21
0.0
 31
1.0
 12
0.0
 22
0.0
 32
0.0
 42
50.0
 43
0.0
 44
0.0
 50
0.0
 71
     0
281
     0
 72
     1
110
0.0
120
0.0
130
0.0
111
1.0
121
0.0
131
0.0
112
0.0
122
1.0
132
0.0
 79
     0
146
0.0
  0
ENDTAB
  0
TABLE
  2
UCS
  5
7
330
0
100
AcDbSymbolTable
 70
     0
  0
ENDTAB
  0
TABLE
  2
APPID
  5
9
330
0
100
AcDbSymbolTable
 70
    28
  0
APPID
  5
12
330
9
100
AcDbSymbolTableRecord
100
AcDbRegAppTableRecord
  2
ACAD
 70
     0
  0
APPID
  5
32
330
9
100
AcDbSymbolTableRecord
100
AcDbRegAppTableRecord
  2
CLSI_CADWRITER
 70
     0
  0
APPID
  5
1A25
330
9
100
AcDbSymbolTableRecord
100
AcDbRegAppTableRecord
  2
RAK
 70
     0
  0
APPID
  5
1A26
330
9
100
AcDbSymbolTableRecord
100
AcDbRegAppTableRecord
  2
WID_Sprinkler
 70
     0
  0
APPID
  5
1A27
330
9
100
AcDbSymbolTableRecord
100
AcDbRegAppTableRecord
  2
WID_Valve
 70
     0
  0
APPID
  5
1A28
330
9
100
AcDbSymbolTableRecord
100
AcDbRegAppTableRecord
  2
WID_Fitting
 70
     0
  0
APPID
  5
1A29
330
9
100
AcDbSymbolTableRecord
100
AcDbRegAppTableRecord
  2
WID_HPNode
 70
     0
  0
APPID
  5
1A2A
330
9
100
AcDbSymbolTableRecord
100
AcDbRegAppTableRecord
  2
WID_Node
 70
     0
  0
APPID
  5
1A2B
330
9
100
AcDbSymbolTableRecord
100
AcDbRegAppTableRecord
  2
WID_Conduit
 70
     0
  0
APPID
  5
1A2C
330
9
100
AcDbSymbolTableRecord
100
AcDbRegAppTableRecord
  2
WID_SprinklerSection
 70
     0
  0
APPID
  5
1A2D
330
9
100
AcDbSymbolTableRecord
100
AcDbRegAppTableRecord
  2
WID_MainLineSection
 70
     0
  0
APPID
  5
1A2E
330
9
100
AcDbSymbolTableRecord
100
AcDbRegAppTableRecord
  2
WID_ManifoldSection
 70
     0
  0
APPID
  5
1A2F
330
9
100
AcDbSymbolTableRecord
100
AcDbRegAppTableRecord
  2
WID_DripSection
 70
     0
  0
APPID
  5
1A30
330
9
100
AcDbSymbolTableRecord
100
AcDbRegAppTableRecord
  2
WID_HPSection
 70
     0
  0
APPID
  5
1A31
330
9
100
AcDbSymbolTableRecord
100
AcDbRegAppTableRecord
  2
WID_Sleeve
 70
     0
  0
APPID
  5
1A32
330
9
100
AcDbSymbolTableRecord
100
AcDbRegAppTableRecord
  2
WID_Layout
 70
     0
  0
APPID
  5
1A33
330
9
100
AcDbSymbolTableRecord
100
AcDbRegAppTableRecord
  2
WID_Island
 70
     0
  0
APPID
  5
1A34
330
9
100
AcDbSymbolTableRecord
100
AcDbRegAppTableRecord
  2
WID_Controller
 70
     0
  0
APPID
  5
1A35
330
9
100
AcDbSymbolTableRecord
100
AcDbRegAppTableRecord
  2
WID_SprinklerLateral
 70
     0
  0
APPID
  5
1A36
330
9
100
AcDbSymbolTableRecord
100
AcDbRegAppTableRecord
  2
WID_HPDripLateral
 70
     0
  0
APPID
  5
1A37
330
9
100
AcDbSymbolTableRecord
100
AcDbRegAppTableRecord
  2
WID_LabelPipeSize
 70
     0
  0
APPID
  5
1A38
330
9
100
AcDbSymbolTableRecord
100
AcDbRegAppTableRecord
  2
WID_LabelPipeSegment
 70
     0
  0
APPID
  5
1A39
330
9
100
AcDbSymbolTableRecord
100
AcDbRegAppTableRecord
  2
WID_LabelValveDesignator
 70
     0
  0
APPID
  5
1A3A
330
9
100
AcDbSymbolTableRecord
100
AcDbRegAppTableRecord
  2
WID_CheckArc
 70
     0
  0
APPID
  5
1A3B
330
9
100
AcDbSymbolTableRecord
100
AcDbRegAppTableRecord
  2
WID_ObjectType
 70
     0
  0
APPID
  5
1A3C
330
9
100
AcDbSymbolTableRecord
100
AcDbRegAppTableRecord
  2
WID_DripLateral
 70
     0
  0
APPID
  5
1A3D
330
9
100
AcDbSymbolTableRecord
100
AcDbRegAppTableRecord
  2
ABNSLEADERTOOLS
 70
     0
  0
APPID
  5
1A3E
330
9
100
AcDbSymbolTableRecord
100
AcDbRegAppTableRecord
  2
DCO15
 70
     0
  0
ENDTAB
  0
TABLE
  2
DIMSTYLE
  5
A
330
0
100
AcDbSymbolTable
 70
     1
100
AcDbDimStyleTable
 71
     0
  0
DIMSTYLE
105
1931
330
A
100
AcDbSymbolTableRecord
100
AcDbDimStyleTableRecord
  2
Standard
 70
     0
340
11
  0
ENDTAB
  0
TABLE
  2
BLOCK_RECORD
  5
1
330
0
100
AcDbSymbolTable
 70
     5
  0
BLOCK_RECORD
  5
1E
330
1
100
AcDbSymbolTableRecord
100
AcDbBlockTableRecord
  2
*Model_Space
340
21
  0
BLOCK_RECORD
  5
1A
330
1
100
AcDbSymbolTableRecord
100
AcDbBlockTableRecord
  2
*Paper_Space
340
1D
  0
BLOCK_RECORD
  5
23
330
1
100
AcDbSymbolTableRecord
100
AcDbBlockTableRecord
  2
TITLBLK
340
0
102
{BLKREFS
331
1AC5
102
}
  0
BLOCK_RECORD
  5
1947
330
1
100
AcDbSymbolTableRecord
100
AcDbBlockTableRecord
  2
bubble
340
0
310
2800000020000000200000000100080000000000000400000000000000000000000000000000000000000000000080000080000000808000800000008000800080800000C0C0C000C0DCC000F0CAA6000020400000206000002080000020A0000020C0000020E00000400000004020000040400000406000004080000040A0
310
000040C0000040E00000600000006020000060400000606000006080000060A0000060C0000060E00000800000008020000080400000806000008080000080A0000080C0000080E00000A0000000A0200000A0400000A0600000A0800000A0A00000A0C00000A0E00000C0000000C0200000C0400000C0600000C0800000C0
310
A00000C0C00000C0E00000E0000000E0200000E0400000E0600000E0800000E0A00000E0C00000E0E00040000000400020004000400040006000400080004000A0004000C0004000E00040200000402020004020400040206000402080004020A0004020C0004020E000404000004040200040404000404060004040800040
310
40A0004040C0004040E00040600000406020004060400040606000406080004060A0004060C0004060E00040800000408020004080400040806000408080004080A0004080C0004080E00040A0000040A0200040A0400040A0600040A0800040A0A00040A0C00040A0E00040C0000040C0200040C0400040C0600040C08000
310
40C0A00040C0C00040C0E00040E0000040E0200040E0400040E0600040E0800040E0A00040E0C00040E0E00080000000800020008000400080006000800080008000A0008000C0008000E00080200000802020008020400080206000802080008020A0008020C0008020E00080400000804020008040400080406000804080
310
008040A0008040C0008040E00080600000806020008060400080606000806080008060A0008060C0008060E00080800000808020008080400080806000808080008080A0008080C0008080E00080A0000080A0200080A0400080A0600080A0800080A0A00080A0C00080A0E00080C0000080C0200080C0400080C0600080C0
310
800080C0A00080C0C00080C0E00080E0000080E0200080E0400080E0600080E0800080E0A00080E0C00080E0E000C0000000C0002000C0004000C0006000C0008000C000A000C000C000C000E000C0200000C0202000C0204000C0206000C0208000C020A000C020C000C020E000C0400000C0402000C0404000C0406000C0
310
408000C040A000C040C000C040E000C0600000C0602000C0604000C0606000C0608000C060A000C060C000C060E000C0800000C0802000C0804000C0806000C0808000C080A000C080C000C080E000C0A00000C0A02000C0A04000C0A06000C0A08000C0A0A000C0A0C000C0A0E000C0C00000C0C02000C0C04000C0C06000
310
C0C08000C0C0A000F0FBFF00A4A0A000808080000000FF0000FF000000FFFF00FF000000FF00FF00FFFF0000FFFFFF0008080808080808080808080808080808080808080808080808080808080808080808080808080808080808080808080808080808080808080808080808080808080808080808080808080808FDFDFD
310
08080808080808080808080808080808080808080808080808080808FD080808FDFDFDFDFDFD0808080808080808080808080808080808080808FDFD08080808080808080808FDFDFDFD080808080808080808080808080808FD08080808080808080808080808080808FD08080808080808080808080808FD080808080808
310
0808080808080808080808FD0808080808080808080808FDFD08080808080808080808080808080808080808FD080808080808080808FD080808080808080808080808080808080808080808FD0808080808080808FD08FD0808080808080808FD0808FD0808080808080808FDFD08080808080808FD0808FD080808080808
310
FD08080808FD080808080808FD08FD08080808080808FD0808FD080808080808FD08080808FD080808080808FD0808FD080808080808FD080808FD08080808FD080808080808FD08080808FD080808FD080808080808FD08080808FD0808FD0808080808080808FD0808FD0808080808FD0808080808FD08080808FD0808FD
310
0808080808080808FD0808FD0808080808FD0808080808FD0808080808FDFD08080808080808080808FDFD08080808080808FD08080808FD0808080808FDFD08080808080808080808FDFD08080808080808FD08080808FD08080808FD0808FD0808080808080808FD0808FD0808080808FD0808080808FD08080808FD0808
310
FD0808080808080808FD0808FD0808080808FD0808080808FD080808FD08080808FD080808080808FD08080808FD080808FD080808080808FD0808FD080808080808FD08080808FD080808080808FD0808FD080808080808FD0808FD080808080808FD08080808FD080808080808FD08FD08080808080808FD08FD08080808
310
08080808FD0808FD0808080808080808FDFD0808080808080808FD080808080808080808080808080808080808080808FD08080808080808080808FDFD08080808080808080808080808080808080808FD080808080808080808080808FD0808080808080808080808080808080808FD0808080808080808080808080808FD
310
08080808080808080808080808080808FD080808080808080808080808080808FDFD0808080808080808080808FDFDFD080808080808080808080808080808080808FD08080808FDFDFDFDFDFD08080808080808080808080808080808080808080808FDFDFDFD080808080808080808080808080808080808080808080808
310
0808080808080808080808080808080808080808080808080808080808080808080808080808080808080808080808080808080808080808
102
{BLKREFS
331
1A95
331
1A98
331
1A9B
331
1A9E
331
1AA1
331
1AA4
331
1AA7
331
1AEA
331
1AED
331
1AF2
331
1AF5
331
1AFB
331
1AFE
331
1B01
331
1B04
331
1B08
331
1BBE
331
1BF1
102
}
  0
BLOCK_RECORD
  5
194C
330
1
100
AcDbSymbolTableRecord
100
AcDbBlockTableRecord
  2
PlotLayout2002
340
0
102
{BLKREFS
331
1950
331
1BE9
102
}
  0
BLOCK_RECORD
  5
194F
330
1
100
AcDbSymbolTableRecord
100
AcDbBlockTableRecord
  2
wid
340
0
102
{BLKREFS
331
1AC2
331
1AC3
102
}
  0
BLOCK_RECORD
  5
1BE8
330
1
100
AcDbSymbolTableRecord
100
AcDbBlockTableRecord
  2
pagesetups
340
0
102
{BLKREFS
331
1BEE
331
1BEF
102
}
  0
ENDTAB
  0
ENDSEC
  0
SECTION
  2
BLOCKS
  0
BLOCK
  5
4A
330
1E
100
AcDbEntity
  8
0
100
AcDbBlockBegin
  2
*Model_Space
 70
     0
 10
0.0
 20
0.0
 30
0.0
  3
*Model_Space
  1

  0
ENDBLK
  5
4B
330
1E
100
AcDbEntity
  8
0
100
AcDbBlockEnd
  0
BLOCK
  5
48
330
1A
100
AcDbEntity
 67
     1
  8
0
100
AcDbBlockBegin
  2
*Paper_Space
 70
     0
 10
0.0
 20
0.0
 30
0.0
  3
*Paper_Space
  1

  0
ENDBLK
  5
49
330
1A
100
AcDbEntity
 67
     1
  8
0
100
AcDbBlockEnd
  0
BLOCK
  5
5F
330
23
100
AcDbEntity
  8
0
100
AcDbBlockBegin
  2
TITLBLK
 70
     2
 10
0.0
 20
0.0
 30
0.0
  3
TITLBLK
  1

  0
LWPOLYLINE
  5
60
330
23
100
AcDbEntity
  8
TITLE
 62
     3
100
AcDbPolyline
 90
        2
 70
     0
 43
0.04
 39
0.03
 10
0.3424999999999994
 20
-0.0000000000000003
 10
7.654581983261419
 20
-0.0000000000000003
  0
ATTDEF
  5
64
330
23
100
AcDbEntity
  8
TITLE
100
AcDbText
 10
0.625
 20
0.0999999999999998
 30
0.0
 40
0.2
  1
TITLE
  7
L200
100
AcDbAttributeDefinition
  3
DETAIL TITLE
  2
TITLE
 70
     0
  0
LWPOLYLINE
  5
66
330
23
100
AcDbEntity
  8
TITLE
 62
     3
100
AcDbPolyline
 90
        2
 70
     1
 43
0.03
 10
0.0
 20
-0.3425000000000002
 42
0.9999999999999998
 10
0.0
 20
0.3425000000000002
 42
0.9999999999999998
  0
ATTDEF
  5
6A
330
23
100
AcDbEntity
  8
TITLE
100
AcDbText
 10
-0.0776944065484311
 20
-0.1000000000000003
 30
0.0
 40
0.2
  1
#
  7
L200
 72
     4
 11
0.0
 21
-0.0000000000000003
 31
0.0
100
AcDbAttributeDefinition
  3
#
  2
#
 70
     0
  0
ATTDEF
  5
6B
330
23
100
AcDbEntity
  8
TITLE
 62
     2
100
AcDbText
 10
0.625
 20
-0.1836633170828782
 30
0.0
 40
0.1
  1
N.T.S.
  7
L100
100
AcDbAttributeDefinition
  3
SCALE
  2
SCALE
 70
     0
  0
ATTDEF
  5
6D
330
23
100
AcDbEntity
  8
TITLE
100
AcDbText
 10
2.107203380653828
 20
-0.2914343300200487
 30
0.0
 40
0.2
  1
TITLE2
  7
L200
100
AcDbAttributeDefinition
  3
DETAIL TITLE2
  2
TITLE2
 70
     0
  0
ATTDEF
  5
6E
330
23
100
AcDbEntity
  8
TITLE
 62
     2
100
AcDbText
 10
6.9955343642138
 20
-0.1618486459795794
 30
0.0
 40
0.08
  1
-
  7
L80
 72
     2
 11
7.654581983261419
 21
-0.1618486459795794
 31
0.0
100
AcDbAttributeDefinition
  3
DWG-NAME
  2
DWG-NAME
 70
     0
  0
ATTDEF
  5
6F
330
23
100
AcDbEntity
  8
TITLE
 62
     2
100
AcDbText
 10
7.193629602309038
 20
0.0853756950662722
 30
0.0
 40
0.08
  1
-
  7
L80
 72
     2
 11
7.654581983261419
 21
0.0853756950662722
 31
0.0
100
AcDbAttributeDefinition
  3
REVISION DATE
  2
REVISED
 70
     0
  0
ENDBLK
  5
70
330
23
100
AcDbEntity
  8
0
100
AcDbBlockEnd
  0
BLOCK
  5
194A
330
1947
100
AcDbEntity
  8
0
100
AcDbBlockBegin
  2
bubble
 70
     2
 10
0.0
 20
0.0
 30
0.0
  3
bubble
  1

  0
CIRCLE
  5
1948
330
1947
100
AcDbEntity
  8
TEXT_BUBBLES
100
AcDbCircle
 10
0.0
 20
0.0
 30
0.0
 40
0.1398891854377198
  0
ATTDEF
  5
1949
330
1947
100
AcDbEntity
  8
TEXT_BUBBLES
100
AcDbText
 10
0.0
 20
0.0
 30
0.0
 40
0.125
  1

  7
ROMANS
 72
     4
 11
0.0
 21
0.0
 31
0.0
100
AcDbAttributeDefinition
  3
Number
  2
XX
 70
     0
  0
ENDBLK
  5
194B
330
1947
100
AcDbEntity
  8
0
100
AcDbBlockEnd
  0
BLOCK
  5
194D
330
194C
100
AcDbEntity
  8
0
100
AcDbBlockBegin
  2
PlotLayout2002
 70
     0
 10
0.0
 20
0.0
 30
0.0
  3
PlotLayout2002
  1

  0
ENDBLK
  5
194E
330
194C
100
AcDbEntity
  8
0
100
AcDbBlockEnd
  0
BLOCK
  5
1951
330
194F
100
AcDbEntity
  8
0
 62
    40
100
AcDbBlockBegin
  2
wid
 70
     0
 10
0.0
 20
0.0
 30
0.0
  3
wid
  1

  0
INSERT
  5
1950
330
194F
100
AcDbEntity
  8
0
100
AcDbBlockReference
  2
PlotLayout2002
 10
0.0
 20
0.0
 30
0.0
  0
ENDBLK
  5
1952
330
194F
100
AcDbEntity
  8
0
 62
    40
100
AcDbBlockEnd
  0
BLOCK
  5
1BEA
330
1BE8
100
AcDbEntity
  8
0
100
AcDbBlockBegin
  2
pagesetups
 70
     0
 10
0.0
 20
0.0
 30
0.0
  3
pagesetups
  1

  0
INSERT
  5
1BE9
330
1BE8
100
AcDbEntity
  8
0
100
AcDbBlockReference
  2
PlotLayout2002
 10
0.0
 20
0.0
 30
0.0
  0
ENDBLK
  5
1BEB
330
1BE8
100
AcDbEntity
  8
0
100
AcDbBlockEnd
  0
ENDSEC
  0
SECTION
  2
ENTITIES
  0
LINE
  5
171B
330
1E
100
AcDbEntity
  8
IMAGE
100
AcDbLine
 10
2.855187986680116
 20
7.11674776790749
 30
0.0
 11
2.855187986680116
 21
4.765818268327429
 31
0.0
  0
CIRCLE
  5
171C
330
1E
100
AcDbEntity
  8
IMAGE
  6
Continuous
100
AcDbCircle
 10
5.419925745355831
 20
5.429066590733414
 30
0.0
 40
0.0304768872
  0
CIRCLE
  5
171D
330
1E
100
AcDbEntity
  8
IMAGE
  6
Continuous
100
AcDbCircle
 10
5.56201720064933
 20
5.433805776134392
 30
0.0
 40
0.0304768872
  0
LINE
  5
171E
330
1E
100
AcDbEntity
  8
IMAGE
  6
Continuous
100
AcDbLine
 10
5.373786661250496
 20
5.028277377805839
 30
0.0
 11
5.373786661250496
 21
5.86958644989604
 31
0.0
  0
LINE
  5
171F
330
1E
100
AcDbEntity
  8
IMAGE
  6
Continuous
100
AcDbLine
 10
5.148365572850496
 20
5.86958644989604
 30
0.0
 11
5.148365572850496
 21
5.023534518105904
 31
0.0
  0
LINE
  5
1720
330
1E
100
AcDbEntity
  8
IMAGE
  6
Continuous
100
AcDbLine
 10
3.982175119736448
 20
5.028277377805839
 30
0.0
 11
3.982175119736448
 21
5.86958644989604
 31
0.0
  0
LINE
  5
1721
330
1E
100
AcDbEntity
  8
IMAGE
  6
Continuous
100
AcDbLine
 10
4.20759620813645
 20
5.86958644989604
 30
0.0
 11
4.20759620813645
 21
5.023534518105904
 31
0.0
  0
ARC
  5
172A
330
1E
100
AcDbEntity
  8
IMAGE
  6
Continuous
100
AcDbCircle
 10
5.59920772069149
 20
5.023534489146895
 30
0.0
 40
0.4508421478409926
100
AcDbArc
 50
179.9999963197119
 51
270.000003680288
  0
LINE
  5
172F
330
1E
100
AcDbEntity
  8
IMAGE
  6
Continuous
100
AcDbLine
 10
3.333728065441379
 20
4.802855538002211
 30
0.0
 11
3.756754031336447
 21
4.802855538002211
 31
0.0
  0
LINE
  5
1730
330
1E
100
AcDbEntity
  8
IMAGE
  6
Continuous
100
AcDbLine
 10
3.756754031336447
 20
4.572692341305904
 30
0.0
 11
3.333728065441379
 21
4.572692341305904
 31
0.0
  0
LINE
  5
1732
330
1E
100
AcDbEntity
  8
IMAGE
  6
Continuous
100
AcDbLine
 10
3.063728454003026
 20
4.832911683122212
 30
0.0
 11
3.063728454003026
 21
4.547378304482212
 31
0.0
  0
LINE
  5
1733
330
1E
100
AcDbEntity
  8
IMAGE
  6
Continuous
100
AcDbLine
 10
3.333728065441379
 20
4.547378304482212
 30
0.0
 11
3.333728065441379
 21
4.832911683122212
 31
0.0
  0
ARC
  5
1734
330
1E
100
AcDbEntity
  8
IMAGE
  6
Continuous
100
AcDbCircle
 10
2.586295004492457
 20
4.745662450856992
 30
0.0
 40
0.0575408217161858
100
AcDbArc
 50
90.0
 51
270.0
  0
ARC
  5
1735
330
1E
100
AcDbEntity
  8
IMAGE
  6
Continuous
100
AcDbCircle
 10
2.586295004492457
 20
4.744968905308347
 30
0.0
 40
0.0575409569688389
100
AcDbArc
 50
90.0
 51
270.0
  0
ARC
  5
1736
330
1E
100
AcDbEntity
  8
IMAGE
  6
Continuous
100
AcDbCircle
 10
2.586295004492457
 20
4.744968905308347
 30
0.0
 40
0.0575409569688389
100
AcDbArc
 50
90.0
 51
270.0
  0
ARC
  5
1737
330
1E
100
AcDbEntity
  8
IMAGE
  6
Continuous
100
AcDbCircle
 10
2.586295004492457
 20
4.745662450856992
 30
0.0
 40
0.0575408217161858
100
AcDbArc
 50
90.0
 51
270.0
  0
LINE
  5
1739
330
1E
100
AcDbEntity
  8
IMAGE
  6
Continuous
100
AcDbLine
 10
2.58626224329428
 20
4.572692341305904
 30
0.0
 11
3.063728454003026
 21
4.572692341305903
 31
0.0
  0
LINE
  5
173B
330
1E
100
AcDbEntity
  8
IMAGE
  6
Continuous
100
AcDbLine
 10
2.535005545371708
 20
4.656664702349416
 30
0.0
 11
2.637584012771034
 21
4.656664702349416
 31
0.0
  0
LINE
  5
173C
330
1E
100
AcDbEntity
  8
IMAGE
  6
Continuous
100
AcDbLine
 10
2.641713727110518
 20
4.646062397158335
 30
0.0
 11
2.530875831032224
 21
4.646062397158335
 31
0.0
  0
LINE
  5
173D
330
1E
100
AcDbEntity
  8
IMAGE
  6
Continuous
100
AcDbLine
 10
2.528961480009163
 20
4.635460091967255
 30
0.0
 11
2.643628078133573
 21
4.635460091967255
 31
0.0
  0
LINE
  5
173E
330
1E
100
AcDbEntity
  8
IMAGE
  6
Continuous
100
AcDbLine
 10
2.643550458138802
 20
4.624858538179803
 30
0.0
 11
2.529039400565388
 21
4.624858538179803
 31
0.0
  0
LINE
  5
173F
330
1E
100
AcDbEntity
  8
IMAGE
  6
Continuous
100
AcDbLine
 10
2.531118233842613
 20
4.614256232988722
 30
0.0
 11
2.641471624861578
 21
4.614256232988722
 31
0.0
  0
LINE
  5
1740
330
1E
100
AcDbEntity
  8
IMAGE
  6
Continuous
100
AcDbLine
 10
2.63714654557881
 20
4.603653927797642
 30
0.0
 11
2.535443087704292
 21
4.603653927797642
 31
0.0
  0
LWPOLYLINE
  5
1741
330
1E
100
AcDbEntity
  8
IMAGE
  6
Continuous
100
AcDbPolyline
 90
        2
 70
     1
 43
0.0
 10
2.586295004492457
 20
4.688121463832008
 42
1.0
 10
2.586295004492457
 20
4.573039489782039
 42
1.0
  0
ARC
  5
1745
330
1E
100
AcDbEntity
  8
IMAGE
  6
Continuous
100
AcDbCircle
 10
2.586295004492457
 20
4.629886931258379
 30
0.0
 40
0.0575408217161858
100
AcDbArc
 50
90.0
 51
270.0
  0
ARC
  5
1746
330
1E
100
AcDbEntity
  8
IMAGE
  6
Continuous
100
AcDbCircle
 10
2.586295004492457
 20
4.629886931258379
 30
0.0
 40
0.0575408217161858
100
AcDbArc
 50
90.0
 51
270.0
  0
LINE
  5
1747
330
1E
100
AcDbEntity
  8
IMAGE
  6
Continuous
100
AcDbLine
 10
2.553510287378104
 20
4.677868561327947
 30
0.0
 11
2.619078895062825
 21
4.677868561327947
 31
0.0
  0
LINE
  5
1748
330
1E
100
AcDbEntity
  8
IMAGE
  6
Continuous
100
AcDbLine
 10
2.630624061526319
 20
4.667266256136867
 30
0.0
 11
2.541965421476058
 21
4.667266256136867
 31
0.0
  0
LINE
  5
1749
330
1E
100
AcDbEntity
  8
IMAGE
  6
Continuous
100
AcDbLine
 10
2.542675948746696
 20
4.593052374010191
 30
0.0
 11
2.629913308834593
 21
4.593052374010191
 31
0.0
  0
LINE
  5
174A
330
1E
100
AcDbEntity
  8
IMAGE
  6
Continuous
100
AcDbLine
 10
2.617829385969825
 20
4.582450068819111
 30
0.0
 11
2.554760397594007
 21
4.582450068819111
 31
0.0
  0
LINE
  5
174B
330
1E
100
AcDbEntity
  8
IMAGE
  6
Continuous
100
AcDbLine
 10
3.063728454003026
 20
4.547378304482212
 30
0.0
 11
3.333728065441379
 21
4.547378304482212
 31
0.0
  0
LINE
  5
174C
330
1E
100
AcDbEntity
  8
IMAGE
  6
Continuous
100
AcDbLine
 10
2.58626224329428
 20
4.802855538002211
 30
0.0
 11
3.063728454003026
 21
4.802855538002211
 31
0.0
  0
LWPOLYLINE
  5
174D
330
1E
100
AcDbEntity
  8
IMAGE
  6
Continuous
100
AcDbPolyline
 90
        2
 70
     0
 43
0.018
 10
2.53370242662234
 20
4.722319432271368
 10
2.198889466622341
 20
4.722319432271368
  0
LINE
  5
1751
330
1E
100
AcDbEntity
  8
IMAGE
  6
Continuous
100
AcDbLine
 10
3.333728065441379
 20
4.832911683122212
 30
0.0
 11
3.063728454003026
 21
4.832911683122212
 31
0.0
  0
LWPOLYLINE
  5
1752
330
1E
100
AcDbEntity
  8
IMAGE
100
AcDbPolyline
 90
        2
 70
     0
 43
0.0
 10
2.829726366300681
 20
4.826433573153985
 10
2.886108862118712
 20
4.774922876973381
  0
ARC
  5
1757
330
1E
100
AcDbEntity
  8
IMAGE
  6
Continuous
100
AcDbCircle
 10
3.756754060295456
 20
5.023534489146895
 30
0.0
 40
0.4508421478409926
100
AcDbArc
 50
269.999996319712
 51
0.000003680288046
  0
ARC
  5
175D
330
1E
100
AcDbEntity
  8
IMAGE
  6
Continuous
100
AcDbCircle
 10
3.756753670114187
 20
5.02827698762452
 30
0.0
 40
0.2254214496225991
100
AcDbArc
 50
270.0000918125186
 51
0.0000991730947276
  0
LWPOLYLINE
  5
175F
330
1E
100
AcDbEntity
  8
IMAGE
  6
Continuous
100
AcDbPolyline
 90
        2
 70
     0
 43
0.018
 10
6.724944826622342
 20
4.729450672271368
 10
7.154961946622339
 20
4.729450672271368
  0
LINE
  5
1764
330
1E
100
AcDbEntity
  8
IMAGE
  6
Continuous
100
AcDbLine
 10
5.992669739801906
 20
4.832911683122212
 30
0.0
 11
5.992669739801906
 21
4.547378304482212
 31
0.0
  0
LINE
  5
1765
330
1E
100
AcDbEntity
  8
IMAGE
  6
Continuous
100
AcDbLine
 10
6.262669351240258
 20
4.547378304482212
 30
0.0
 11
6.262669351240258
 21
4.832911683122212
 31
0.0
  0
ARC
  5
1766
330
1E
100
AcDbEntity
  8
IMAGE
  6
Continuous
100
AcDbCircle
 10
6.669735504076607
 20
4.745662450856992
 30
0.0
 40
0.0575408217161858
100
AcDbArc
 50
270.0
 51
90.0
  0
ARC
  5
1767
330
1E
100
AcDbEntity
  8
IMAGE
  6
Continuous
100
AcDbCircle
 10
6.669735504076607
 20
4.744968905308347
 30
0.0
 40
0.0575409569688389
100
AcDbArc
 50
270.0
 51
90.0
  0
ARC
  5
1768
330
1E
100
AcDbEntity
  8
IMAGE
  6
Continuous
100
AcDbCircle
 10
6.669735504076607
 20
4.744968905308347
 30
0.0
 40
0.0575409569688389
100
AcDbArc
 50
270.0
 51
90.0
  0
ARC
  5
1769
330
1E
100
AcDbEntity
  8
IMAGE
  6
Continuous
100
AcDbCircle
 10
6.669735504076607
 20
4.745662450856992
 30
0.0
 40
0.0575408217161858
100
AcDbArc
 50
270.0
 51
90.0
  0
LINE
  5
176A
330
1E
100
AcDbEntity
  8
IMAGE
  6
Continuous
100
AcDbLine
 10
5.992669739801906
 20
4.547378304482212
 30
0.0
 11
6.262669351240258
 21
4.547378304482212
 31
0.0
  0
LINE
  5
176B
330
1E
100
AcDbEntity
  8
IMAGE
  6
Continuous
100
AcDbLine
 10
5.599207749650496
 20
4.572692341305904
 30
0.0
 11
5.992669739801906
 21
4.572692341305904
 31
0.0
  0
LINE
  5
1771
330
1E
100
AcDbEntity
  8
IMAGE
  6
Continuous
100
AcDbLine
 10
6.262669351240258
 20
4.572692341305904
 30
0.0
 11
6.669735504076607
 21
4.573039489782039
 31
0.0
  0
LINE
  5
1772
330
1E
100
AcDbEntity
  8
IMAGE
  6
Continuous
100
AcDbLine
 10
6.702519995769877
 20
4.677868561327947
 30
0.0
 11
6.636951012383338
 21
4.677868561327947
 31
0.0
  0
LINE
  5
1773
330
1E
100
AcDbEntity
  8
IMAGE
  6
Continuous
100
AcDbLine
 10
6.625406447042747
 20
4.667266256136867
 30
0.0
 11
6.714064561110468
 21
4.667266256136867
 31
0.0
  0
LINE
  5
1774
330
1E
100
AcDbEntity
  8
IMAGE
  6
Continuous
100
AcDbLine
 10
6.721024812916631
 20
4.656664702349416
 30
0.0
 11
6.618446195236584
 21
4.656664702349416
 31
0.0
  0
LINE
  5
1775
330
1E
100
AcDbEntity
  8
IMAGE
  6
Continuous
100
AcDbLine
 10
6.614316480897095
 20
4.646062397158335
 30
0.0
 11
6.725154527256121
 21
4.646062397158335
 31
0.0
  0
LINE
  5
1776
330
1E
100
AcDbEntity
  8
IMAGE
  6
Continuous
100
AcDbLine
 10
6.727069103700266
 20
4.635460091967255
 30
0.0
 11
6.61240190445295
 21
4.635460091967255
 31
0.0
  0
LINE
  5
1777
330
1E
100
AcDbEntity
  8
IMAGE
  6
Continuous
100
AcDbLine
 10
6.612479299026635
 20
4.624858538179803
 30
0.0
 11
6.726990957722952
 21
4.624858538179803
 31
0.0
  0
LINE
  5
1778
330
1E
100
AcDbEntity
  8
IMAGE
  6
Continuous
100
AcDbLine
 10
6.724911823884276
 20
4.614256232988722
 30
0.0
 11
6.61455843286531
 21
4.614256232988722
 31
0.0
  0
LINE
  5
1779
330
1E
100
AcDbEntity
  8
IMAGE
  6
Continuous
100
AcDbLine
 10
6.618883512148082
 20
4.603653927797642
 30
0.0
 11
6.720587496005137
 21
4.603653927797642
 31
0.0
  0
LINE
  5
177A
330
1E
100
AcDbEntity
  8
IMAGE
  6
Continuous
100
AcDbLine
 10
6.713354484682007
 20
4.593052374010191
 30
0.0
 11
6.626116523471209
 21
4.593052374010191
 31
0.0
  0
LINE
  5
177B
330
1E
100
AcDbEntity
  8
IMAGE
  6
Continuous
100
AcDbLine
 10
6.638200596616703
 20
4.582450068819111
 30
0.0
 11
6.701269660132883
 21
4.582450068819111
 31
0.0
  0
LWPOLYLINE
  5
177C
330
1E
100
AcDbEntity
  8
IMAGE
  6
Continuous
100
AcDbPolyline
 90
        2
 70
     1
 43
0.0
 10
6.669735504076607
 20
4.688121463832008
 42
-1.0
 10
6.669735504076607
 20
4.573039489782039
 42
-1.0
  0
ARC
  5
1780
330
1E
100
AcDbEntity
  8
IMAGE
  6
Continuous
100
AcDbCircle
 10
6.669735504076607
 20
4.629886931258379
 30
0.0
 40
0.0575408217161858
100
AcDbArc
 50
270.0
 51
90.0
  0
ARC
  5
1781
330
1E
100
AcDbEntity
  8
IMAGE
  6
Continuous
100
AcDbCircle
 10
6.669735504076607
 20
4.629886931258379
 30
0.0
 40
0.0575408217161858
100
AcDbArc
 50
270.0
 51
90.0
  0
LINE
  5
1782
330
1E
100
AcDbEntity
  8
IMAGE
  6
Continuous
100
AcDbLine
 10
6.262669351240258
 20
4.832911683122212
 30
0.0
 11
5.992669739801906
 21
4.832911683122212
 31
0.0
  0
LINE
  5
1783
330
1E
100
AcDbEntity
  8
IMAGE
  6
Continuous
100
AcDbLine
 10
5.992669739801906
 20
4.802855538002211
 30
0.0
 11
5.599207749650496
 21
4.802855538002211
 31
0.0
  0
ARC
  5
1784
330
1E
100
AcDbEntity
  8
IMAGE
  6
Continuous
100
AcDbCircle
 10
5.599208110872757
 20
5.028276987624522
 30
0.0
 40
0.2254214496225996
100
AcDbArc
 50
179.9999008269054
 51
269.9999081874814
  0
LINE
  5
1785
330
1E
100
AcDbEntity
  8
IMAGE
  6
Continuous
100
AcDbLine
 10
6.669735504076607
 20
4.803203437881975
 30
0.0
 11
6.262669351240258
 21
4.802856289405839
 31
0.0
  0
LWPOLYLINE
  5
1798
330
1E
100
AcDbEntity
  8
IMAGE
  6
Continuous
100
AcDbPolyline
 90
        4
 70
     1
 43
0.0
 10
5.809417810622342
 20
7.112196352271368
 10
3.521721850622341
 20
7.112196352271368
 10
3.521721850622341
 20
7.213199032271368
 10
5.809417810622342
 20
7.213785472271368
  0
LINE
  5
179E
330
1E
100
AcDbEntity
  8
IMAGE
  6
Continuous
100
AcDbLine
 10
5.403842806370498
 20
6.139586061334395
 30
0.0
 11
5.118309427730496
 21
6.139586061334395
 31
0.0
  0
LINE
  5
179F
330
1E
100
AcDbEntity
  8
IMAGE
  6
Continuous
100
AcDbLine
 10
5.118309427730496
 20
5.86958644989604
 30
0.0
 11
5.403842806370498
 21
5.86958644989604
 31
0.0
  0
LWPOLYLINE
  5
17A0
330
1E
100
AcDbEntity
  8
IMAGE
  6
Continuous
100
AcDbPolyline
 90
        4
 70
     0
 43
0.0
 10
5.373786661250496
 20
6.139586061334395
 10
5.373786661250496
 20
6.496175924056216
 10
5.148365572850496
 20
6.496175924056216
 10
5.148365572850496
 20
6.139586061334395
  0
LWPOLYLINE
  5
17A7
330
1E
100
AcDbEntity
  8
IMAGE
  6
Continuous
100
AcDbPolyline
 90
       15
 70
     1
 43
0.0
 10
3.52172282262234
 20
5.563109152271368
 10
3.52172282262234
 20
5.728396672271368
 10
3.52172282262234
 20
5.894149672271367
 10
3.52172282262234
 20
5.728396672271368
 10
3.52172282262234
 20
5.894149672271367
 10
3.52172282262234
 20
6.960918592271368
 10
3.552199342622339
 20
7.069387312271367
 10
3.501404782622339
 20
7.069387312271367
 10
3.501404782622339
 20
7.213199032271368
 10
3.338861542622341
 20
7.213199032271368
 10
3.338861542622341
 20
7.069387312271367
 10
3.420132622622341
 20
6.960918592271368
 10
3.420132622622341
 20
5.894149672271367
 10
3.420132622622341
 20
5.728396672271368
 10
3.420132622622341
 20
5.563109152271368
  0
CIRCLE
  5
17B9
330
1E
100
AcDbEntity
  8
IMAGE
  6
Continuous
100
AcDbCircle
 10
3.572458345203205
 20
6.079093958304458
 30
0.0
 40
0.01015893144
  0
CIRCLE
  5
17BA
330
1E
100
AcDbEntity
  8
IMAGE
  6
Continuous
100
AcDbCircle
 10
3.587780313532364
 20
5.929782469124003
 30
0.0
 40
0.0304768872
  0
LWPOLYLINE
  5
17BB
330
1E
100
AcDbEntity
  8
IMAGE
  6
Continuous
100
AcDbPolyline
 90
        4
 70
     1
 43
0.0
 10
3.265605142622339
 20
5.563109152271368
 10
3.265605142622339
 20
5.418484192271368
 10
3.68719610262234
 20
5.418484192271368
 10
3.68719610262234
 20
5.563109152271368
  0
CIRCLE
  5
17C1
330
1E
100
AcDbEntity
  8
IMAGE
  6
Continuous
100
AcDbCircle
 10
3.557545526222343
 20
6.352300252271366
 30
0.0
 40
0.0304768872
  0
TEXT
  5
17C2
330
1E
100
AcDbEntity
  8
IMAGE
100
AcDbText
 10
2.815079813958068
 20
5.58942045154264
 30
0.0
 40
0.125
  1
18" MIN.
 50
90.0
  7
L100
 72
     4
 11
2.740675052053306
 21
5.96442045154264
 31
0.0
100
AcDbText
  0
CIRCLE
  5
17C6
330
1E
100
AcDbEntity
  8
IMAGE
  6
Continuous
100
AcDbCircle
 10
3.310319302622342
 20
5.443407352271369
 30
0.0
 40
0.00507941712
  0
CIRCLE
  5
17C7
330
1E
100
AcDbEntity
  8
IMAGE
  6
Continuous
100
AcDbCircle
 10
3.284768662622342
 20
5.443407352271369
 30
0.0
 40
0.00507946572
  0
CIRCLE
  5
17C8
330
1E
100
AcDbEntity
  8
IMAGE
  6
Continuous
100
AcDbCircle
 10
3.284768662622342
 20
5.532836752271369
 30
0.0
 40
0.00507946572
  0
CIRCLE
  5
17C9
330
1E
100
AcDbEntity
  8
IMAGE
  6
Continuous
100
AcDbCircle
 10
3.348645262622339
 20
5.539223872271369
 30
0.0
 40
0.00507951432
  0
CIRCLE
  5
17CA
330
1E
100
AcDbEntity
  8
IMAGE
  6
Continuous
100
AcDbCircle
 10
3.316706422622342
 20
5.532836752271369
 30
0.0
 40
0.00507941712
  0
CIRCLE
  5
17CB
330
1E
100
AcDbEntity
  8
IMAGE
  6
Continuous
100
AcDbCircle
 10
3.37419698262234
 20
5.468959072271368
 30
0.0
 40
0.00507941712
  0
CIRCLE
  5
17CC
330
1E
100
AcDbEntity
  8
IMAGE
  6
Continuous
100
AcDbCircle
 10
3.495563062622339
 20
5.430632032271367
 30
0.0
 40
0.00507941712
  0
CIRCLE
  5
17CD
330
1E
100
AcDbEntity
  8
IMAGE
  6
Continuous
100
AcDbCircle
 10
3.501951262622339
 20
5.532836752271369
 30
0.0
 40
0.00507951432
  0
CIRCLE
  5
17CE
330
1E
100
AcDbEntity
  8
IMAGE
  6
Continuous
100
AcDbCircle
 10
3.470012422622341
 20
5.500897912271367
 30
0.0
 40
0.00507941712
  0
CIRCLE
  5
17D9
330
1E
100
AcDbEntity
  8
IMAGE
  6
Continuous
100
AcDbCircle
 10
4.548431486222339
 20
6.102030917672346
 30
0.0
 40
0.0304768872
  0
CIRCLE
  5
17DA
330
1E
100
AcDbEntity
  8
IMAGE
  6
Continuous
100
AcDbCircle
 10
4.45371440622234
 20
6.126435532271368
 30
0.0
 40
0.0304768872
  0
CIRCLE
  5
17DB
330
1E
100
AcDbEntity
  8
IMAGE
  6
Continuous
100
AcDbCircle
 10
4.548431486222339
 20
6.097291732271368
 30
0.0
 40
0.0304768872
  0
LINE
  5
17DC
330
1E
100
AcDbEntity
  8
IMAGE
  6
Continuous
100
AcDbLine
 10
5.118309427730496
 20
6.139586061334395
 30
0.0
 11
5.118309427730496
 21
5.86958644989604
 31
0.0
  0
LWPOLYLINE
  5
17DD
330
1E
100
AcDbEntity
  8
IMAGE
  6
Continuous
100
AcDbPolyline
 90
        4
 70
     1
 43
0.0
 10
3.952118974616448
 20
6.139586061334395
 10
3.952118974616448
 20
5.86958644989604
 10
4.237652353256446
 20
5.86958644989604
 10
4.237652353256446
 20
6.139586061334395
  0
CIRCLE
  5
17E3
330
1E
100
AcDbEntity
  8
IMAGE
  6
Continuous
100
AcDbCircle
 10
4.405452199014028
 20
5.691873043990161
 30
0.0
 40
0.01015893144
  0
CIRCLE
  5
17E4
330
1E
100
AcDbEntity
  8
IMAGE
  6
Continuous
100
AcDbCircle
 10
4.373568686222339
 20
6.002575732271367
 30
0.0
 40
0.0304768872
  0
CIRCLE
  5
17E5
330
1E
100
AcDbEntity
  8
IMAGE
  6
Continuous
100
AcDbCircle
 10
3.838180799617651
 20
5.610321137842741
 30
0.0
 40
0.0304768872
  0
CIRCLE
  5
17E6
330
1E
100
AcDbEntity
  8
IMAGE
  6
Continuous
100
AcDbCircle
 10
3.782168752299634
 20
5.471491034102842
 30
0.0
 40
0.01015893144
  0
CIRCLE
  5
17E7
330
1E
100
AcDbEntity
  8
IMAGE
  6
Continuous
100
AcDbCircle
 10
3.753670635563866
 20
5.519493896596107
 30
0.0
 40
0.0304768872
  0
CIRCLE
  5
17E8
330
1E
100
AcDbEntity
  8
IMAGE
  6
Continuous
100
AcDbCircle
 10
3.725828642930446
 20
5.433907348069753
 30
0.0
 40
0.01015893144
  0
CIRCLE
  5
17E9
330
1E
100
AcDbEntity
  8
IMAGE
  6
Continuous
100
AcDbCircle
 10
3.604154902622342
 20
5.430632032271367
 30
0.0
 40
0.00507941712
  0
CIRCLE
  5
17EA
330
1E
100
AcDbEntity
  8
IMAGE
  6
Continuous
100
AcDbCircle
 10
3.661644382622339
 20
5.462570872271369
 30
0.0
 40
0.00507951432
  0
CIRCLE
  5
17EB
330
1E
100
AcDbEntity
  8
IMAGE
  6
Continuous
100
AcDbCircle
 10
3.674419702622342
 20
5.520060352271369
 30
0.0
 40
0.00507941712
  0
CIRCLE
  5
17EC
330
1E
100
AcDbEntity
  8
IMAGE
  6
Continuous
100
AcDbCircle
 10
3.597767782622343
 20
5.539223872271369
 30
0.0
 40
0.00507941712
  0
CIRCLE
  5
17ED
330
1E
100
AcDbEntity
  8
IMAGE
  6
Continuous
100
AcDbCircle
 10
3.954319086483268
 20
5.440171295741933
 30
0.0
 40
0.01015893144
  0
CIRCLE
  5
17EE
330
1E
100
AcDbEntity
  8
IMAGE
  6
Continuous
100
AcDbCircle
 10
3.863548910277353
 20
5.440171295741933
 30
0.0
 40
0.01015893144
  0
CIRCLE
  5
17EF
330
1E
100
AcDbEntity
  8
IMAGE
  6
Continuous
100
AcDbCircle
 10
3.829118843440626
 20
5.54665840616902
 30
0.0
 40
0.01015893144
  0
CIRCLE
  5
17F0
330
1E
100
AcDbEntity
  8
IMAGE
  6
Continuous
100
AcDbCircle
 10
3.925820969747501
 20
5.488174158235199
 30
0.0
 40
0.0304768872
  0
CIRCLE
  5
17F1
330
1E
100
AcDbEntity
  8
IMAGE
  6
Continuous
100
AcDbCircle
 10
3.622538442420264
 20
5.631221699743472
 30
0.0
 40
0.01015893144
  0
CIRCLE
  5
17F2
330
1E
100
AcDbEntity
  8
IMAGE
  6
Continuous
100
AcDbCircle
 10
3.760258709767173
 20
5.693861176465289
 30
0.0
 40
0.01015893144
  0
CIRCLE
  5
17F3
330
1E
100
AcDbEntity
  8
IMAGE
  6
Continuous
100
AcDbCircle
 10
3.634730404673355
 20
5.7262041697781
 30
0.0
 40
0.0304768872
  0
CIRCLE
  5
17F4
330
1E
100
AcDbEntity
  8
IMAGE
  6
Continuous
100
AcDbCircle
 10
3.898659341800533
 20
5.715568970995053
 30
0.0
 40
0.01015893144
  0
CIRCLE
  5
17F5
330
1E
100
AcDbEntity
  8
IMAGE
  6
Continuous
100
AcDbCircle
 10
3.944929068255072
 20
5.640617621251745
 30
0.0
 40
0.01015893144
  0
CIRCLE
  5
17F6
330
1E
100
AcDbEntity
  8
IMAGE
  6
Continuous
100
AcDbCircle
 10
4.330557921438968
 20
5.580720523564722
 30
0.0
 40
0.0304768872
  0
CIRCLE
  5
17F7
330
1E
100
AcDbEntity
  8
IMAGE
  6
Continuous
100
AcDbCircle
 10
4.301251798465457
 20
5.492827257149067
 30
0.0
 40
0.01015893144
  0
CIRCLE
  5
17F8
330
1E
100
AcDbEntity
  8
IMAGE
  6
Continuous
100
AcDbCircle
 10
4.277569889249873
 20
5.563915038163743
 30
0.0
 40
0.01015893144
  0
CIRCLE
  5
17F9
330
1E
100
AcDbEntity
  8
IMAGE
  6
Continuous
100
AcDbCircle
 10
4.282306271092993
 20
5.739264897999944
 30
0.0
 40
0.01015893144
  0
CIRCLE
  5
17FA
330
1E
100
AcDbEntity
  8
IMAGE
  6
Continuous
100
AcDbCircle
 10
4.306876012223384
 20
5.651808304579398
 30
0.0
 40
0.0304768872
  0
CIRCLE
  5
17FB
330
1E
100
AcDbEntity
  8
IMAGE
  6
Continuous
100
AcDbCircle
 10
3.731917440628793
 20
5.930540334041278
 30
0.0
 40
0.0304768872
  0
CIRCLE
  5
17FC
330
1E
100
AcDbEntity
  8
IMAGE
  6
Continuous
100
AcDbCircle
 10
3.610018418115998
 20
5.85359184210592
 30
0.0
 40
0.01015893144
  0
CIRCLE
  5
17FD
330
1E
100
AcDbEntity
  8
IMAGE
  6
Continuous
100
AcDbCircle
 10
3.9460231602317
 20
5.819831049816577
 30
0.0
 40
0.01015893144
  0
CIRCLE
  5
17FE
330
1E
100
AcDbEntity
  8
IMAGE
  6
Continuous
100
AcDbCircle
 10
3.910499001418346
 20
5.922495266499917
 30
0.0
 40
0.01015893144
  0
CIRCLE
  5
17FF
330
1E
100
AcDbEntity
  8
IMAGE
  6
Continuous
100
AcDbCircle
 10
3.81314075100912
 20
5.817031411024734
 30
0.0
 40
0.0304768872
  0
CIRCLE
  5
1800
330
1E
100
AcDbEntity
  8
IMAGE
  6
Continuous
100
AcDbCircle
 10
3.750868691538975
 20
6.094753827484912
 30
0.0
 40
0.01015893144
  0
CIRCLE
  5
1801
330
1E
100
AcDbEntity
  8
IMAGE
  6
Continuous
100
AcDbCircle
 10
3.660098515333059
 20
5.960078952533008
 30
0.0
 40
0.01015893144
  0
CIRCLE
  5
1802
330
1E
100
AcDbEntity
  8
IMAGE
  6
Continuous
100
AcDbCircle
 10
3.857117683671438
 20
6.077743104337547
 30
0.0
 40
0.0304768872
  0
CIRCLE
  5
1803
330
1E
100
AcDbEntity
  8
IMAGE
  6
Continuous
100
AcDbCircle
 10
3.88022460850555
 20
5.985002269516462
 30
0.0
 40
0.01015893144
  0
CIRCLE
  5
1804
330
1E
100
AcDbEntity
  8
IMAGE
  6
Continuous
100
AcDbCircle
 10
4.27156592622234
 20
5.966146252271368
 30
0.0
 40
0.0304768872
  0
CIRCLE
  5
1805
330
1E
100
AcDbEntity
  8
IMAGE
  6
Continuous
100
AcDbCircle
 10
4.320197325837925
 20
5.848266162222447
 30
0.0
 40
0.01015893144
  0
CIRCLE
  5
1806
330
1E
100
AcDbEntity
  8
IMAGE
  6
Continuous
100
AcDbCircle
 10
4.255967818374472
 20
5.834867218566096
 30
0.0
 40
0.0304768872
  0
CIRCLE
  5
1807
330
1E
100
AcDbEntity
  8
IMAGE
  6
Continuous
100
AcDbCircle
 10
4.300709726222342
 20
5.893286212271369
 30
0.0
 40
0.0304768872
  0
CIRCLE
  5
1808
330
1E
100
AcDbEntity
  8
IMAGE
  6
Continuous
100
AcDbCircle
 10
4.337139206222341
 20
5.973431932271368
 30
0.0
 40
0.0304768872
  0
CIRCLE
  5
1809
330
1E
100
AcDbEntity
  8
IMAGE
  6
Continuous
100
AcDbCircle
 10
4.289229736622342
 20
6.041510272271368
 30
0.0
 40
0.01015893144
  0
CIRCLE
  5
180A
330
1E
100
AcDbEntity
  8
IMAGE
  6
Continuous
100
AcDbCircle
 10
4.296515416622343
 20
6.085225432271368
 30
0.0
 40
0.01015893144
  0
CIRCLE
  5
180B
330
1E
100
AcDbEntity
  8
IMAGE
  6
Continuous
100
AcDbCircle
 10
4.410188580857143
 20
5.772439195806792
 30
0.0
 40
0.01015893144
  0
CIRCLE
  5
180C
330
1E
100
AcDbEntity
  8
IMAGE
  6
Continuous
100
AcDbCircle
 10
4.774889982777134
 20
5.762960825004837
 30
0.0
 40
0.01015893144
  0
CIRCLE
  5
180D
330
1E
100
AcDbEntity
  8
IMAGE
  6
Continuous
100
AcDbCircle
 10
4.533859046222341
 20
5.762139652271367
 30
0.0
 40
0.0304768872
  0
CIRCLE
  5
180E
330
1E
100
AcDbEntity
  8
IMAGE
  6
Continuous
100
AcDbCircle
 10
4.567919085837925
 20
5.584268491256691
 30
0.0
 40
0.01015893144
  0
CIRCLE
  5
180F
330
1E
100
AcDbEntity
  8
IMAGE
  6
Continuous
100
AcDbCircle
 10
4.463176613046238
 20
5.448023332337327
 30
0.0
 40
0.0304768872
  0
CIRCLE
  5
1810
330
1E
100
AcDbEntity
  8
IMAGE
  6
Continuous
100
AcDbCircle
 10
4.514388981405714
 20
5.483348886347111
 30
0.0
 40
0.01015893144
  0
CIRCLE
  5
1811
330
1E
100
AcDbEntity
  8
IMAGE
  6
Continuous
100
AcDbCircle
 10
4.490707072190129
 20
5.554436667361787
 30
0.0
 40
0.01015893144
  0
CIRCLE
  5
1812
330
1E
100
AcDbEntity
  8
IMAGE
  6
Continuous
100
AcDbCircle
 10
4.439494703830654
 20
5.519111113352003
 30
0.0
 40
0.0304768872
  0
CIRCLE
  5
1813
330
1E
100
AcDbEntity
  8
IMAGE
  6
Continuous
100
AcDbCircle
 10
4.728413996260778
 20
5.448023332337327
 30
0.0
 40
0.0304768872
  0
CIRCLE
  5
1814
330
1E
100
AcDbEntity
  8
IMAGE
  6
Continuous
100
AcDbCircle
 10
4.704732087045194
 20
5.519111113352003
 30
0.0
 40
0.0304768872
  0
CIRCLE
  5
1815
330
1E
100
AcDbEntity
  8
IMAGE
  6
Continuous
100
AcDbCircle
 10
4.429134108229613
 20
5.620785262975484
 30
0.0
 40
0.01015893144
  0
CIRCLE
  5
1816
330
1E
100
AcDbEntity
  8
IMAGE
  6
Continuous
100
AcDbCircle
 10
4.54423717662234
 20
5.655356272271367
 30
0.0
 40
0.01015893144
  0
CIRCLE
  5
1817
330
1E
100
AcDbEntity
  8
IMAGE
  6
Continuous
100
AcDbCircle
 10
4.998387761318436
 20
5.481197630144175
 30
0.0
 40
0.0304768872
  0
CIRCLE
  5
1818
330
1E
100
AcDbEntity
  8
IMAGE
  6
Continuous
100
AcDbCircle
 10
4.883826765168823
 20
5.483348886347111
 30
0.0
 40
0.01015893144
  0
CIRCLE
  5
1819
330
1E
100
AcDbEntity
  8
IMAGE
  6
Continuous
100
AcDbCircle
 10
4.860144855953238
 20
5.554436667361787
 30
0.0
 40
0.01015893144
  0
CIRCLE
  5
181A
330
1E
100
AcDbEntity
  8
IMAGE
  6
Continuous
100
AcDbCircle
 10
4.974705852102852
 20
5.552285411158851
 30
0.0
 40
0.0304768872
  0
CIRCLE
  5
181B
330
1E
100
AcDbEntity
  8
IMAGE
  6
Continuous
100
AcDbCircle
 10
5.153800530226479
 20
5.483348886347111
 30
0.0
 40
0.01015893144
  0
CIRCLE
  5
181C
330
1E
100
AcDbEntity
  8
IMAGE
  6
Continuous
100
AcDbCircle
 10
5.130118621010895
 20
5.554436667361787
 30
0.0
 40
0.01015893144
  0
CIRCLE
  5
181D
330
1E
100
AcDbEntity
  8
IMAGE
  6
Continuous
100
AcDbCircle
 10
4.879978215240516
 20
5.699200158589182
 30
0.0
 40
0.0304768872
  0
CIRCLE
  5
181E
330
1E
100
AcDbEntity
  8
IMAGE
  6
Continuous
100
AcDbCircle
 10
5.030654602305444
 20
5.744004083400922
 30
0.0
 40
0.01015893144
  0
CIRCLE
  5
181F
330
1E
100
AcDbEntity
  8
IMAGE
  6
Continuous
100
AcDbCircle
 10
4.723677614417661
 20
5.945637799440059
 30
0.0
 40
0.0304768872
  0
CIRCLE
  5
1820
330
1E
100
AcDbEntity
  8
IMAGE
  6
Continuous
100
AcDbCircle
 10
4.60911661826805
 20
5.853005347623425
 30
0.0
 40
0.01015893144
  0
CIRCLE
  5
1821
330
1E
100
AcDbEntity
  8
IMAGE
  6
Continuous
100
AcDbCircle
 10
4.43914196622234
 20
5.907858652271367
 30
0.0
 40
0.0304768872
  0
CIRCLE
  5
1822
330
1E
100
AcDbEntity
  8
IMAGE
  6
Continuous
100
AcDbCircle
 10
4.594907472738698
 20
6.009398465855713
 30
0.0
 40
0.01015893144
  0
CIRCLE
  5
1823
330
1E
100
AcDbEntity
  8
IMAGE
  6
Continuous
100
AcDbCircle
 10
5.026806052377136
 20
5.879289203826361
 30
0.0
 40
0.0304768872
  0
CIRCLE
  5
1824
330
1E
100
AcDbEntity
  8
IMAGE
  6
Continuous
100
AcDbCircle
 10
4.912245056227524
 20
5.928832314039079
 30
0.0
 40
0.01015893144
  0
CIRCLE
  5
1825
330
1E
100
AcDbEntity
  8
IMAGE
  6
Continuous
100
AcDbCircle
 10
4.845935710423887
 20
6.042572763662562
 30
0.0
 40
0.01015893144
  0
CIRCLE
  5
1826
330
1E
100
AcDbEntity
  8
IMAGE
  6
Continuous
100
AcDbCircle
 10
4.826990183051423
 20
6.094703803073324
 30
0.0
 40
0.01015893144
  0
CIRCLE
  5
1827
330
1E
100
AcDbEntity
  8
IMAGE
  6
Continuous
100
AcDbCircle
 10
5.055224343435835
 20
6.040421507459627
 30
0.0
 40
0.0304768872
  0
CIRCLE
  5
1828
330
1E
100
AcDbEntity
  8
IMAGE
  6
Continuous
100
AcDbCircle
 10
4.400715817170908
 20
6.469099449750616
 30
0.0
 40
0.01015893144
  0
CIRCLE
  5
1829
330
1E
100
AcDbEntity
  8
IMAGE
  6
Continuous
100
AcDbCircle
 10
4.283194103007799
 20
6.43851308114181
 30
0.0
 40
0.0304768872
  0
CIRCLE
  5
182A
330
1E
100
AcDbEntity
  8
IMAGE
  6
Continuous
100
AcDbCircle
 10
3.844597659367172
 20
6.441052069324078
 30
0.0
 40
0.0304768872
  0
LWPOLYLINE
  5
182B
330
1E
100
AcDbEntity
  8
IMAGE
  6
Continuous
100
AcDbPolyline
 90
        4
 70
     0
 43
0.0
 10
4.20759620813645
 20
6.139586061334395
 10
4.20759620813645
 20
6.496175924056216
 10
3.982175119736448
 20
6.496175924056216
 10
3.982175119736448
 20
6.139586061334395
  0
CIRCLE
  5
1831
330
1E
100
AcDbEntity
  8
IMAGE
  6
Continuous
100
AcDbCircle
 10
3.610018418115998
 20
6.288936205322541
 30
0.0
 40
0.01015893144
  0
CIRCLE
  5
1832
330
1E
100
AcDbEntity
  8
IMAGE
  6
Continuous
100
AcDbCircle
 10
3.606888412039936
 20
6.241956597781179
 30
0.0
 40
0.01015893144
  0
CIRCLE
  5
1833
330
1E
100
AcDbEntity
  8
IMAGE
  6
Continuous
100
AcDbCircle
 10
3.619080374293023
 20
6.161548532994722
 30
0.0
 40
0.0304768872
  0
CIRCLE
  5
1834
330
1E
100
AcDbEntity
  8
IMAGE
  6
Continuous
100
AcDbCircle
 10
3.876068934581617
 20
6.188713042567637
 30
0.0
 40
0.01015893144
  0
CIRCLE
  5
1835
330
1E
100
AcDbEntity
  8
IMAGE
  6
Continuous
100
AcDbCircle
 10
3.82293109662234
 20
6.245515792271366
 30
0.0
 40
0.01015893144
  0
CIRCLE
  5
1836
330
1E
100
AcDbEntity
  8
IMAGE
  6
Continuous
100
AcDbCircle
 10
3.688097355563867
 20
6.415996278635351
 30
0.0
 40
0.0304768872
  0
CIRCLE
  5
1837
330
1E
100
AcDbEntity
  8
IMAGE
  6
Continuous
100
AcDbCircle
 10
3.760258709767173
 20
6.310860022175176
 30
0.0
 40
0.01015893144
  0
CIRCLE
  5
1838
330
1E
100
AcDbEntity
  8
IMAGE
  6
Continuous
100
AcDbCircle
 10
3.92927903787474
 20
6.454930818635353
 30
0.0
 40
0.01015893144
  0
CIRCLE
  5
1839
330
1E
100
AcDbEntity
  8
IMAGE
  6
Continuous
100
AcDbCircle
 10
4.264248575635335
 20
6.282119962909525
 30
0.0
 40
0.0304768872
  0
CIRCLE
  5
183A
330
1E
100
AcDbEntity
  8
IMAGE
  6
Continuous
100
AcDbCircle
 10
4.353351998739743
 20
6.213183438097783
 30
0.0
 40
0.01015893144
  0
CIRCLE
  5
183B
330
1E
100
AcDbEntity
  8
IMAGE
  6
Continuous
100
AcDbCircle
 10
4.291779034779223
 20
6.355359000127134
 30
0.0
 40
0.01015893144
  0
CIRCLE
  5
183C
330
1E
100
AcDbEntity
  8
IMAGE
  6
Continuous
100
AcDbCircle
 10
3.606717197586151
 20
6.516219441390258
 30
0.0
 40
0.0304768872
  0
CIRCLE
  5
183D
330
1E
100
AcDbEntity
  8
IMAGE
  6
Continuous
100
AcDbCircle
 10
3.685138563941587
 20
6.542626086045896
 30
0.0
 40
0.01015893144
  0
CIRCLE
  5
183E
330
1E
100
AcDbEntity
  8
IMAGE
  6
Continuous
100
AcDbCircle
 10
3.894520908986839
 20
6.534253419489527
 30
0.0
 40
0.0304768872
  0
CIRCLE
  5
183F
330
1E
100
AcDbEntity
  8
IMAGE
  6
Continuous
100
AcDbCircle
 10
4.817517419365188
 20
6.45962107894866
 30
0.0
 40
0.01015893144
  0
CIRCLE
  5
1840
330
1E
100
AcDbEntity
  8
IMAGE
  6
Continuous
100
AcDbCircle
 10
5.055224343435837
 20
6.457469822745724
 30
0.0
 40
0.0304768872
  0
CIRCLE
  5
1841
330
1E
100
AcDbEntity
  8
IMAGE
  6
Continuous
100
AcDbCircle
 10
4.633686359398444
 20
6.462209008146703
 30
0.0
 40
0.0304768872
  0
CIRCLE
  5
1842
330
1E
100
AcDbEntity
  8
IMAGE
  6
Continuous
100
AcDbCircle
 10
4.789099128306489
 20
6.289010404513437
 30
0.0
 40
0.01015893144
  0
CIRCLE
  5
1843
330
1E
100
AcDbEntity
  8
IMAGE
  6
Continuous
100
AcDbCircle
 10
4.66684103230026
 20
6.301076704513437
 30
0.0
 40
0.0304768872
  0
CIRCLE
  5
1844
330
1E
100
AcDbEntity
  8
IMAGE
  6
Continuous
100
AcDbCircle
 10
4.523861745091949
 20
6.255836106706589
 30
0.0
 40
0.01015893144
  0
CIRCLE
  5
1845
330
1E
100
AcDbEntity
  8
IMAGE
  6
Continuous
100
AcDbCircle
 10
4.538070890621298
 20
6.151574027885065
 30
0.0
 40
0.01015893144
  0
CIRCLE
  5
1846
330
1E
100
AcDbEntity
  8
IMAGE
  6
Continuous
100
AcDbCircle
 10
4.727526164345968
 20
6.170530769488979
 30
0.0
 40
0.01015893144
  0
CIRCLE
  5
1847
330
1E
100
AcDbEntity
  8
IMAGE
  6
Continuous
100
AcDbCircle
 10
4.471761544817661
 20
6.435925151943767
 30
0.0
 40
0.01015893144
  0
CIRCLE
  5
1848
330
1E
100
AcDbEntity
  8
IMAGE
  6
Continuous
100
AcDbCircle
 10
4.490143886222343
 20
6.381442972271368
 30
0.0
 40
0.0304768872
  0
CIRCLE
  5
1849
330
1E
100
AcDbEntity
  8
IMAGE
  6
Continuous
100
AcDbCircle
 10
4.907508674384404
 20
6.298488775315394
 30
0.0
 40
0.01015893144
  0
CIRCLE
  5
184A
330
1E
100
AcDbEntity
  8
IMAGE
  6
Continuous
100
AcDbCircle
 10
5.016445456776093
 20
6.246357735904632
 30
0.0
 40
0.01015893144
  0
CIRCLE
  5
184B
330
1E
100
AcDbEntity
  8
IMAGE
  6
Continuous
100
AcDbCircle
 10
4.946287561044149
 20
6.163640327885064
 30
0.0
 40
0.0304768872
  0
CIRCLE
  5
184C
330
1E
100
AcDbEntity
  8
IMAGE
  6
Continuous
100
AcDbCircle
 10
5.144327766540245
 20
6.217922623498762
 30
0.0
 40
0.01015893144
  0
CIRCLE
  5
184D
330
1E
100
AcDbEntity
  8
IMAGE
  6
Continuous
100
AcDbCircle
 10
5.017333288690901
 20
6.338990187721265
 30
0.0
 40
0.0304768872
  0
CIRCLE
  5
184E
330
1E
100
AcDbEntity
  8
IMAGE
  6
Continuous
100
AcDbCircle
 10
4.983290783874275
 20
6.478577820552573
 30
0.0
 40
0.01015893144
  0
LWPOLYLINE
  5
1850
330
1E
100
AcDbEntity
  8
IMAGE
  6
Continuous
100
AcDbPolyline
 90
       27
 70
     0
 43
0.0
 10
2.703606410597673
 20
7.1073083189067
 10
2.715710834597674
 20
7.259258918906698
 10
2.739919682597674
 20
7.150319318906699
 10
2.764128530597675
 20
7.368199598906699
 10
2.788337486597674
 20
7.150319318906699
 10
2.800441910597674
 20
7.2834681989067
 10
2.824650866597673
 20
7.138214678906698
 10
2.860964138597674
 20
7.368199598906699
 10
2.897277410597675
 20
7.138214678906698
 10
2.921486366597674
 20
7.3076763989067
 10
2.945695214597675
 20
7.150319318906699
 10
2.967300614597673
 20
7.2997524389067
 10
3.018321866597675
 20
7.150319318906699
 10
3.042530822597674
 20
7.3318856789067
 10
3.078844094597673
 20
7.150319318906699
 10
3.090948626597674
 20
7.3318856789067
 10
3.103053050597674
 20
7.126110038906699
 10
3.139366322597675
 20
7.247154278906698
 10
3.175679702597673
 20
7.126110038906699
 10
3.199888550597673
 20
7.186632158906699
 10
3.199888550597673
 20
7.126110038906699
 10
3.224097398597674
 20
7.1745275189067
 10
3.248306354597675
 20
7.114005398906698
 10
3.260410778597675
 20
7.186632158906699
 10
3.284619734597672
 20
7.126110038906699
 10
3.284619734597672
 20
7.3076763989067
 10
3.308828474597673
 20
7.0897971989067
  0
LINE
  5
186D
330
1E
100
AcDbEntity
  8
IMAGE
  6
Continuous
100
AcDbLine
 10
3.338566971846885
 20
7.089292776547621
 30
0.0
 11
2.726974851846884
 21
7.089292776547621
 31
0.0
  0
LWPOLYLINE
  5
1870
330
1E
100
AcDbEntity
  8
IMAGE
100
AcDbPolyline
 90
        2
 70
     0
 43
0.0
 10
2.834068629079769
 20
7.111337493326144
 10
2.878046003165742
 20
7.066076537148043
  0
LWPOLYLINE
  5
1891
330
1E
100
AcDbEntity
  8
IMAGE
  6
Continuous
100
AcDbPolyline
 90
       13
 70
     1
 43
0.0
 10
5.80941802662234
 20
5.874683752271368
 10
5.80941802662234
 20
5.728780072271368
 10
5.80941802662234
 20
5.562993592271369
 10
5.911007146622342
 20
5.562993592271369
 10
5.911007146622342
 20
5.728780072271368
 10
5.911007146622342
 20
5.874683752271368
 10
5.911007146622342
 20
6.961505032271368
 10
5.992278226622339
 20
7.069973752271367
 10
5.992278226622339
 20
7.213785472271368
 10
5.829734986622339
 20
7.213785472271368
 10
5.829734986622339
 20
7.069973752271367
 10
5.778940426622341
 20
7.069973752271367
 10
5.80941802662234
 20
6.961505032271368
  0
LINE
  5
18A1
330
1E
100
AcDbEntity
  8
IMAGE
  6
Continuous
100
AcDbLine
 10
6.04965214662234
 20
6.847611148271368
 30
0.0
 11
6.04965214662234
 21
6.577611148271368
 31
0.0
  0
LINE
  5
18A2
330
1E
100
AcDbEntity
  8
IMAGE
  6
Continuous
100
AcDbLine
 10
6.116612146622342
 20
6.577611148271368
 30
0.0
 11
6.116612146622342
 21
6.847611148271368
 31
0.0
  0
LINE
  5
18A3
330
1E
100
AcDbEntity
  8
IMAGE
  6
Continuous
100
AcDbLine
 10
6.183572168222342
 20
6.847611148271368
 30
0.0
 11
6.183572168222342
 21
6.577611148271368
 31
0.0
  0
LINE
  5
18A4
330
1E
100
AcDbEntity
  8
IMAGE
  6
Continuous
100
AcDbLine
 10
6.250532146622342
 20
6.577611148271368
 30
0.0
 11
6.250532146622342
 21
6.847611148271368
 31
0.0
  0
CIRCLE
  5
18AA
330
1E
100
AcDbEntity
  8
IMAGE
  6
Continuous
100
AcDbCircle
 10
5.528862527747515
 20
6.144683586281153
 30
0.0
 40
0.0304768872
  0
LINE
  5
18AB
330
1E
100
AcDbEntity
  8
IMAGE
  6
Continuous
100
AcDbLine
 10
5.403842806370498
 20
5.86958644989604
 30
0.0
 11
5.403842806370498
 21
6.139586061334395
 31
0.0
  0
CIRCLE
  5
18AF
330
1E
100
AcDbEntity
  8
IMAGE
  6
Continuous
100
AcDbCircle
 10
6.04971154662234
 20
5.449679992271369
 30
0.0
 40
0.00507941712
  0
LWPOLYLINE
  5
18B0
330
1E
100
AcDbEntity
  8
IMAGE
  6
Continuous
100
AcDbPolyline
 90
        4
 70
     1
 43
0.0
 10
5.649418186622341
 20
5.562993592271367
 10
5.649418186622341
 20
5.418368632271368
 10
6.071008066622342
 20
5.418368632271368
 10
6.071008066622342
 20
5.562993592271367
  0
CIRCLE
  5
18B7
330
1E
100
AcDbEntity
  8
IMAGE
  6
Continuous
100
AcDbCircle
 10
5.499556404774002
 20
5.762960825004837
 30
0.0
 40
0.01015893144
  0
CIRCLE
  5
18B9
330
1E
100
AcDbEntity
  8
IMAGE
  6
Continuous
100
AcDbCircle
 10
5.43413489088518
 20
5.509632742550046
 30
0.0
 40
0.0304768872
  0
CIRCLE
  5
18BA
330
1E
100
AcDbEntity
  8
IMAGE
  6
Continuous
100
AcDbCircle
 10
5.395356004225435
 20
5.568654223564721
 30
0.0
 40
0.01015893144
  0
CIRCLE
  5
18BB
330
1E
100
AcDbEntity
  8
IMAGE
  6
Continuous
100
AcDbCircle
 10
5.546920223205171
 20
5.554436667361787
 30
0.0
 40
0.01015893144
  0
CIRCLE
  5
18BC
330
1E
100
AcDbEntity
  8
IMAGE
  6
Continuous
100
AcDbCircle
 10
5.518501932146472
 20
5.578132594366679
 30
0.0
 40
0.01015893144
  0
CIRCLE
  5
18BD
330
1E
100
AcDbEntity
  8
IMAGE
  6
Continuous
100
AcDbCircle
 10
5.410452981669596
 20
5.64706911917842
 30
0.0
 40
0.0304768872
  0
CIRCLE
  5
18BE
330
1E
100
AcDbEntity
  8
IMAGE
  6
Continuous
100
AcDbCircle
 10
5.504292786617122
 20
5.687133858589182
 30
0.0
 40
0.01015893144
  0
CIRCLE
  5
18BF
330
1E
100
AcDbEntity
  8
IMAGE
  6
Continuous
100
AcDbCircle
 10
5.585699109864915
 20
5.64706911917842
 30
0.0
 40
0.0304768872
  0
CIRCLE
  5
18C0
330
1E
100
AcDbEntity
  8
IMAGE
  6
Continuous
100
AcDbCircle
 10
5.764793787988542
 20
5.587610965168635
 30
0.0
 40
0.01015893144
  0
CIRCLE
  5
18C2
330
1E
100
AcDbEntity
  8
IMAGE
  6
Continuous
100
AcDbCircle
 10
5.83891606662234
 20
5.539108312271368
 30
0.0
 40
0.00507946572
  0
CIRCLE
  5
18C3
330
1E
100
AcDbEntity
  8
IMAGE
  6
Continuous
100
AcDbCircle
 10
5.80059010662234
 20
5.545496512271368
 30
0.0
 40
0.00507946572
  0
CIRCLE
  5
18C4
330
1E
100
AcDbEntity
  8
IMAGE
  6
Continuous
100
AcDbCircle
 10
5.76226306662234
 20
5.462455312271369
 30
0.0
 40
0.00507946572
  0
CIRCLE
  5
18C5
330
1E
100
AcDbEntity
  8
IMAGE
  6
Continuous
100
AcDbCircle
 10
5.67922294662234
 20
5.443291792271367
 30
0.0
 40
0.00507946572
  0
CIRCLE
  5
18C6
330
1E
100
AcDbEntity
  8
IMAGE
  6
Continuous
100
AcDbCircle
 10
5.666447626622343
 20
5.462455312271369
 30
0.0
 40
0.00507946572
  0
CIRCLE
  5
18C7
330
1E
100
AcDbEntity
  8
IMAGE
  6
Continuous
100
AcDbCircle
 10
5.666447626622343
 20
5.539108312271368
 30
0.0
 40
0.00507946572
  0
CIRCLE
  5
18C8
330
1E
100
AcDbEntity
  8
IMAGE
  6
Continuous
100
AcDbCircle
 10
5.698386466622341
 20
5.539108312271368
 30
0.0
 40
0.00507946572
  0
CIRCLE
  5
18C9
330
1E
100
AcDbEntity
  8
IMAGE
  6
Continuous
100
AcDbCircle
 10
6.024160906622343
 20
5.519944792271368
 30
0.0
 40
0.00507941712
  0
CIRCLE
  5
18CA
330
1E
100
AcDbEntity
  8
IMAGE
  6
Continuous
100
AcDbCircle
 10
6.011385586622342
 20
5.539108312271368
 30
0.0
 40
0.00507951432
  0
CIRCLE
  5
18CB
330
1E
100
AcDbEntity
  8
IMAGE
  6
Continuous
100
AcDbCircle
 10
5.94112078662234
 20
5.430516472271369
 30
0.0
 40
0.00507946572
  0
CIRCLE
  5
18CC
330
1E
100
AcDbEntity
  8
IMAGE
  6
Continuous
100
AcDbCircle
 10
5.902793746622343
 20
5.481618832271368
 30
0.0
 40
0.00507946572
  0
CIRCLE
  5
18CD
330
1E
100
AcDbEntity
  8
IMAGE
  6
Continuous
100
AcDbCircle
 10
5.979446746622343
 20
5.513557672271368
 30
0.0
 40
0.00507941712
  0
LINE
  5
18CE
330
1E
100
AcDbEntity
  8
IMAGE
  6
Continuous
100
AcDbLine
 10
5.903937466622343
 20
5.562993592271367
 30
0.0
 11
5.911007146622342
 21
5.570064028271367
 31
0.0
  0
CIRCLE
  5
18D0
330
1E
100
AcDbEntity
  8
IMAGE
  6
Continuous
100
AcDbCircle
 10
5.769530169831663
 20
5.701351414792116
 30
0.0
 40
0.01015893144
  0
CIRCLE
  5
18D1
330
1E
100
AcDbEntity
  8
IMAGE
  6
Continuous
100
AcDbCircle
 10
5.722166351400494
 20
5.715568970995053
 30
0.0
 40
0.01015893144
  0
CIRCLE
  5
18D2
330
1E
100
AcDbEntity
  8
IMAGE
  6
Continuous
100
AcDbCircle
 10
5.443607654571415
 20
5.893506760029298
 30
0.0
 40
0.0304768872
  0
CIRCLE
  5
18D3
330
1E
100
AcDbEntity
  8
IMAGE
  6
Continuous
100
AcDbCircle
 10
5.575338514263874
 20
5.815091864415599
 30
0.0
 40
0.01015893144
  0
CIRCLE
  5
18D4
330
1E
100
AcDbEntity
  8
IMAGE
  6
Continuous
100
AcDbCircle
 10
5.580074896106989
 20
5.919353943237124
 30
0.0
 40
0.01015893144
  0
CIRCLE
  5
18D5
330
1E
100
AcDbEntity
  8
IMAGE
  6
Continuous
100
AcDbCircle
 10
5.580074896106989
 20
6.061529505266476
 30
0.0
 40
0.01015893144
  0
CIRCLE
  5
18D6
330
1E
100
AcDbEntity
  8
IMAGE
  6
Continuous
100
AcDbCircle
 10
5.490083641087773
 20
5.9904417242518
 30
0.0
 40
0.01015893144
  0
CIRCLE
  5
18D9
330
1E
100
AcDbEntity
  8
IMAGE
  6
Continuous
100
AcDbCircle
 10
5.68427529665556
 20
5.796135122811684
 30
0.0
 40
0.01015893144
  0
CIRCLE
  5
18DA
330
1E
100
AcDbEntity
  8
IMAGE
  6
Continuous
100
AcDbCircle
 10
5.746736092530889
 20
5.846114906019512
 30
0.0
 40
0.0304768872
  0
CIRCLE
  5
18DB
330
1E
100
AcDbEntity
  8
IMAGE
  6
Continuous
100
AcDbCircle
 10
5.692322126222341
 20
5.988003292271367
 30
0.0
 40
0.0304768872
  0
CIRCLE
  5
18DD
330
1E
100
AcDbEntity
  8
IMAGE
  6
Continuous
100
AcDbCircle
 10
5.494820022930888
 20
6.473838635151595
 30
0.0
 40
0.01015893144
  0
CIRCLE
  5
18DF
330
1E
100
AcDbEntity
  8
IMAGE
  6
Continuous
100
AcDbCircle
 10
5.646384241910624
 20
6.450142708146702
 30
0.0
 40
0.01015893144
  0
CIRCLE
  5
18E1
330
1E
100
AcDbEntity
  8
IMAGE
  6
Continuous
100
AcDbCircle
 10
5.433247058970369
 20
6.270053662909526
 30
0.0
 40
0.01015893144
  0
CIRCLE
  5
18E2
330
1E
100
AcDbEntity
  8
IMAGE
  6
Continuous
100
AcDbCircle
 10
5.622702332695043
 20
6.161052398687021
 30
0.0
 40
0.01015893144
  0
CIRCLE
  5
18E3
330
1E
100
AcDbEntity
  8
IMAGE
  6
Continuous
100
AcDbCircle
 10
5.471138113715303
 20
6.213183438097783
 30
0.0
 40
0.01015893144
  0
CIRCLE
  5
18E4
330
1E
100
AcDbEntity
  8
IMAGE
  6
Continuous
100
AcDbCircle
 10
5.457816800100765
 20
6.419556339537898
 30
0.0
 40
0.0304768872
  0
CIRCLE
  5
18E5
330
1E
100
AcDbEntity
  8
IMAGE
  6
Continuous
100
AcDbCircle
 10
5.542183841362055
 20
6.336402258523221
 30
0.0
 40
0.01015893144
  0
CIRCLE
  5
18E6
330
1E
100
AcDbEntity
  8
IMAGE
  6
Continuous
100
AcDbCircle
 10
5.599908255394266
 20
6.419556339537898
 30
0.0
 40
0.0304768872
  0
CIRCLE
  5
18E7
330
1E
100
AcDbEntity
  8
IMAGE
  6
Continuous
100
AcDbCircle
 10
5.704108655942835
 20
6.26790240670659
 30
0.0
 40
0.0304768872
  0
CIRCLE
  5
18E9
330
1E
100
AcDbEntity
  8
IMAGE
  6
Continuous
100
AcDbCircle
 10
5.760057406145428
 20
6.142095657083108
 30
0.0
 40
0.01015893144
  0
CIRCLE
  5
18EB
330
1E
100
AcDbEntity
  8
IMAGE
  6
Continuous
100
AcDbCircle
 10
5.779002933517894
 20
6.445403522745725
 30
0.0
 40
0.01015893144
  0
CIRCLE
  5
18EC
330
1E
100
AcDbEntity
  8
IMAGE
  6
Continuous
100
AcDbCircle
 10
5.717429969557377
 20
6.407490039537897
 30
0.0
 40
0.01015893144
  0
CIRCLE
  5
18ED
330
1E
100
AcDbEntity
  8
IMAGE
  6
Continuous
100
AcDbCircle
 10
5.67006615112621
 20
6.307967146117349
 30
0.0
 40
0.01015893144
  0
LINE
  5
18F0
330
1E
100
AcDbEntity
  8
IMAGE
  6
Continuous
100
AcDbLine
 10
6.016839262622342
 20
6.607312876271367
 30
0.0
 11
5.907728806622341
 21
6.607312876271367
 31
0.0
  0
LINE
  5
18F2
330
1E
100
AcDbEntity
  8
IMAGE
  6
Continuous
100
AcDbLine
 10
5.911007470622344
 20
6.808192876271365
 30
0.0
 11
6.016839262622342
 21
6.808192876271365
 31
0.0
  0
LINE
  5
18F3
330
1E
100
AcDbEntity
  8
IMAGE
  6
Continuous
100
AcDbLine
 10
6.016839262622342
 20
6.741232876271368
 30
0.0
 11
5.911007470622344
 21
6.741232876271368
 31
0.0
  0
LINE
  5
18F4
330
1E
100
AcDbEntity
  8
IMAGE
  6
Continuous
100
AcDbLine
 10
5.911007470622344
 20
6.674272876271366
 30
0.0
 11
6.016839262622342
 21
6.674272876271366
 31
0.0
  0
LINE
  5
1900
330
1E
100
AcDbEntity
  8
IMAGE
  6
Continuous
100
AcDbLine
 10
5.984698030622341
 20
7.115288392271369
 30
0.0
 11
6.751428586622342
 21
7.115288392271369
 31
0.0
  0
LINE
  5
1901
330
1E
100
AcDbEntity
  8
IMAGE
  6
Continuous
100
AcDbLine
 10
5.985990142622343
 20
7.075870876271365
 30
0.0
 11
6.255990142622339
 21
7.075870876271365
 31
0.0
  0
LINE
  5
1902
330
1E
100
AcDbEntity
  8
IMAGE
  6
Continuous
100
AcDbLine
 10
6.255990142622339
 20
7.008910876271368
 30
0.0
 11
5.985990142622343
 21
7.008910876271368
 31
0.0
  0
LINE
  5
1903
330
1E
100
AcDbEntity
  8
IMAGE
  6
Continuous
100
AcDbLine
 10
5.985990142622343
 20
6.941950876271366
 30
0.0
 11
6.255990142622339
 21
6.941950876271366
 31
0.0
  0
LINE
  5
1904
330
1E
100
AcDbEntity
  8
IMAGE
  6
Continuous
100
AcDbLine
 10
6.255990142622339
 20
6.874990876271367
 30
0.0
 11
5.985990142622343
 21
6.874990876271367
 31
0.0
  0
LWPOLYLINE
  5
1910
330
1E
100
AcDbEntity
  8
IMAGE
  6
Continuous
100
AcDbPolyline
 90
       27
 70
     0
 43
0.0
 10
6.076015162622343
 20
7.115288392271369
 10
6.088119586622342
 20
7.267238992271366
 10
6.112328434622341
 20
7.158299392271367
 10
6.136537282622342
 20
7.376179672271368
 10
6.160746238622342
 20
7.158299392271367
 10
6.172850662622343
 20
7.291448272271368
 10
6.19705961862234
 20
7.146194752271367
 10
6.233372890622341
 20
7.376179672271368
 10
6.269686162622342
 20
7.146194752271367
 10
6.293895118622343
 20
7.315656472271368
 10
6.318103966622343
 20
7.158299392271367
 10
6.339709366622344
 20
7.307732512271368
 10
6.390730618622342
 20
7.158299392271367
 10
6.414939574622342
 20
7.339865752271369
 10
6.451252846622343
 20
7.158299392271367
 10
6.46335737862234
 20
7.339865752271369
 10
6.475461802622341
 20
7.134090112271368
 10
6.511775074622342
 20
7.255134352271366
 10
6.548088454622343
 20
7.134090112271368
 10
6.572297302622343
 20
7.194612232271367
 10
6.572297302622343
 20
7.134090112271368
 10
6.596506150622344
 20
7.182507592271368
 10
6.620715106622341
 20
7.121985472271366
 10
6.632819530622342
 20
7.194612232271367
 10
6.657028486622342
 20
7.134090112271368
 10
6.657028486622342
 20
7.315656472271368
 10
6.681237226622343
 20
7.097777272271368
  0
LINE
  5
192D
330
1E
100
AcDbEntity
  8
IMAGE
  6
Continuous
100
AcDbLine
 10
6.288803026622341
 20
7.115289148271368
 30
0.0
 11
6.288803026622341
 21
6.845289148271368
 31
0.0
  0
LINE
  5
192E
330
1E
100
AcDbEntity
  8
IMAGE
  6
Continuous
100
AcDbLine
 10
6.355763026622339
 20
6.845289148271368
 30
0.0
 11
6.355763026622339
 21
7.115289148271368
 31
0.0
  0
LINE
  5
192F
330
1E
100
AcDbEntity
  8
IMAGE
  6
Continuous
100
AcDbLine
 10
6.422723048222339
 20
7.115289148271368
 30
0.0
 11
6.422723048222339
 21
6.845289148271368
 31
0.0
  0
LINE
  5
1930
330
1E
100
AcDbEntity
  8
IMAGE
  6
Continuous
100
AcDbLine
 10
6.489683026622342
 20
6.845289148271368
 30
0.0
 11
6.489683026622342
 21
7.115289148271368
 31
0.0
  0
INSERT
  5
1A95
330
1E
100
AcDbEntity
  8
TEXT_BUBBLES
100
AcDbBlockReference
 66
     1
  2
bubble
 10
9.456263896214124
 20
7.106491378606556
 30
0.0
  0
ATTRIB
  5
1A96
330
1A95
100
AcDbEntity
  8
TEXT_BUBBLES
100
AcDbText
 10
9.405668658118887
 20
7.043991378606556
 30
0.0
 40
0.125
  1
1
  7
ROMANS
 72
     4
 11
9.456263896214124
 21
7.106491378606556
 31
0.0
100
AcDbAttribute
  2
XX
 70
     0
  0
SEQEND
  5
1A97
330
1A95
100
AcDbEntity
  8
TEXT_BUBBLES
  0
INSERT
  5
1A98
330
1E
100
AcDbEntity
  8
TEXT_BUBBLES
100
AcDbBlockReference
 66
     1
  2
bubble
 10
9.456263896214124
 20
6.446999082750853
 30
0.0
  0
ATTRIB
  5
1A99
330
1A98
100
AcDbEntity
  8
TEXT_BUBBLES
100
AcDbText
 10
9.396740086690314
 20
6.384499082750853
 30
0.0
 40
0.125
  1
2
  7
ROMANS
 72
     4
 11
9.456263896214124
 21
6.446999082750853
 31
0.0
100
AcDbAttribute
  2
XX
 70
     0
  0
SEQEND
  5
1A9A
330
1A98
100
AcDbEntity
  8
TEXT_BUBBLES
  0
INSERT
  5
1A9B
330
1E
100
AcDbEntity
  8
TEXT_BUBBLES
100
AcDbBlockReference
 66
     1
  2
bubble
 10
9.456263896214124
 20
5.811596777008556
 30
0.0
  0
ATTRIB
  5
1A9C
330
1A9B
100
AcDbEntity
  8
TEXT_BUBBLES
100
AcDbText
 10
9.396740086690314
 20
5.749096777008556
 30
0.0
 40
0.125
  1
3
  7
ROMANS
 72
     4
 11
9.456263896214124
 21
5.811596777008556
 31
0.0
100
AcDbAttribute
  2
XX
 70
     0
  0
SEQEND
  5
1A9D
330
1A9B
100
AcDbEntity
  8
TEXT_BUBBLES
  0
INSERT
  5
1A9E
330
1E
100
AcDbEntity
  8
TEXT_BUBBLES
100
AcDbBlockReference
 66
     1
  2
bubble
 10
9.456263896214124
 20
5.391425573078509
 30
0.0
  0
ATTRIB
  5
1A9F
330
1A9E
100
AcDbEntity
  8
TEXT_BUBBLES
100
AcDbText
 10
9.393763896214124
 20
5.328925573078509
 30
0.0
 40
0.125
  1
4
  7
ROMANS
 72
     4
 11
9.456263896214124
 21
5.391425573078509
 31
0.0
100
AcDbAttribute
  2
XX
 70
     0
  0
SEQEND
  5
1AA0
330
1A9E
100
AcDbEntity
  8
TEXT_BUBBLES
  0
INSERT
  5
1AA1
330
1E
100
AcDbEntity
  8
TEXT_BUBBLES
100
AcDbBlockReference
 66
     1
  2
bubble
 10
9.456263896214124
 20
4.726730575789643
 30
0.0
  0
ATTRIB
  5
1AA2
330
1AA1
100
AcDbEntity
  8
TEXT_BUBBLES
100
AcDbText
 10
9.396740086690314
 20
4.664230575789643
 30
0.0
 40
0.125
  1
5
  7
ROMANS
 72
     4
 11
9.456263896214124
 21
4.726730575789643
 31
0.0
100
AcDbAttribute
  2
XX
 70
     0
  0
SEQEND
  5
1AA3
330
1AA1
100
AcDbEntity
  8
TEXT_BUBBLES
  0
INSERT
  5
1AA4
330
1E
100
AcDbEntity
  8
TEXT_BUBBLES
100
AcDbBlockReference
 66
     1
  2
bubble
 10
9.456263896214124
 20
4.277894063154688
 30
0.0
  0
ATTRIB
  5
1AA5
330
1AA4
100
AcDbEntity
  8
TEXT_BUBBLES
100
AcDbText
 10
9.393763896214124
 20
4.215394063154688
 30
0.0
 40
0.125
  1
6
  7
ROMANS
 72
     4
 11
9.456263896214124
 21
4.277894063154688
 31
0.0
100
AcDbAttribute
  2
XX
 70
     0
  0
SEQEND
  5
1AA6
330
1AA4
100
AcDbEntity
  8
TEXT_BUBBLES
  0
INSERT
  5
1AA7
330
1E
100
AcDbEntity
  8
TEXT_BUBBLES
100
AcDbBlockReference
 66
     1
  2
bubble
 10
9.456263896214124
 20
3.859795506358941
 30
0.0
  0
ATTRIB
  5
1AA8
330
1AA7
100
AcDbEntity
  8
TEXT_BUBBLES
100
AcDbText
 10
9.396740086690314
 20
3.797295506358941
 30
0.0
 40
0.125
  1
7
  7
ROMANS
 72
     4
 11
9.456263896214124
 21
3.859795506358941
 31
0.0
100
AcDbAttribute
  2
XX
 70
     0
  0
SEQEND
  5
1AA9
330
1AA7
100
AcDbEntity
  8
TEXT_BUBBLES
  0
INSERT
  5
1AC2
330
1E
100
AcDbEntity
  8
TEXT_BUBBLES
 62
    42
100
AcDbBlockReference
  2
wid
 10
10.22650976541099
 20
0.4260006874941467
 30
0.0
  0
INSERT
  5
1AC3
330
1E
100
AcDbEntity
  8
TEXT_BUBBLES
 62
    42
100
AcDbBlockReference
  2
wid
 10
10.22650976541099
 20
0.4260006874941467
 30
0.0
  0
LWPOLYLINE
  5
1AC4
330
1E
100
AcDbEntity
  8
IMAGE
100
AcDbPolyline
 90
        4
 70
     1
 43
0.0
 10
0.0
 20
0.0
 10
16.49
 20
0.0
 10
16.49
 20
10.44
 10
0.0
 20
10.44
  0
INSERT
  5
1AC5
330
1E
100
AcDbEntity
  8
TEXT_BUBBLES
 62
    42
100
AcDbBlockReference
 66
     1
  2
TITLBLK
 10
0.6064423705144844
 20
0.8842270964783676
 30
0.0
  0
ATTRIB
  5
1AC6
330
1AC5
100
AcDbEntity
  8
TITLE
100
AcDbText
 10
1.231442370514484
 20
0.9842270964783672
 30
0.0
 40
0.2
  1
MAXICOM PE-CABLE PULL BOX
  7
L200
100
AcDbAttribute
  2
TITLE2
 70
     0
  0
ATTRIB
  5
1AC7
330
1AC5
100
AcDbEntity
  8
TITLE
100
AcDbText
 10
0.373359150869191
 20
0.7855231401345745
 30
0.0
 40
0.2
  1
420
  7
L200
 72
     4
 11
0.6064423705144844
 21
0.8842270964783672
 31
0.0
100
AcDbAttribute
  2
#
 70
     0
  0
ATTRIB
  5
1AC8
330
1AC5
100
AcDbEntity
  8
TITLE
 62
     7
100
AcDbText
 10
1.231442370514484
 20
0.7005637793954893
 30
0.0
 40
0.1
  1
N.T.S.
  7
L100
100
AcDbAttribute
  2
SCALE
 70
     0
  0
ATTRIB
  5
1AC9
330
1AC5
100
AcDbEntity
  8
TITLE
100
AcDbText
 10
2.713645751168312
 20
0.5927927664583188
 30
0.0
 40
0.2
  1

  7
L200
100
AcDbAttribute
  2
TITLE3
 70
     0
  0
ATTRIB
  5
1ACA
330
1AC5
100
AcDbEntity
  8
TITLE
 62
     7
100
AcDbText
 10
0.2668997890438145
 20
0.0387570761215429
 30
0.0
 40
0.08
  1
420-TW PULLBOX.DWG
  7
L80
 72
     2
 11
1.626899789043814
 21
0.0387570761215429
 31
0.0
100
AcDbAttribute
  2
DWG-NAME
 70
     0
  0
ATTRIB
  5
1ACB
330
1AC5
100
AcDbEntity
  8
TITLE
 62
     7
100
AcDbText
 10
7.731500544252091
 20
0.9696027915446396
 30
0.0
 40
0.08
  1
1-16-04
  7
L80
 72
     2
 11
8.261024353775901
 21
0.9696027915446396
 31
0.0
100
AcDbAttribute
  2
REVISED
 70
     0
  0
ATTRIB
  5
1ACC
330
1AC5
100
AcDbEntity
  8
TITLE
100
AcDbText
 10
1.231442370514484
 20
1.34371230274675
 30
0.0
 40
0.2
  1

  7
L200
100
AcDbAttribute
  2
TITLE1
 70
     0
  0
ATTRIB
  5
1ACD
330
1AC5
100
AcDbEntity
  8
TITLE
100
AcDbText
 10
2.713645751168312
 20
0.2692560808167741
 30
0.0
 40
0.2
  1

  7
L200
100
AcDbAttribute
  2
TITLE4
 70
     0
  0
SEQEND
  5
1ACE
330
1AC5
100
AcDbEntity
  8
TEXT_BUBBLES
 62
    40
  0
MTEXT
  5
1ADE
330
1E
100
AcDbEntity
  8
TEXT_BUBBLES
100
AcDbMText
 10
9.93060778614674
 20
7.174064312985112
 30
0.0
 40
0.125
 41
4.0
 71
     1
 72
     5
  3
STANDARD RETANGULAR VALVE BOX EVERY 250' MAXIMUM\P\P36" LOOP OF MAXICOM PE-CABLE IN PULL BOX\P \PFINISH GRADE \P\PENDS OF CONDUIT SEALED WITH  WATERPROOF SILICONE (IF REQUIRED) \P\P90 DEGREE SWEEP ELL (IF REQUIRED)\P\P1-1/2" CONDUIT (MIMIMUM)\P\PMAXI
  1
COM PE-CABLE\P\PBRICK (1 OF 4)
  7
L100
 73
     1
 44
1.0
  0
INSERT
  5
1AEA
330
1E
100
AcDbEntity
  8
TEXT_BUBBLES
100
AcDbBlockReference
 66
     1
  2
bubble
 10
3.924723608934298
 20
7.593185581942532
 30
0.0
  0
ATTRIB
  5
1AEB
330
1AEA
100
AcDbEntity
  8
TEXT_BUBBLES
100
AcDbText
 10
3.87412837083906
 20
7.530685581942532
 30
0.0
 40
0.125
  1
1
  7
ROMANS
 72
     4
 11
3.924723608934298
 21
7.593185581942532
 31
0.0
100
AcDbAttribute
  2
XX
 70
     0
  0
SEQEND
  5
1AEC
330
1AEA
100
AcDbEntity
  8
TEXT_BUBBLES
  0
INSERT
  5
1AED
330
1E
100
AcDbEntity
  8
TEXT_BUBBLES
100
AcDbBlockReference
 66
     1
  2
bubble
 10
5.218648279353251
 20
7.548484661310531
 30
0.0
  0
ATTRIB
  5
1AEE
330
1AED
100
AcDbEntity
  8
TEXT_BUBBLES
100
AcDbText
 10
5.159124469829442
 20
7.485984661310531
 30
0.0
 40
0.125
  1
2
  7
ROMANS
 72
     4
 11
5.218648279353251
 21
7.548484661310531
 31
0.0
100
AcDbAttribute
  2
XX
 70
     0
  0
SEQEND
  5
1AEF
330
1AED
100
AcDbEntity
  8
TEXT_BUBBLES
  0
INSERT
  5
1AF2
330
1E
100
AcDbEntity
  8
TEXT_BUBBLES
100
AcDbBlockReference
 66
     1
  2
bubble
 10
6.52659529064125
 20
6.676855997621906
 30
0.0
  0
ATTRIB
  5
1AF3
330
1AF2
100
AcDbEntity
  8
TEXT_BUBBLES
100
AcDbText
 10
6.46409529064125
 20
6.614355997621906
 30
0.0
 40
0.125
  1
4
  7
ROMANS
 72
     4
 11
6.52659529064125
 21
6.676855997621906
 31
0.0
100
AcDbAttribute
  2
XX
 70
     0
  0
SEQEND
  5
1AF4
330
1AF2
100
AcDbEntity
  8
TEXT_BUBBLES
  0
INSERT
  5
1AF5
330
1E
100
AcDbEntity
  8
TEXT_BUBBLES
100
AcDbBlockReference
 66
     1
  2
bubble
 10
7.006019292734845
 20
5.210219318087681
 30
0.0
  0
ATTRIB
  5
1AF6
330
1AF5
100
AcDbEntity
  8
TEXT_BUBBLES
100
AcDbText
 10
6.943519292734845
 20
5.147719318087681
 30
0.0
 40
0.125
  1
6
  7
ROMANS
 72
     4
 11
7.006019292734845
 21
5.210219318087681
 31
0.0
100
AcDbAttribute
  2
XX
 70
     0
  0
SEQEND
  5
1AF7
330
1AF5
100
AcDbEntity
  8
TEXT_BUBBLES
  0
INSERT
  5
1AFB
330
1E
100
AcDbEntity
  8
TEXT_BUBBLES
100
AcDbBlockReference
 66
     1
  2
bubble
 10
6.696432138911012
 20
4.169613516522471
 30
0.0
  0
ATTRIB
  5
1AFC
330
1AFB
100
AcDbEntity
  8
TEXT_BUBBLES
100
AcDbText
 10
6.636908329387202
 20
4.107113516522471
 30
0.0
 40
0.125
  1
7
  7
ROMANS
 72
     4
 11
6.696432138911012
 21
4.169613516522471
 31
0.0
100
AcDbAttribute
  2
XX
 70
     0
  0
SEQEND
  5
1AFD
330
1AFB
100
AcDbEntity
  8
TEXT_BUBBLES
  0
INSERT
  5
1AFE
330
1E
100
AcDbEntity
  8
TEXT_BUBBLES
100
AcDbBlockReference
 66
     1
  2
bubble
 10
2.762600355107354
 20
4.125737378305785
 30
0.0
  0
ATTRIB
  5
1AFF
330
1AFE
100
AcDbEntity
  8
TEXT_BUBBLES
100
AcDbText
 10
2.703076545583545
 20
4.063237378305785
 30
0.0
 40
0.125
  1
7
  7
ROMANS
 72
     4
 11
2.762600355107354
 21
4.125737378305785
 31
0.0
100
AcDbAttribute
  2
XX
 70
     0
  0
SEQEND
  5
1B00
330
1AFE
100
AcDbEntity
  8
TEXT_BUBBLES
  0
INSERT
  5
1B01
330
1E
100
AcDbEntity
  8
TEXT_BUBBLES
100
AcDbBlockReference
 66
     1
  2
bubble
 10
4.316771351552501
 20
4.305169120087546
 30
0.0
  0
ATTRIB
  5
1B02
330
1B01
100
AcDbEntity
  8
TEXT_BUBBLES
100
AcDbText
 10
4.257247542028692
 20
4.242669120087546
 30
0.0
 40
0.125
  1
5
  7
ROMANS
 72
     4
 11
4.316771351552501
 21
4.305169120087546
 31
0.0
100
AcDbAttribute
  2
XX
 70
     0
  0
SEQEND
  5
1B03
330
1B01
100
AcDbEntity
  8
TEXT_BUBBLES
  0
INSERT
  5
1B04
330
1E
100
AcDbEntity
  8
TEXT_BUBBLES
100
AcDbBlockReference
 66
     1
  2
bubble
 10
9.456263896214124
 20
3.432768612729536
 30
0.0
  0
ATTRIB
  5
1B05
330
1B04
100
AcDbEntity
  8
TEXT_BUBBLES
100
AcDbText
 10
9.396740086690314
 20
3.370268612729536
 30
0.0
 40
0.125
  1
8
  7
ROMANS
 72
     4
 11
9.456263896214124
 21
3.432768612729536
 31
0.0
100
AcDbAttribute
  2
XX
 70
     0
  0
SEQEND
  5
1B06
330
1B04
100
AcDbEntity
  8
TEXT_BUBBLES
  0
INSERT
  5
1B08
330
1E
100
AcDbEntity
  8
TEXT_BUBBLES
100
AcDbBlockReference
 66
     1
  2
bubble
 10
6.649973325789489
 20
5.979375512877841
 30
0.0
  0
ATTRIB
  5
1B09
330
1B08
100
AcDbEntity
  8
TEXT_BUBBLES
100
AcDbText
 10
6.59044951626568
 20
5.916875512877841
 30
0.0
 40
0.125
  1
8
  7
ROMANS
 72
     4
 11
6.649973325789489
 21
5.979375512877841
 31
0.0
100
AcDbAttribute
  2
XX
 70
     0
  0
SEQEND
  5
1B0A
330
1B08
100
AcDbEntity
  8
TEXT_BUBBLES
  0
POLYLINE
  5
1B16
330
1E
100
AcDbEntity
  8
IMAGE
  6
Continuous
100
AcDb2dPolyline
 66
     1
 10
0.0
 20
0.0
 30
0.0
 70
     4
 40
0.018
 41
0.018
 75
     6
  0
VERTEX
  5
1B17
330
1B16
100
AcDbEntity
  8
IMAGE
  6
Continuous
100
AcDbVertex
100
AcDb2dVertex
 10
5.261076117050496
 20
6.496175924056216
 30
0.0
 70
    16
  0
VERTEX
  5
1B2C
330
1B16
100
AcDbEntity
  8
IMAGE
  6
Continuous
100
AcDbVertex
100
AcDb2dVertex
 10
5.261076117050496
 20
6.496175924056216
 30
0.0
 70
     8
  0
VERTEX
  5
1B2D
330
1B16
100
AcDbEntity
  8
IMAGE
  6
Continuous
100
AcDbVertex
100
AcDb2dVertex
 10
5.25662662297814
 20
6.510747292801443
 30
0.0
 70
     8
  0
VERTEX
  5
1B2E
330
1B16
100
AcDbEntity
  8
IMAGE
  6
Continuous
100
AcDbVertex
100
AcDb2dVertex
 10
5.248519004756892
 20
6.52231519348876
 30
0.0
 70
     8
  0
VERTEX
  5
1B2F
330
1B16
100
AcDbEntity
  8
IMAGE
  6
Continuous
100
AcDbVertex
100
AcDb2dVertex
 10
5.235239990620549
 20
6.531277747107615
 30
0.0
 70
     8
  0
VERTEX
  5
1B30
330
1B16
100
AcDbEntity
  8
IMAGE
  6
Continuous
100
AcDbVertex
100
AcDb2dVertex
 10
5.215276308802907
 20
6.538033074647457
 30
0.0
 70
     8
  0
VERTEX
  5
1B31
330
1B16
100
AcDbEntity
  8
IMAGE
  6
Continuous
100
AcDbVertex
100
AcDb2dVertex
 10
5.187114687537764
 20
6.542979297097734
 30
0.0
 70
     8
  0
VERTEX
  5
1B32
330
1B16
100
AcDbEntity
  8
IMAGE
  6
Continuous
100
AcDbVertex
100
AcDb2dVertex
 10
5.149241855058916
 20
6.546514535447896
 30
0.0
 70
     8
  0
VERTEX
  5
1B33
330
1B16
100
AcDbEntity
  8
IMAGE
  6
Continuous
100
AcDbVertex
100
AcDb2dVertex
 10
5.100144539600158
 20
6.549036910687392
 30
0.0
 70
     8
  0
VERTEX
  5
1B34
330
1B16
100
AcDbEntity
  8
IMAGE
  6
Continuous
100
AcDbVertex
100
AcDb2dVertex
 10
5.038309469395288
 20
6.55094454380567
 30
0.0
 70
     8
  0
VERTEX
  5
1B35
330
1B16
100
AcDbEntity
  8
IMAGE
  6
Continuous
100
AcDbVertex
100
AcDb2dVertex
 10
4.963093897834825
 20
6.552576681091566
 30
0.0
 70
     8
  0
VERTEX
  5
1B36
330
1B16
100
AcDbEntity
  8
IMAGE
  6
Continuous
100
AcDbVertex
100
AcDb2dVertex
 10
4.877337178936178
 20
6.554037070031463
 30
0.0
 70
     8
  0
VERTEX
  5
1B37
330
1B16
100
AcDbEntity
  8
IMAGE
  6
Continuous
100
AcDbVertex
100
AcDb2dVertex
 10
4.784749191873476
 20
6.555370583411132
 30
0.0
 70
     8
  0
VERTEX
  5
1B38
330
1B16
100
AcDbEntity
  8
IMAGE
  6
Continuous
100
AcDbVertex
100
AcDb2dVertex
 10
4.68903981582085
 20
6.556622094016344
 30
0.0
 70
     8
  0
VERTEX
  5
1B39
330
1B16
100
AcDbEntity
  8
IMAGE
  6
Continuous
100
AcDbVertex
100
AcDb2dVertex
 10
4.593918929952428
 20
6.557836474632869
 30
0.0
 70
     8
  0
VERTEX
  5
1B3A
330
1B16
100
AcDbEntity
  8
IMAGE
  6
Continuous
100
AcDbVertex
100
AcDb2dVertex
 10
4.503096413442342
 20
6.559058598046479
 30
0.0
 70
     8
  0
VERTEX
  5
1B3B
330
1B16
100
AcDbEntity
  8
IMAGE
  6
Continuous
100
AcDbVertex
100
AcDb2dVertex
 10
4.420282145464723
 20
6.560333337042942
 30
0.0
 70
     8
  0
VERTEX
  5
1B3C
330
1B16
100
AcDbEntity
  8
IMAGE
  6
Continuous
100
AcDbVertex
100
AcDb2dVertex
 10
4.349186005193701
 20
6.561705564408031
 30
0.0
 70
     8
  0
VERTEX
  5
1B3D
330
1B16
100
AcDbEntity
  8
IMAGE
  6
Continuous
100
AcDbVertex
100
AcDb2dVertex
 10
4.292586892853906
 20
6.563210995977067
 30
0.0
 70
     8
  0
VERTEX
  5
1B3E
330
1B16
100
AcDbEntity
  8
IMAGE
  6
Continuous
100
AcDbVertex
100
AcDb2dVertex
 10
4.249539792871978
 20
6.564848719783585
 30
0.0
 70
     8
  0
VERTEX
  5
1B3F
330
1B16
100
AcDbEntity
  8
IMAGE
  6
Continuous
100
AcDbVertex
100
AcDb2dVertex
 10
4.218168710725058
 20
6.566608666910669
 30
0.0
 70
     8
  0
VERTEX
  5
1B40
330
1B16
100
AcDbEntity
  8
IMAGE
  6
Continuous
100
AcDbVertex
100
AcDb2dVertex
 10
4.196597651890286
 20
6.568480768441406
 30
0.0
 70
     8
  0
VERTEX
  5
1B41
330
1B16
100
AcDbEntity
  8
IMAGE
  6
Continuous
100
AcDbVertex
100
AcDb2dVertex
 10
4.182950621844803
 20
6.57045495545888
 30
0.0
 70
     8
  0
VERTEX
  5
1B42
330
1B16
100
AcDbEntity
  8
IMAGE
  6
Continuous
100
AcDbVertex
100
AcDb2dVertex
 10
4.175351626065747
 20
6.572521159046178
 30
0.0
 70
     8
  0
VERTEX
  5
1B43
330
1B16
100
AcDbEntity
  8
IMAGE
  6
Continuous
100
AcDbVertex
100
AcDb2dVertex
 10
4.171924670030262
 20
6.574669310286386
 30
0.0
 70
     8
  0
VERTEX
  5
1B44
330
1B16
100
AcDbEntity
  8
IMAGE
  6
Continuous
100
AcDbVertex
100
AcDb2dVertex
 10
4.170793759215486
 20
6.576889340262589
 30
0.0
 70
     8
  0
VERTEX
  5
1B45
330
1B16
100
AcDbEntity
  8
IMAGE
  6
Continuous
100
AcDbVertex
100
AcDb2dVertex
 10
4.170768334709665
 20
6.579160410457933
 30
0.0
 70
     8
  0
VERTEX
  5
1B46
330
1B16
100
AcDbEntity
  8
IMAGE
  6
Continuous
100
AcDbVertex
100
AcDb2dVertex
 10
4.173399580045462
 20
6.581418603955803
 30
0.0
 70
     8
  0
VERTEX
  5
1B47
330
1B16
100
AcDbEntity
  8
IMAGE
  6
Continuous
100
AcDbVertex
100
AcDb2dVertex
 10
4.180924114366644
 20
6.583589234239649
 30
0.0
 70
     8
  0
VERTEX
  5
1B48
330
1B16
100
AcDbEntity
  8
IMAGE
  6
Continuous
100
AcDbVertex
100
AcDb2dVertex
 10
4.195578556816979
 20
6.585597614792916
 30
0.0
 70
     8
  0
VERTEX
  5
1B49
330
1B16
100
AcDbEntity
  8
IMAGE
  6
Continuous
100
AcDbVertex
100
AcDb2dVertex
 10
4.219599526540234
 20
6.587369059099053
 30
0.0
 70
     8
  0
VERTEX
  5
1B4A
330
1B16
100
AcDbEntity
  8
IMAGE
  6
Continuous
100
AcDbVertex
100
AcDb2dVertex
 10
4.255223642680177
 20
6.588828880641505
 30
0.0
 70
     8
  0
VERTEX
  5
1B4B
330
1B16
100
AcDbEntity
  8
IMAGE
  6
Continuous
100
AcDbVertex
100
AcDb2dVertex
 10
4.304687524380575
 20
6.589902392903721
 30
0.0
 70
     8
  0
VERTEX
  5
1B4C
330
1B16
100
AcDbEntity
  8
IMAGE
  6
Continuous
100
AcDbVertex
100
AcDb2dVertex
 10
4.370227790785197
 20
6.590514909369147
 30
0.0
 70
     8
  0
VERTEX
  5
1B4D
330
1B16
100
AcDbEntity
  8
IMAGE
  6
Continuous
100
AcDbVertex
100
AcDb2dVertex
 10
4.452945249340945
 20
6.590626511362466
 30
0.0
 70
     8
  0
VERTEX
  5
1B4E
330
1B16
100
AcDbEntity
  8
IMAGE
  6
Continuous
100
AcDbVertex
100
AcDb2dVertex
 10
4.549397460707267
 20
6.590336351573299
 30
0.0
 70
     8
  0
VERTEX
  5
1B4F
330
1B16
100
AcDbEntity
  8
IMAGE
  6
Continuous
100
AcDbVertex
100
AcDb2dVertex
 10
4.655006173846747
 20
6.589778350532506
 30
0.0
 70
     8
  0
VERTEX
  5
1B50
330
1B16
100
AcDbEntity
  8
IMAGE
  6
Continuous
100
AcDbVertex
100
AcDb2dVertex
 10
4.765193137721968
 20
6.589086428770944
 30
0.0
 70
     8
  0
VERTEX
  5
1B51
330
1B16
100
AcDbEntity
  8
IMAGE
  6
Continuous
100
AcDbVertex
100
AcDb2dVertex
 10
4.875380101295515
 20
6.588394506819472
 30
0.0
 70
     8
  0
VERTEX
  5
1B52
330
1B16
100
AcDbEntity
  8
IMAGE
  6
Continuous
100
AcDbVertex
100
AcDb2dVertex
 10
4.980988813529972
 20
6.587836505208946
 30
0.0
 70
     8
  0
VERTEX
  5
1B53
330
1B16
100
AcDbEntity
  8
IMAGE
  6
Continuous
100
AcDbVertex
100
AcDb2dVertex
 10
5.07744102338792
 20
6.587546344470228
 30
0.0
 70
     8
  0
VERTEX
  5
1B54
330
1B16
100
AcDbEntity
  8
IMAGE
  6
Continuous
100
AcDbVertex
100
AcDb2dVertex
 10
5.160158479831945
 20
6.587657945134171
 30
0.0
 70
     8
  0
VERTEX
  5
1B55
330
1B16
100
AcDbEntity
  8
IMAGE
  6
Continuous
100
AcDbVertex
100
AcDb2dVertex
 10
5.225700980829335
 20
6.58826988760276
 30
0.0
 70
     8
  0
VERTEX
  5
1B56
330
1B16
100
AcDbEntity
  8
IMAGE
  6
Continuous
100
AcDbVertex
100
AcDb2dVertex
 10
5.275180520366206
 20
6.589339391762462
 30
0.0
 70
     8
  0
VERTEX
  5
1B57
330
1B16
100
AcDbEntity
  8
IMAGE
  6
Continuous
100
AcDbVertex
100
AcDb2dVertex
 10
5.310847141433377
 20
6.590788337370872
 30
0.0
 70
     8
  0
VERTEX
  5
1B58
330
1B16
100
AcDbEntity
  8
IMAGE
  6
Continuous
100
AcDbVertex
100
AcDb2dVertex
 10
5.334950887021667
 20
6.592538604185581
 30
0.0
 70
     8
  0
VERTEX
  5
1B59
330
1B16
100
AcDbEntity
  8
IMAGE
  6
Continuous
100
AcDbVertex
100
AcDb2dVertex
 10
5.349741800121897
 20
6.594512071964184
 30
0.0
 70
     8
  0
VERTEX
  5
1B5A
330
1B16
100
AcDbEntity
  8
IMAGE
  6
Continuous
100
AcDbVertex
100
AcDb2dVertex
 10
5.357469923724886
 20
6.596630620464272
 30
0.0
 70
     8
  0
VERTEX
  5
1B5B
330
1B16
100
AcDbEntity
  8
IMAGE
  6
Continuous
100
AcDbVertex
100
AcDb2dVertex
 10
5.360385300821454
 20
6.598816129443439
 30
0.0
 70
     8
  0
VERTEX
  5
1B5C
330
1B16
100
AcDbEntity
  8
IMAGE
  6
Continuous
100
AcDbVertex
100
AcDb2dVertex
 10
5.360737974402422
 20
6.600990478659276
 30
0.0
 70
     8
  0
VERTEX
  5
1B5D
330
1B16
100
AcDbEntity
  8
IMAGE
  6
Continuous
100
AcDbVertex
100
AcDb2dVertex
 10
5.36001773720393
 20
6.603089497901925
 30
0.0
 70
     8
  0
VERTEX
  5
1B5E
330
1B16
100
AcDbEntity
  8
IMAGE
  6
Continuous
100
AcDbVertex
100
AcDb2dVertex
 10
5.356673380943422
 20
6.60510481709172
 30
0.0
 70
     8
  0
VERTEX
  5
1B5F
330
1B16
100
AcDbEntity
  8
IMAGE
  6
Continuous
100
AcDbVertex
100
AcDb2dVertex
 10
5.348393447083656
 20
6.607042016181541
 30
0.0
 70
     8
  0
VERTEX
  5
1B60
330
1B16
100
AcDbEntity
  8
IMAGE
  6
Continuous
100
AcDbVertex
100
AcDb2dVertex
 10
5.332866477087399
 20
6.608906675124267
 30
0.0
 70
     8
  0
VERTEX
  5
1B61
330
1B16
100
AcDbEntity
  8
IMAGE
  6
Continuous
100
AcDbVertex
100
AcDb2dVertex
 10
5.307781012417409
 20
6.610704373872782
 30
0.0
 70
     8
  0
VERTEX
  5
1B62
330
1B16
100
AcDbEntity
  8
IMAGE
  6
Continuous
100
AcDbVertex
100
AcDb2dVertex
 10
5.27082559453645
 20
6.612440692379965
 30
0.0
 70
     8
  0
VERTEX
  5
1B63
330
1B16
100
AcDbEntity
  8
IMAGE
  6
Continuous
100
AcDbVertex
100
AcDb2dVertex
 10
5.219688764907285
 20
6.614121210598697
 30
0.0
 70
     8
  0
VERTEX
  5
1B64
330
1B16
100
AcDbEntity
  8
IMAGE
  6
Continuous
100
AcDbVertex
100
AcDb2dVertex
 10
5.152059064992677
 20
6.615751508481859
 30
0.0
 70
     8
  0
VERTEX
  5
1B65
330
1B16
100
AcDbEntity
  8
IMAGE
  6
Continuous
100
AcDbVertex
100
AcDb2dVertex
 10
5.066795654115038
 20
6.617341816022196
 30
0.0
 70
     8
  0
VERTEX
  5
1B66
330
1B16
100
AcDbEntity
  8
IMAGE
  6
Continuous
100
AcDbVertex
100
AcDb2dVertex
 10
4.967440163035379
 20
6.618920963371904
 30
0.0
 70
     8
  0
VERTEX
  5
1B67
330
1B16
100
AcDbEntity
  8
IMAGE
  6
Continuous
100
AcDbVertex
100
AcDb2dVertex
 10
4.858704840374363
 20
6.620522430723046
 30
0.0
 70
     8
  0
VERTEX
  5
1B68
330
1B16
100
AcDbEntity
  8
IMAGE
  6
Continuous
100
AcDbVertex
100
AcDb2dVertex
 10
4.745301934752649
 20
6.622179698267685
 30
0.0
 70
     8
  0
VERTEX
  5
1B69
330
1B16
100
AcDbEntity
  8
IMAGE
  6
Continuous
100
AcDbVertex
100
AcDb2dVertex
 10
4.631943694790901
 20
6.62392624619788
 30
0.0
 70
     8
  0
VERTEX
  5
1B6A
330
1B16
100
AcDbEntity
  8
IMAGE
  6
Continuous
100
AcDbVertex
100
AcDb2dVertex
 10
4.52334236910978
 20
6.625795554705694
 30
0.0
 70
     8
  0
VERTEX
  5
1B6B
330
1B16
100
AcDbEntity
  8
IMAGE
  6
Continuous
100
AcDbVertex
100
AcDb2dVertex
 10
4.424210206329948
 20
6.627821103983189
 30
0.0
 70
     8
  0
VERTEX
  5
1B6C
330
1B16
100
AcDbEntity
  8
IMAGE
  6
Continuous
100
AcDbVertex
100
AcDb2dVertex
 10
4.339259455072065
 20
6.630036374222424
 30
0.0
 70
     8
  0
VERTEX
  5
1B6D
330
1B16
100
AcDbEntity
  8
IMAGE
  6
Continuous
100
AcDbVertex
100
AcDb2dVertex
 10
4.272028954512252
 20
6.632459035535318
 30
0.0
 70
     8
  0
VERTEX
  5
1B6E
330
1B16
100
AcDbEntity
  8
IMAGE
  6
Continuous
100
AcDbVertex
100
AcDb2dVertex
 10
4.221363906048454
 20
6.635043517713206
 30
0.0
 70
     8
  0
VERTEX
  5
1B6F
330
1B16
100
AcDbEntity
  8
IMAGE
  6
Continuous
100
AcDbVertex
100
AcDb2dVertex
 10
4.184936101634074
 20
6.63772844046728
 30
0.0
 70
     8
  0
VERTEX
  5
1B70
330
1B16
100
AcDbEntity
  8
IMAGE
  6
Continuous
100
AcDbVertex
100
AcDb2dVertex
 10
4.160417333222516
 20
6.640452423508729
 30
0.0
 70
     8
  0
VERTEX
  5
1B71
330
1B16
100
AcDbEntity
  8
IMAGE
  6
Continuous
100
AcDbVertex
100
AcDb2dVertex
 10
4.145479392767184
 20
6.643154086548743
 30
0.0
 70
     8
  0
VERTEX
  5
1B72
330
1B16
100
AcDbEntity
  8
IMAGE
  6
Continuous
100
AcDbVertex
100
AcDb2dVertex
 10
4.137794072221483
 20
6.645772049298514
 30
0.0
 70
     8
  0
VERTEX
  5
1B73
330
1B16
100
AcDbEntity
  8
IMAGE
  6
Continuous
100
AcDbVertex
100
AcDb2dVertex
 10
4.135033163538813
 20
6.648244931469232
 30
0.0
 70
     8
  0
VERTEX
  5
1B74
330
1B16
100
AcDbEntity
  8
IMAGE
  6
Continuous
100
AcDbVertex
100
AcDb2dVertex
 10
4.13486845867258
 20
6.650511352772088
 30
0.0
 70
     8
  0
VERTEX
  5
1B75
330
1B16
100
AcDbEntity
  8
IMAGE
  6
Continuous
100
AcDbVertex
100
AcDb2dVertex
 10
4.135747818912483
 20
6.652520162958496
 30
0.0
 70
     8
  0
VERTEX
  5
1B76
330
1B16
100
AcDbEntity
  8
IMAGE
  6
Continuous
100
AcDbVertex
100
AcDb2dVertex
 10
4.139223382893405
 20
6.654261131940754
 30
0.0
 70
     8
  0
VERTEX
  5
1B77
330
1B16
100
AcDbEntity
  8
IMAGE
  6
Continuous
100
AcDbVertex
100
AcDb2dVertex
 10
4.147623358586521
 20
6.655734259671385
 30
0.0
 70
     8
  0
VERTEX
  5
1B78
330
1B16
100
AcDbEntity
  8
IMAGE
  6
Continuous
100
AcDbVertex
100
AcDb2dVertex
 10
4.163275953963011
 20
6.656939546102912
 30
0.0
 70
     8
  0
VERTEX
  5
1B79
330
1B16
100
AcDbEntity
  8
IMAGE
  6
Continuous
100
AcDbVertex
100
AcDb2dVertex
 10
4.188509376994051
 20
6.657876991187857
 30
0.0
 70
     8
  0
VERTEX
  5
1B7A
330
1B16
100
AcDbEntity
  8
IMAGE
  6
Continuous
100
AcDbVertex
100
AcDb2dVertex
 10
4.225651835650822
 20
6.658546594878743
 30
0.0
 70
     8
  0
VERTEX
  5
1B7B
330
1B16
100
AcDbEntity
  8
IMAGE
  6
Continuous
100
AcDbVertex
100
AcDb2dVertex
 10
4.277031537904498
 20
6.658948357128091
 30
0.0
 70
     8
  0
VERTEX
  5
1B7C
330
1B16
100
AcDbEntity
  8
IMAGE
  6
Continuous
100
AcDbVertex
100
AcDb2dVertex
 10
4.344976691726259
 20
6.659082277888424
 30
0.0
 70
     8
  0
VERTEX
  5
1B7D
330
1B16
100
AcDbEntity
  8
IMAGE
  6
Continuous
100
AcDbVertex
100
AcDb2dVertex
 10
4.430637442988681
 20
6.65896230719229
 30
0.0
 70
     8
  0
VERTEX
  5
1B7E
330
1B16
100
AcDbEntity
  8
IMAGE
  6
Continuous
100
AcDbVertex
100
AcDb2dVertex
 10
4.530451689169934
 20
6.658658195392341
 30
0.0
 70
     8
  0
VERTEX
  5
1B7F
330
1B16
100
AcDbEntity
  8
IMAGE
  6
Continuous
100
AcDbVertex
100
AcDb2dVertex
 10
4.63967926564959
 20
6.658253642921251
 30
0.0
 70
     8
  0
VERTEX
  5
1B80
330
1B16
100
AcDbEntity
  8
IMAGE
  6
Continuous
100
AcDbVertex
100
AcDb2dVertex
 10
4.753580007807215
 20
6.657832350211697
 30
0.0
 70
     8
  0
VERTEX
  5
1B81
330
1B16
100
AcDbEntity
  8
IMAGE
  6
Continuous
100
AcDbVertex
100
AcDb2dVertex
 10
4.86741375102238
 20
6.657478017696356
 30
0.0
 70
     8
  0
VERTEX
  5
1B82
330
1B16
100
AcDbEntity
  8
IMAGE
  6
Continuous
100
AcDbVertex
100
AcDb2dVertex
 10
4.976440330674654
 20
6.657274345807905
 30
0.0
 70
     8
  0
VERTEX
  5
1B83
330
1B16
100
AcDbEntity
  8
IMAGE
  6
Continuous
100
AcDbVertex
100
AcDb2dVertex
 10
5.075919582143608
 20
6.657305034979017
 30
0.0
 70
     8
  0
VERTEX
  5
1B84
330
1B16
100
AcDbEntity
  8
IMAGE
  6
Continuous
100
AcDbVertex
100
AcDb2dVertex
 10
5.16111134080881
 20
6.657653785642372
 30
0.0
 70
     8
  0
VERTEX
  5
1B85
330
1B16
100
AcDbEntity
  8
IMAGE
  6
Continuous
100
AcDbVertex
100
AcDb2dVertex
 10
5.22845722632447
 20
6.658381978126342
 30
0.0
 70
     8
  0
VERTEX
  5
1B86
330
1B16
100
AcDbEntity
  8
IMAGE
  6
Continuous
100
AcDbVertex
100
AcDb2dVertex
 10
5.279125995443365
 20
6.659461712342092
 30
0.0
 70
     8
  0
VERTEX
  5
1B87
330
1B16
100
AcDbEntity
  8
IMAGE
  6
Continuous
100
AcDbVertex
100
AcDb2dVertex
 10
5.315468189192911
 20
6.660842768096485
 30
0.0
 70
     8
  0
VERTEX
  5
1B88
330
1B16
100
AcDbEntity
  8
IMAGE
  6
Continuous
100
AcDbVertex
100
AcDb2dVertex
 10
5.339834348600524
 20
6.662474925196386
 30
0.0
 70
     8
  0
VERTEX
  5
1B89
330
1B16
100
AcDbEntity
  8
IMAGE
  6
Continuous
100
AcDbVertex
100
AcDb2dVertex
 10
5.35457501469362
 20
6.664307963448655
 30
0.0
 70
     8
  0
VERTEX
  5
1B8A
330
1B16
100
AcDbEntity
  8
IMAGE
  6
Continuous
100
AcDbVertex
100
AcDb2dVertex
 10
5.362040728499616
 20
6.666291662660158
 30
0.0
 70
     8
  0
VERTEX
  5
1B8B
330
1B16
100
AcDbEntity
  8
IMAGE
  6
Continuous
100
AcDbVertex
100
AcDb2dVertex
 10
5.364582031045928
 20
6.668375802637755
 30
0.0
 70
     8
  0
VERTEX
  5
1B8C
330
1B16
100
AcDbEntity
  8
IMAGE
  6
Continuous
100
AcDbVertex
100
AcDb2dVertex
 10
5.364549463359974
 20
6.670510163188311
 30
0.0
 70
     8
  0
VERTEX
  5
1B8D
330
1B16
100
AcDbEntity
  8
IMAGE
  6
Continuous
100
AcDbVertex
100
AcDb2dVertex
 10
5.36348492822765
 20
6.672650104119046
 30
0.0
 70
     8
  0
VERTEX
  5
1B8E
330
1B16
100
AcDbEntity
  8
IMAGE
  6
Continuous
100
AcDbVertex
100
AcDb2dVertex
 10
5.359695775468781
 20
6.674773305238616
 30
0.0
 70
     8
  0
VERTEX
  5
1B8F
330
1B16
100
AcDbEntity
  8
IMAGE
  6
Continuous
100
AcDbVertex
100
AcDb2dVertex
 10
5.35068071666167
 20
6.676863026356036
 30
0.0
 70
     8
  0
VERTEX
  5
1B90
330
1B16
100
AcDbEntity
  8
IMAGE
  6
Continuous
100
AcDbVertex
100
AcDb2dVertex
 10
5.333938463384622
 20
6.678902527280317
 30
0.0
 70
     8
  0
VERTEX
  5
1B91
330
1B16
100
AcDbEntity
  8
IMAGE
  6
Continuous
100
AcDbVertex
100
AcDb2dVertex
 10
5.306967727215942
 20
6.680875067820477
 30
0.0
 70
     8
  0
VERTEX
  5
1B92
330
1B16
100
AcDbEntity
  8
IMAGE
  6
Continuous
100
AcDbVertex
100
AcDb2dVertex
 10
5.267267219733934
 20
6.682763907785527
 30
0.0
 70
     8
  0
VERTEX
  5
1B93
330
1B16
100
AcDbEntity
  8
IMAGE
  6
Continuous
100
AcDbVertex
100
AcDb2dVertex
 10
5.212335652516903
 20
6.684552306984482
 30
0.0
 70
     8
  0
VERTEX
  5
1B94
330
1B16
100
AcDbEntity
  8
IMAGE
  6
Continuous
100
AcDbVertex
100
AcDb2dVertex
 10
5.139671737143153
 20
6.686223525226354
 30
0.0
 70
     8
  0
VERTEX
  5
1B95
330
1B16
100
AcDbEntity
  8
IMAGE
  6
Continuous
100
AcDbVertex
100
AcDb2dVertex
 10
5.048029482081034
 20
6.687754312327655
 30
0.0
 70
     8
  0
VERTEX
  5
1B96
330
1B16
100
AcDbEntity
  8
IMAGE
  6
Continuous
100
AcDbVertex
100
AcDb2dVertex
 10
4.941184083359081
 20
6.68909537813487
 30
0.0
 70
     8
  0
VERTEX
  5
1B97
330
1B16
100
AcDbEntity
  8
IMAGE
  6
Continuous
100
AcDbVertex
100
AcDb2dVertex
 10
4.824166033895869
 20
6.690190922501981
 30
0.0
 70
     8
  0
VERTEX
  5
1B98
330
1B16
100
AcDbEntity
  8
IMAGE
  6
Continuous
100
AcDbVertex
100
AcDb2dVertex
 10
4.70200582660998
 20
6.690985145282972
 30
0.0
 70
     8
  0
VERTEX
  5
1B99
330
1B16
100
AcDbEntity
  8
IMAGE
  6
Continuous
100
AcDbVertex
100
AcDb2dVertex
 10
4.579733954419989
 20
6.691422246331824
 30
0.0
 70
     8
  0
VERTEX
  5
1B9A
330
1B16
100
AcDbEntity
  8
IMAGE
  6
Continuous
100
AcDbVertex
100
AcDb2dVertex
 10
4.462380910244478
 20
6.691446425502519
 30
0.0
 70
     8
  0
VERTEX
  5
1B9B
330
1B16
100
AcDbEntity
  8
IMAGE
  6
Continuous
100
AcDbVertex
100
AcDb2dVertex
 10
4.354977187002024
 20
6.691001882649039
 30
0.0
 70
     8
  0
VERTEX
  5
1B9C
330
1B16
100
AcDbEntity
  8
IMAGE
  6
Continuous
100
AcDbVertex
100
AcDb2dVertex
 10
4.262553277611205
 20
6.690032817625365
 30
0.0
 70
     8
  0
VERTEX
  5
1B9D
330
1B16
100
AcDbEntity
  8
IMAGE
  6
Continuous
100
AcDbVertex
100
AcDb2dVertex
 10
4.188893683509229
 20
6.688496450310057
 30
0.0
 70
     8
  0
VERTEX
  5
1B9E
330
1B16
100
AcDbEntity
  8
IMAGE
  6
Continuous
100
AcDbVertex
100
AcDb2dVertex
 10
4.132798940207822
 20
6.686402080679972
 30
0.0
 70
     8
  0
VERTEX
  5
1B9F
330
1B16
100
AcDbEntity
  8
IMAGE
  6
Continuous
100
AcDbVertex
100
AcDb2dVertex
 10
4.091823591737339
 20
6.683772028736544
 30
0.0
 70
     8
  0
VERTEX
  5
1BA0
330
1B16
100
AcDbEntity
  8
IMAGE
  6
Continuous
100
AcDbVertex
100
AcDb2dVertex
 10
4.063522182128133
 20
6.680628614481207
 30
0.0
 70
     8
  0
VERTEX
  5
1BA1
330
1B16
100
AcDbEntity
  8
IMAGE
  6
Continuous
100
AcDbVertex
100
AcDb2dVertex
 10
4.04544925541056
 20
6.676994157915395
 30
0.0
 70
     8
  0
VERTEX
  5
1BA2
330
1B16
100
AcDbEntity
  8
IMAGE
  6
Continuous
100
AcDbVertex
100
AcDb2dVertex
 10
4.035159355614974
 20
6.672890979040543
 30
0.0
 70
     8
  0
VERTEX
  5
1BA3
330
1B16
100
AcDbEntity
  8
IMAGE
  6
Continuous
100
AcDbVertex
100
AcDb2dVertex
 10
4.030207026771728
 20
6.668341397858084
 30
0.0
 70
     8
  0
VERTEX
  5
1BA4
330
1B16
100
AcDbEntity
  8
IMAGE
  6
Continuous
100
AcDbVertex
100
AcDb2dVertex
 10
4.02814681291118
 20
6.663367734369454
 30
0.0
 70
     8
  0
VERTEX
  5
1BA5
330
1B16
100
AcDbEntity
  8
IMAGE
  6
Continuous
100
AcDbVertex
100
AcDb2dVertex
 10
4.026948743630857
 20
6.657990913603689
 30
0.0
 70
     8
  0
VERTEX
  5
1BA6
330
1B16
100
AcDbEntity
  8
IMAGE
  6
Continuous
100
AcDbVertex
100
AcDb2dVertex
 10
4.02624479079699
 20
6.652226280700253
 30
0.0
 70
     8
  0
VERTEX
  5
1BA7
330
1B16
100
AcDbEntity
  8
IMAGE
  6
Continuous
100
AcDbVertex
100
AcDb2dVertex
 10
4.026082411842983
 20
6.646087785826215
 30
0.0
 70
     8
  0
VERTEX
  5
1BA8
330
1B16
100
AcDbEntity
  8
IMAGE
  6
Continuous
100
AcDbVertex
100
AcDb2dVertex
 10
4.026509064202244
 20
6.639589379148641
 30
0.0
 70
     8
  0
VERTEX
  5
1BA9
330
1B16
100
AcDbEntity
  8
IMAGE
  6
Continuous
100
AcDbVertex
100
AcDb2dVertex
 10
4.027572205308175
 20
6.632745010834601
 30
0.0
 70
     8
  0
VERTEX
  5
1BAA
330
1B16
100
AcDbEntity
  8
IMAGE
  6
Continuous
100
AcDbVertex
100
AcDb2dVertex
 10
4.029319292594182
 20
6.625568631051162
 30
0.0
 70
     8
  0
VERTEX
  5
1BAB
330
1B16
100
AcDbEntity
  8
IMAGE
  6
Continuous
100
AcDbVertex
100
AcDb2dVertex
 10
4.03179778349367
 20
6.618074189965393
 30
0.0
 70
     8
  0
VERTEX
  5
1BAC
330
1B16
100
AcDbEntity
  8
IMAGE
  6
Continuous
100
AcDbVertex
100
AcDb2dVertex
 10
4.035055135440046
 20
6.61027563774436
 30
0.0
 70
     8
  0
VERTEX
  5
1BAD
330
1B16
100
AcDbEntity
  8
IMAGE
  6
Continuous
100
AcDbVertex
100
AcDb2dVertex
 10
4.039138879740209
 20
6.60210403917408
 30
0.0
 70
     8
  0
VERTEX
  5
1BAE
330
1B16
100
AcDbEntity
  8
IMAGE
  6
Continuous
100
AcDbVertex
100
AcDb2dVertex
 10
4.044096843195029
 20
6.593158917516363
 30
0.0
 70
     8
  0
VERTEX
  5
1BAF
330
1B16
100
AcDbEntity
  8
IMAGE
  6
Continuous
100
AcDbVertex
100
AcDb2dVertex
 10
4.04997692647888
 20
6.582956910651963
 30
0.0
 70
     8
  0
VERTEX
  5
1BB0
330
1B16
100
AcDbEntity
  8
IMAGE
  6
Continuous
100
AcDbVertex
100
AcDb2dVertex
 10
4.056827030266126
 20
6.571014656461639
 30
0.0
 70
     8
  0
VERTEX
  5
1BB1
330
1B16
100
AcDbEntity
  8
IMAGE
  6
Continuous
100
AcDbVertex
100
AcDb2dVertex
 10
4.064695055231139
 20
6.556848792826145
 30
0.0
 70
     8
  0
VERTEX
  5
1BB2
330
1B16
100
AcDbEntity
  8
IMAGE
  6
Continuous
100
AcDbVertex
100
AcDb2dVertex
 10
4.073628902048284
 20
6.539975957626239
 30
0.0
 70
     8
  0
VERTEX
  5
1BB3
330
1B16
100
AcDbEntity
  8
IMAGE
  6
Continuous
100
AcDbVertex
100
AcDb2dVertex
 10
4.083676471391932
 20
6.519912788742677
 30
0.0
 70
     8
  0
VERTEX
  5
1BB4
330
1B16
100
AcDbEntity
  8
IMAGE
  6
Continuous
100
AcDbVertex
100
AcDb2dVertex
 10
4.094885663936449
 20
6.496175924056216
 30
0.0
 70
     8
  0
VERTEX
  5
1B18
330
1B16
100
AcDbEntity
  8
IMAGE
  6
Continuous
100
AcDbVertex
100
AcDb2dVertex
 10
5.252743167930555
 20
6.539391416777991
 30
0.0
 70
    16
  0
VERTEX
  5
1B19
330
1B16
100
AcDbEntity
  8
IMAGE
  6
Continuous
100
AcDbVertex
100
AcDb2dVertex
 10
5.190320418859986
 20
6.553255169211205
 30
0.0
 70
    16
  0
VERTEX
  5
1B1A
330
1B16
100
AcDbEntity
  8
IMAGE
  6
Continuous
100
AcDbVertex
100
AcDb2dVertex
 10
4.18462059846595
 20
6.560187045427812
 30
0.0
 70
    16
  0
VERTEX
  5
1B1B
330
1B16
100
AcDbEntity
  8
IMAGE
  6
Continuous
100
AcDbVertex
100
AcDb2dVertex
 10
4.166313218438416
 20
6.57623003552573
 30
0.0
 70
    16
  0
VERTEX
  5
1B1C
330
1B16
100
AcDbEntity
  8
IMAGE
  6
Continuous
100
AcDbVertex
100
AcDb2dVertex
 10
4.174889083073299
 20
6.596228854044803
 30
0.0
 70
    16
  0
VERTEX
  5
1B1D
330
1B16
100
AcDbEntity
  8
IMAGE
  6
Continuous
100
AcDbVertex
100
AcDb2dVertex
 10
5.35549719397957
 20
6.581944004509941
 30
0.0
 70
    16
  0
VERTEX
  5
1B1E
330
1B16
100
AcDbEntity
  8
IMAGE
  6
Continuous
100
AcDbVertex
100
AcDb2dVertex
 10
5.364073020000087
 20
6.601942798720459
 30
0.0
 70
    16
  0
VERTEX
  5
1B1F
330
1B16
100
AcDbEntity
  8
IMAGE
  6
Continuous
100
AcDbVertex
100
AcDb2dVertex
 10
5.35263857243461
 20
6.616227672563876
 30
0.0
 70
    16
  0
VERTEX
  5
1B20
330
1B16
100
AcDbEntity
  8
IMAGE
  6
Continuous
100
AcDbVertex
100
AcDb2dVertex
 10
4.13772708021754
 20
6.627655561915188
 30
0.0
 70
    16
  0
VERTEX
  5
1B21
330
1B16
100
AcDbEntity
  8
IMAGE
  6
Continuous
100
AcDbVertex
100
AcDb2dVertex
 10
4.13200983712762
 20
6.653368325109917
 30
0.0
 70
    16
  0
VERTEX
  5
1B22
330
1B16
100
AcDbEntity
  8
IMAGE
  6
Continuous
100
AcDbVertex
100
AcDb2dVertex
 10
4.143444323307463
 20
6.661939254277678
 30
0.0
 70
    16
  0
VERTEX
  5
1B23
330
1B16
100
AcDbEntity
  8
IMAGE
  6
Continuous
100
AcDbVertex
100
AcDb2dVertex
 10
5.364073020000087
 20
6.653368325109917
 30
0.0
 70
    16
  0
VERTEX
  5
1B24
330
1B16
100
AcDbEntity
  8
IMAGE
  6
Continuous
100
AcDbVertex
100
AcDb2dVertex
 10
5.366931641545047
 20
6.670510159136885
 30
0.0
 70
    16
  0
VERTEX
  5
1B25
330
1B16
100
AcDbEntity
  8
IMAGE
  6
Continuous
100
AcDbVertex
100
AcDb2dVertex
 10
5.35549719397957
 20
6.687652017472407
 30
0.0
 70
    16
  0
VERTEX
  5
1B26
330
1B16
100
AcDbEntity
  8
IMAGE
  6
Continuous
100
AcDbVertex
100
AcDb2dVertex
 10
4.049110005395588
 20
6.696222922331613
 30
0.0
 70
    16
  0
VERTEX
  5
1B27
330
1B16
100
AcDbEntity
  8
IMAGE
  6
Continuous
100
AcDbVertex
100
AcDb2dVertex
 10
4.023382450105307
 20
6.667653198953334
 30
0.0
 70
    16
  0
VERTEX
  5
1B28
330
1B16
100
AcDbEntity
  8
IMAGE
  6
Continuous
100
AcDbVertex
100
AcDb2dVertex
 10
4.026241071650267
 20
6.61337068807177
 30
0.0
 70
    16
  0
VERTEX
  5
1B29
330
1B16
100
AcDbEntity
  8
IMAGE
  6
Continuous
100
AcDbVertex
100
AcDb2dVertex
 10
4.063403074506025
 20
6.564802146174419
 30
0.0
 70
    16
  0
VERTEX
  5
1B2A
330
1B16
100
AcDbEntity
  8
IMAGE
  6
Continuous
100
AcDbVertex
100
AcDb2dVertex
 10
4.094885663936449
 20
6.496175924056216
 30
0.0
 70
    16
  0
SEQEND
  5
1B2B
330
1B16
100
AcDbEntity
  8
IMAGE
  6
Continuous
  0
INSERT
  5
1BBE
330
1E
100
AcDbEntity
  8
TEXT_BUBBLES
100
AcDbBlockReference
 66
     1
  2
bubble
 10
5.923300936101675
 20
7.560463125879986
 30
0.0
  0
ATTRIB
  5
1BBF
330
1BBE
100
AcDbEntity
  8
TEXT_BUBBLES
100
AcDbText
 10
5.863777126577866
 20
7.497963125879986
 30
0.0
 40
0.125
  1
3
  7
ROMANS
 72
     4
 11
5.923300936101675
 21
7.560463125879986
 31
0.0
100
AcDbAttribute
  2
XX
 70
     0
  0
SEQEND
  5
1BC0
330
1BBE
100
AcDbEntity
  8
TEXT_BUBBLES
  0
INSERT
  5
1BEE
330
1E
100
AcDbEntity
  8
0
100
AcDbBlockReference
  2
pagesetups
 10
0.0
 20
0.0
 30
0.0
  0
INSERT
  5
1BEF
330
1E
100
AcDbEntity
  8
0
100
AcDbBlockReference
  2
pagesetups
 10
0.0
 20
0.0
 30
0.0
  0
INSERT
  5
1BF1
330
1E
100
AcDbEntity
  8
TEXT_BUBBLES
100
AcDbBlockReference
 66
     1
  2
bubble
 10
3.230861630156206
 20
3.985325396599021
 30
0.0
  0
ATTRIB
  5
1BF2
330
1BF1
100
AcDbEntity
  8
TEXT_BUBBLES
100
AcDbText
 10
3.168361630156206
 20
3.922825396599021
 30
0.0
 40
0.125
  1
6
  7
ROMANS
 72
     4
 11
3.230861630156206
 21
3.985325396599021
 31
0.0
100
AcDbAttribute
  2
XX
 70
     0
  0
SEQEND
  5
1BF3
330
1BF1
100
AcDbEntity
  8
TEXT_BUBBLES
  0
LEADER
  5
1C1A
330
1E
100
AcDbEntity
  8
TEXT_BUBBLES
100
AcDbLeader
  3
Standard
 76
     2
 10
2.824995348648653
 20
4.572692341305904
 30
0.0
 10
3.123330229282006
 20
4.07480155000573
 30
0.0
  0
LEADER
  5
1C1B
330
1E
100
AcDbEntity
  8
TEXT_BUBBLES
100
AcDbLeader
  3
Standard
 76
     2
 10
4.936024761395849
 20
6.69059173098198
 30
0.0
 10
5.14956002849634
 20
7.426846682882898
 30
0.0
  0
LEADER
  5
1C1C
330
1E
100
AcDbEntity
  8
TEXT_BUBBLES
100
AcDbLeader
  3
Standard
 76
     2
 10
6.416384734462464
 20
4.802987378813966
 30
0.0
 10
6.901222010507254
 20
5.117555874162153
 30
0.0
  0
LEADER
  5
1C1D
330
1E
100
AcDbEntity
  8
TEXT_BUBBLES
100
AcDbLeader
  3
Standard
 76
     2
 10
6.402074939781884
 20
7.115288392271369
 30
0.0
 10
6.063190121539395
 20
7.560463125879986
 30
0.0
  0
LEADER
  5
1C1E
330
1E
100
AcDbEntity
  8
TEXT_BUBBLES
100
AcDbLeader
  3
Standard
 76
     2
 10
5.373786661250496
 20
6.282056894717436
 30
0.0
 10
6.419368222844164
 20
6.587015360190576
 30
0.0
  0
LEADER
  5
1C1F
330
1E
100
AcDbEntity
  8
TEXT_BUBBLES
100
AcDbLeader
  3
Standard
 76
     2
 10
6.071008066622342
 20
5.562993592271367
 30
0.0
 10
6.554042634197452
 20
5.877560550258872
 30
0.0
  0
LEADER
  5
1C20
330
1E
100
AcDbEntity
  8
TEXT_BUBBLES
100
AcDbLeader
  3
Standard
 76
     2
 10
4.267436947856825
 20
7.213390192796747
 30
0.0
 10
4.00696649709727
 20
7.480025997509565
 30
0.0
  0
LEADER
  5
1C21
330
1E
100
AcDbEntity
  8
TEXT_BUBBLES
100
AcDbLeader
  3
Standard
 76
     2
 10
7.001812319018758
 20
4.729450672271368
 30
0.0
 10
6.794847732149035
 20
4.269028581829681
 30
0.0
  0
LEADER
  5
1C22
330
1E
100
AcDbEntity
  8
TEXT_BUBBLES
100
AcDbLeader
  3
Standard
 76
     2
 10
4.0492261960241
 20
4.783633626918907
 30
0.0
 10
4.251785564430137
 20
4.429047413886401
 30
0.0
  0
LEADER
  5
1C23
330
1E
100
AcDbEntity
  8
TEXT_BUBBLES
100
AcDbLeader
  3
Standard
 76
     2
 10
2.356734073599801
 20
4.713104323012668
 30
0.0
 10
2.655068954233154
 20
4.215213531712494
 30
0.0
  0
ENDSEC
  0
SECTION
  2
OBJECTS
  0
DICTIONARY
  5
C
330
0
100
AcDbDictionary
281
     1
  3
ACAD_GROUP
350
D
  3
ACAD_LAYOUT
350
19
  3
ACAD_MLINESTYLE
350
16
  3
ACAD_PLOTSETTINGS
350
18
  3
ACAD_PLOTSTYLENAME
350
E
  3
AcDbVariableDictionary
350
1AE3
  3
ASE_INDEX_DICTIONARY
350
1AE0
  0
DICTIONARY
  5
D
102
{ACAD_REACTORS
330
C
102
}
330
C
100
AcDbDictionary
281
     1
  0
DICTIONARY
  5
19
102
{ACAD_REACTORS
330
C
102
}
330
C
100
AcDbDictionary
281
     1
  3
Layout1
350
1D
  3
Model
350
21
  0
DICTIONARY
  5
16
102
{ACAD_REACTORS
330
C
102
}
330
C
100
AcDbDictionary
281
     1
  3
Standard
350
17
  0
DICTIONARY
  5
18
102
{ACAD_REACTORS
330
C
102
}
330
C
100
AcDbDictionary
281
     1
  3
1055 B&W Full Shaded Draft
350
1BD6
  3
1055 B&W Full Shaded Final
350
1BD7
  3
1055 B&W Half Shaded Draft
350
1BD8
  3
1055 B&W Half Shaded Final
350
1BD9
  3
1055 Color Full Shaded Draft
350
1BDA
  3
1055 Color Full Shaded Final
350
1BDB
  3
1055 Color Half Shaded Draft
350
1BDC
  3
1055 Color Half Shaded Final
350
1BDD
  3
1055-B&W-Shaded-Draft
350
1BDE
  3
1055-B&W-Shaded-Final
350
1BDF
  3
1055-Color-Shaded-Draft
350
1BE0
  3
1055-Color-Shaded-Final
350
1BE1
  3
1055cm B&W Shaded Draft
350
1A3F
  3
1055cm B&W Shaded Final
350
1A40
  3
1055cm Color Draft
350
1A41
  3
1055cm Color Shaded Draft
350
1A42
  3
1055cm Color Shaded Final
350
1A43
  3
1055cmB&WShadedDraft
350
1A44
  3
1055cmColorShadedDraft
350
1A45
  3
8500 B&W Shaded 11x17
350
1A46
  3
8500 B&W Shaded 8.5x11
350
1A47
  3
8500 Color Shaded 11x17
350
1A48
  3
8500 Color Shaded 8.5x11
350
1A49
  3
8500-B&W-Shaded-11x17
350
1BE2
  3
8500-B&W-Shaded-8.5x11
350
1BE3
  3
8500-Color-Shaded-11x17
350
1BE4
  3
8500-Color-Shaded-8.5x11
350
1BE5
  3
8500B&WShaded11x17
350
1A4A
  3
8500ColorShaded11x17
350
1A4B
  3
Laser Jet 5 Shaded 11x17
350
1A4C
  3
Laser Jet 5 Shaded 8.5x11
350
1A4D
  3
LaserJet5-Shaded-11x17
350
1BE6
  3
LaserJet5-Shaded-8.5x11
350
1BE7
  3
LaserJet5Shaded 11x17
350
1A4E
  0
ACDBDICTIONARYWDFLT
  5
E
102
{ACAD_REACTORS
330
C
102
}
330
C
100
AcDbDictionary
281
     1
  3
Normal
350
F
100
AcDbDictionaryWithDefault
340
F
  0
DICTIONARY
  5
1AE3
102
{ACAD_REACTORS
330
C
102
}
330
C
100
AcDbDictionary
281
     1
  3
DIMASSOC
350
1AE5
  3
HIDETEXT
350
1AE4
  3
SORTENTS
350
1C0D
  0
DICTIONARY
  5
1AE0
102
{ACAD_REACTORS
330
C
102
}
330
C
100
AcDbDictionary
281
     1
  3
ASEBlockHierarchyIndexRecord
350
1AE1
1001
DCO15
1040
1447057408.989
  0
LAYOUT
  5
1D
102
{ACAD_REACTORS
330
19
102
}
330
19
100
AcDbPlotSettings
  1

  2
S:\AutoCAD 2002\Plotters\1055ColorDraftShaded.pc3
  4

  6

 40
0.0
 41
0.0
 42
0.0
 43
0.0
 44
0.0
 45
0.0
 46
0.0
 47
0.0
 48
0.0
 49
0.0
140
0.0
141
0.0
142
1.0
143
1.0
 70
   688
 72
     0
 73
     0
 74
     5
  7
Black&White.ctb
 75
    16
147
1.0
148
0.0
149
0.0
100
AcDbLayout
  1
Layout1
 70
     0
 71
     1
 10
0.0
 20
0.0
 11
12.0
 21
9.0
 12
0.0
 22
0.0
 32
0.0
 14
1.000000000000000E+20
 24
1.000000000000000E+20
 34
1.000000000000000E+20
 15
-1.000000000000000E+20
 25
-1.000000000000000E+20
 35
-1.000000000000000E+20
146
0.0
 13
0.0
 23
0.0
 33
0.0
 16
1.0
 26
0.0
 36
0.0
 17
0.0
 27
1.0
 37
0.0
 76
     0
330
1A
  0
LAYOUT
  5
21
102
{ACAD_REACTORS
330
19
102
}
330
19
100
AcDbPlotSettings
  1

  2
8500ColorShaded.pc3
  4
11x17
  6
PS1
 40
5.027083396911621
 41
5.027085304260253
 42
5.027099609375
 43
5.027069091796875
 44
279.3999938964843
 45
431.7999877929687
 46
2.032
 47
1.523999999999999
 48
0.0
 49
0.0
140
16.49
141
10.44
142
1.0
143
1.0
 70
 11956
 72
     0
 73
     1
 74
     3
  7
8500ColorShaded.ctb
 75
    16
147
1.0
148
0.000000000000002
149
0.0
100
AcDbLayout
  1
Model
 70
     1
 71
     0
 10
0.0
 20
0.0
 11
12.0
 21
9.0
 12
0.0
 22
0.0
 32
0.0
 14
0.0
 24
0.0
 34
0.0
 15
0.0
 25
0.0
 35
0.0
146
0.0
 13
0.0
 23
0.0
 33
0.0
 16
1.0
 26
0.0
 36
0.0
 17
0.0
 27
1.0
 37
0.0
 76
     0
330
1E
  0
MLINESTYLE
  5
17
102
{ACAD_REACTORS
330
16
102
}
330
16
100
AcDbMlineStyle
  2
STANDARD
 70
     0
  3

 62
   256
 51
90.0
 52
90.0
 71
     2
 49
0.5
 62
   256
  6
BYLAYER
 49
-0.5
 62
   256
  6
BYLAYER
  0
PLOTSETTINGS
  5
1BD6
102
{ACAD_REACTORS
330
18
102
}
330
18
100
AcDbPlotSettings
  1
1055 B&W Full Shaded Draft
  2
1055B&WDraftShaded.pc3
  4
User607
  6
PS1
 40
0.0
 41
0.0
 42
0.0
 43
0.0
 44
901.7000122070312
 45
1155.700073242187
 46
0.0
 47
0.0
 48
180377.877572
 49
80019.819395
140
180380.8390819999
141
80022.26069
142
1.0
143
1.0
 70
   688
 72
     0
 73
     2
 74
     5
  7
1055B&WFullDraftShaded.ctb
 75
    16
147
1.0
148
-4581114.014650871
149
-2032337.537636779
  0
PLOTSETTINGS
  5
1BD7
102
{ACAD_REACTORS
330
18
102
}
330
18
100
AcDbPlotSettings
  1
1055 B&W Full Shaded Final
  2
1055B&WFinalShaded.pc3
  4
User258
  6
PS1
 40
4.995333194732666
 41
8.297393798828125
 42
4.99530029296875
 43
8.29736328125
 44
761.9576416015624
 45
1066.757690429687
 46
0.0
 47
0.0
 48
180377.877572
 49
80019.819395
140
180380.8390819999
141
80022.26069
142
1.0
143
1.0
 70
   688
 72
     0
 73
     3
 74
     5
  7
1055B&WFullFinalShaded.ctb
 75
    16
147
1.0
148
-4581114.014650871
149
-2032337.537636779
  0
PLOTSETTINGS
  5
1BD8
102
{ACAD_REACTORS
330
18
102
}
330
18
100
AcDbPlotSettings
  1
1055 B&W Half Shaded Draft
  2
1055B&WDraftShaded.pc3
  4
User607
  6
PS1
 40
0.0
 41
0.0
 42
0.0
 43
0.0
 44
901.7000122070312
 45
1155.700073242187
 46
0.0
 47
0.0
 48
180377.877572
 49
80019.819395
140
180380.8390819999
141
80022.26069
142
1.0
143
2.0
 70
   688
 72
     0
 73
     2
 74
     5
  7
1055B&WHalfDraftShaded.ctb
 75
    17
147
0.5
148
-4581114.014650871
149
-2032337.537636779
  0
PLOTSETTINGS
  5
1BD9
102
{ACAD_REACTORS
330
18
102
}
330
18
100
AcDbPlotSettings
  1
1055 B&W Half Shaded Final
  2
1055B&WFinalShaded.pc3
  4
User258
  6
PS1
 40
4.995333194732666
 41
8.297393798828125
 42
4.99530029296875
 43
8.29736328125
 44
761.9576416015624
 45
1066.757690429687
 46
0.0
 47
0.0
 48
180377.877572
 49
80019.819395
140
180380.8390819999
141
80022.26069
142
1.0
143
2.0
 70
   688
 72
     0
 73
     3
 74
     5
  7
1055B&WHalfFinalShaded.ctb
 75
    17
147
0.5
148
-4581114.014650871
149
-2032337.537636779
  0
PLOTSETTINGS
  5
1BDA
102
{ACAD_REACTORS
330
18
102
}
330
18
100
AcDbPlotSettings
  1
1055 Color Full Shaded Draft
  2
1055ColorDraftShaded.pc3
  4
User607
  6
PS1
 40
0.0
 41
0.0
 42
0.0
 43
0.0
 44
901.7000122070312
 45
1155.700073242187
 46
0.0
 47
0.0
 48
180377.877572
 49
80019.819395
140
180380.8390819999
141
80022.26069
142
1.0
143
1.0
 70
   688
 72
     0
 73
     2
 74
     5
  7
1055ColorFullDraftShaded.ctb
 75
    16
147
1.0
148
-4581114.014650871
149
-2032337.537636779
  0
PLOTSETTINGS
  5
1BDB
102
{ACAD_REACTORS
330
18
102
}
330
18
100
AcDbPlotSettings
  1
1055 Color Full Shaded Final
  2
1055ColorFinalShaded.pc3
  4
User607
  6
PS1
 40
0.0
 41
0.0
 42
0.0
 43
0.0
 44
901.7000122070312
 45
1155.700073242187
 46
0.0
 47
0.0
 48
180377.877572
 49
80019.819395
140
180380.8390819999
141
80022.26069
142
1.0
143
1.0
 70
   688
 72
     0
 73
     2
 74
     5
  7
1055ColorFullFinalShaded.ctb
 75
    16
147
1.0
148
-4581114.014650871
149
-2032337.537636779
  0
PLOTSETTINGS
  5
1BDC
102
{ACAD_REACTORS
330
18
102
}
330
18
100
AcDbPlotSettings
  1
1055 Color Half Shaded Draft
  2
1055ColorDraftShaded.pc3
  4
User607
  6
PS1
 40
0.0
 41
0.0
 42
0.0
 43
0.0
 44
901.7000122070312
 45
1155.700073242187
 46
0.0
 47
0.0
 48
180377.877572
 49
80019.819395
140
180380.8390819999
141
80022.26069
142
1.0
143
1.0
 70
   688
 72
     0
 73
     2
 74
     5
  7
1055ColorHalfDraftShaded.ctb
 75
    16
147
1.0
148
-4581114.014650871
149
-2032337.537636779
  0
PLOTSETTINGS
  5
1BDD
102
{ACAD_REACTORS
330
18
102
}
330
18
100
AcDbPlotSettings
  1
1055 Color Half Shaded Final
  2
1055ColorFinalShaded.pc3
  4
User607
  6
PS1
 40
0.0
 41
0.0
 42
0.0
 43
0.0
 44
901.7000122070312
 45
1155.700073242187
 46
0.0
 47
0.0
 48
180377.877572
 49
80019.819395
140
180380.8390819999
141
80022.26069
142
1.0
143
1.0
 70
   688
 72
     0
 73
     2
 74
     5
  7
1055ColorHalfFinalShaded.ctb
 75
    16
147
1.0
148
-4581114.014650871
149
-2032337.537636779
  0
PLOTSETTINGS
  5
1BDE
102
{ACAD_REACTORS
330
18
102
}
330
18
100
AcDbPlotSettings
  1
1055-B&W-Shaded-Draft
  2
1055B&WDraftShaded.pc3
  4
User257
  6

 40
4.995333194732666
 41
8.297393798828125
 42
4.99530029296875
 43
8.29736328125
 44
901.6152954101562
 45
1155.615356445312
 46
0.0
 47
0.0
 48
180360.0524337165
 49
80033.77936194791
140
180369.1574725906
141
80037.61796031875
142
1.0
143
1.0
 70
  1712
 72
     0
 73
     1
 74
     4
  7
1055B&WFullDraftShaded.ctb
 75
    16
147
1.0
148
-4581145.331816398
149
-2032857.995793476
  0
PLOTSETTINGS
  5
1BDF
102
{ACAD_REACTORS
330
18
102
}
330
18
100
AcDbPlotSettings
  1
1055-B&W-Shaded-Final
  2
1055B&WFinalShaded.pc3
  4
User607
  6

 40
0.0
 41
0.0
 42
0.0
 43
0.0
 44
901.7000122070312
 45
1155.700073242187
 46
0.0
 47
0.0
 48
180360.0524337165
 49
80033.77936194791
140
180369.1574725906
141
80037.61796031875
142
1.0
143
1.0
 70
  1712
 72
     0
 73
     1
 74
     4
  7
1055B&WFullFinalShaded.ctb
 75
    16
147
1.0
148
-4581145.331816398
149
-2032857.995793476
  0
PLOTSETTINGS
  5
1BE0
102
{ACAD_REACTORS
330
18
102
}
330
18
100
AcDbPlotSettings
  1
1055-Color-Shaded-Draft
  2
1055ColorDraftShaded.pc3
  4
User257
  6

 40
4.995333194732666
 41
8.297393798828125
 42
4.99530029296875
 43
8.29736328125
 44
901.6152954101562
 45
1155.615356445312
 46
0.0
 47
0.0
 48
180360.0524337165
 49
80033.77936194791
140
180369.1574725906
141
80037.61796031875
142
1.0
143
1.0
 70
  1712
 72
     0
 73
     1
 74
     4
  7
1055ColorFullDraftShaded.ctb
 75
    16
147
1.0
148
-4581145.331816398
149
-2032857.995793476
  0
PLOTSETTINGS
  5
1BE1
102
{ACAD_REACTORS
330
18
102
}
330
18
100
AcDbPlotSettings
  1
1055-Color-Shaded-Final
  2
1055ColorDraftShaded.pc3
  4
User257
  6

 40
4.995333194732666
 41
8.297393798828125
 42
4.99530029296875
 43
8.29736328125
 44
901.6152954101562
 45
1155.615356445312
 46
0.0
 47
0.0
 48
180360.0524337165
 49
80033.77936194791
140
180369.1574725906
141
80037.61796031875
142
1.0
143
1.0
 70
  1712
 72
     0
 73
     1
 74
     4
  7
1055ColorFullFinalShaded.ctb
 75
    16
147
1.0
148
-4581145.331816398
149
-2032857.995793476
  0
PLOTSETTINGS
  5
1A3F
102
{ACAD_REACTORS
330
18
102
}
330
18
100
AcDbPlotSettings
  1
1055cm B&W Shaded Draft
  2
1055B&WDraftShaded.pc3
  4
User257
  6
PS1
 40
4.995333194732666
 41
8.297393798828125
 42
4.99530029296875
 43
8.29736328125
 44
901.6152954101562
 45
1155.615356445312
 46
0.0
 47
0.0
 48
180377.877572
 49
80019.819395
140
180380.8390819999
141
80022.26069
142
1.0
143
1.0
 70
   688
 72
     0
 73
     2
 74
     3
  7
1055B&WDraftShaded.ctb
 75
    16
147
1.0
148
-4581153.377679998
149
-2032365.335819999
  0
PLOTSETTINGS
  5
1A40
102
{ACAD_REACTORS
330
18
102
}
330
18
100
AcDbPlotSettings
  1
1055cm B&W Shaded Final
  2
1055B&WFinalShaded.pc3
  4
User257
  6
PS1
 40
4.995333194732666
 41
8.297271728515625
 42
4.99530029296875
 43
8.29736328125
 44
901.6576538085937
 45
1155.657592773437
 46
0.0
 47
0.0
 48
180377.877572
 49
80019.819395
140
180380.8390819999
141
80022.26069
142
1.0
143
1.0
 70
   672
 72
     0
 73
     2
 74
     3
  7
1055B&WFinalShaded.ctb
 75
     0
147
1.0
148
-4581153.377679998
149
-2032365.335819999
  0
PLOTSETTINGS
  5
1A41
102
{ACAD_REACTORS
330
18
102
}
330
18
100
AcDbPlotSettings
  1
1055cm Color Draft
  2
1055ColorDraftShaded.pc3
  4
User257
  6
PS1
 40
4.995333194732666
 41
8.297393798828125
 42
4.99530029296875
 43
8.29736328125
 44
901.6152954101562
 45
1155.615356445312
 46
0.0
 47
0.0
 48
180377.877572
 49
80019.819395
140
180380.8390819999
141
80022.26069
142
1.0
143
1.0
 70
   688
 72
     0
 73
     2
 74
     3
  7
Color.CTB
 75
    16
147
1.0
148
-4581153.377679998
149
-2032365.335819999
  0
PLOTSETTINGS
  5
1A42
102
{ACAD_REACTORS
330
18
102
}
330
18
100
AcDbPlotSettings
  1
1055cm Color Shaded Draft
  2
1055ColorDraftShaded.pc3
  4
User257
  6
PS1
 40
4.995333194732666
 41
8.297393798828125
 42
4.99530029296875
 43
8.29736328125
 44
901.6152954101562
 45
1155.615356445312
 46
0.0
 47
0.0
 48
180377.877572
 49
80019.819395
140
180380.8390819999
141
80022.26069
142
1.0
143
1.0
 70
   688
 72
     0
 73
     2
 74
     3
  7
1055ColorDraftShaded.CTB
 75
    16
147
1.0
148
-4581153.377679998
149
-2032365.335819999
  0
PLOTSETTINGS
  5
1A43
102
{ACAD_REACTORS
330
18
102
}
330
18
100
AcDbPlotSettings
  1
1055cm Color Shaded Final
  2
1055ColorFinalShaded.pc3
  4
User257
  6
PS1
 40
4.995333194732666
 41
8.297271728515625
 42
4.99530029296875
 43
8.29736328125
 44
901.6576538085937
 45
1155.657592773437
 46
0.0
 47
0.0
 48
180377.877572
 49
80019.819395
140
180380.8390819999
141
80022.26069
142
1.0
143
1.0
 70
   688
 72
     0
 73
     2
 74
     3
  7
1055ColorFinalShaded.ctb
 75
    16
147
1.0
148
-4581153.377679998
149
-2032365.335819999
  0
PLOTSETTINGS
  5
1A44
102
{ACAD_REACTORS
330
18
102
}
330
18
100
AcDbPlotSettings
  1
1055cmB&WShadedDraft
  2
1055B&WDraftShaded.pc3
  4
User257
  6

 40
4.995333194732666
 41
8.297393798828125
 42
4.99530029296875
 43
8.29736328125
 44
901.6152954101562
 45
1155.615356445312
 46
0.0
 47
0.0
 48
180360.0524337165
 49
80033.77936194791
140
180369.1574725906
141
80037.61796031875
142
1.0
143
30.0
 70
  1712
 72
     0
 73
     1
 74
     0
  7
1055B&WDraftShaded.ctb
 75
    23
147
0.0333333333333333
148
-4580581.320935756
149
-2032339.826086972
  0
PLOTSETTINGS
  5
1A45
102
{ACAD_REACTORS
330
18
102
}
330
18
100
AcDbPlotSettings
  1
1055cmColorShadedDraft
  2
1055ColorDraftShaded.pc3
  4
User257
  6

 40
4.995333194732666
 41
8.297393798828125
 42
4.99530029296875
 43
8.29736328125
 44
901.6152954101562
 45
1155.615356445312
 46
0.0
 47
0.0
 48
180360.0524337165
 49
80033.77936194791
140
180369.1574725906
141
80037.61796031875
142
1.0
143
30.0
 70
  1712
 72
     0
 73
     1
 74
     0
  7
1055ColorDraftShaded.ctb
 75
    23
147
0.0333333333333333
148
-4580581.320935756
149
-2032339.826086972
  0
PLOTSETTINGS
  5
1A46
102
{ACAD_REACTORS
330
18
102
}
330
18
100
AcDbPlotSettings
  1
8500 B&W Shaded 11x17
  2
8500B&WShaded.pc3
  4
11x17
  6
PS1
 40
5.027083396911621
 41
5.027085304260253
 42
5.027099609375
 43
5.027069091796875
 44
279.3999938964843
 45
431.7999877929687
 46
0.0
 47
0.762
 48
180377.877572
 49
80019.819395
140
180380.8390819999
141
80022.26069
142
1.0
143
1.980353799589804
 70
   692
 72
     0
 73
     1
 74
     3
  7
8500B&WShaded.ctb
 75
     0
147
0.5049602753846977
148
-4581153.377679998
149
-2032365.335819999
  0
PLOTSETTINGS
  5
1A47
102
{ACAD_REACTORS
330
18
102
}
330
18
100
AcDbPlotSettings
  1
8500 B&W Shaded 8.5x11
  2
8500B&WShaded.pc3
  4
Letter
  6
PS1
 40
5.027083396911621
 41
5.027085304260253
 42
5.027084350585937
 43
5.027069091796875
 44
215.8999938964843
 45
279.3999938964843
 46
16.50999999999999
 47
0.0
 48
180377.877572
 49
80019.819395
140
180380.8390819999
141
80022.26069
142
1.0
143
3.089030970531291
 70
   692
 72
     0
 73
     1
 74
     3
  7
8500B&WShaded.ctb
 75
     0
147
0.3237261165523398
148
-4581153.377679998
149
-2032365.335819999
  0
PLOTSETTINGS
  5
1A48
102
{ACAD_REACTORS
330
18
102
}
330
18
100
AcDbPlotSettings
  1
8500 Color Shaded 11x17
  2
8500ColorShaded.pc3
  4
11x17
  6
PS1
 40
5.027083396911621
 41
5.027085304260253
 42
5.027099609375
 43
5.027069091796875
 44
279.3999938964843
 45
431.7999877929687
 46
0.0
 47
0.762
 48
180377.877572
 49
80019.819395
140
180380.8390819999
141
80022.26069
142
1.0
143
1.980353799589804
 70
   692
 72
     0
 73
     1
 74
     3
  7
8500ColorShaded.ctb
 75
     0
147
0.5049602753846977
148
-4581153.377679998
149
-2032365.335819999
  0
PLOTSETTINGS
  5
1A49
102
{ACAD_REACTORS
330
18
102
}
330
18
100
AcDbPlotSettings
  1
8500 Color Shaded 8.5x11
  2
8500ColorShaded.pc3
  4
Letter
  6
PS1
 40
5.027083396911621
 41
5.027085304260253
 42
5.027084350585937
 43
5.027069091796875
 44
215.8999938964843
 45
279.3999938964843
 46
16.50999999999999
 47
0.0
 48
180377.877572
 49
80019.819395
140
180380.8390819999
141
80022.26069
142
1.0
143
3.089030970531291
 70
   692
 72
     0
 73
     1
 74
     3
  7
8500ColorShaded.ctb
 75
     0
147
0.3237261165523398
148
-4581153.377679998
149
-2032365.335819999
  0
PLOTSETTINGS
  5
1BE2
102
{ACAD_REACTORS
330
18
102
}
330
18
100
AcDbPlotSettings
  1
8500-B&W-Shaded-11x17
  2
8500B&WShaded.pc3
  4
11x17
  6

 40
5.027083396911621
 41
5.027085304260253
 42
5.027099609375
 43
5.027069091796875
 44
279.3999938964843
 45
431.7999877929687
 46
0.0
 47
0.0
 48
180360.0524337165
 49
80033.77936194791
140
180369.1574725906
141
80037.61796031875
142
1.0
143
4.787622939151733
 70
  1712
 72
     0
 73
     1
 74
     0
  7
8500B&WShaded.ctb
 75
     0
147
0.2088719209322652
148
-4580581.320935756
149
-2032339.826086972
  0
PLOTSETTINGS
  5
1BE3
102
{ACAD_REACTORS
330
18
102
}
330
18
100
AcDbPlotSettings
  1
8500-B&W-Shaded-8.5x11
  2
8500B&WShaded.pc3
  4
Letter
  6

 40
5.027083396911621
 41
5.027085304260253
 42
5.027084350585937
 43
5.027069091796875
 44
215.8999938964843
 45
279.3999938964843
 46
0.0
 47
0.0
 48
180360.0524337165
 49
80033.77936194791
140
180369.1574725906
141
80037.61796031875
142
1.0
143
1.400341199009821
 70
  1712
 72
     0
 73
     1
 74
     0
  7
8500B&WShaded.ctb
 75
     0
147
0.7141116755738516
148
0.0
149
0.0
  0
PLOTSETTINGS
  5
1BE4
102
{ACAD_REACTORS
330
18
102
}
330
18
100
AcDbPlotSettings
  1
8500-Color-Shaded-11x17
  2
8500ColorShaded.pc3
  4
11x17
  6

 40
5.027083396911621
 41
5.027085304260253
 42
5.027099609375
 43
5.027069091796875
 44
279.3999938964843
 45
431.7999877929687
 46
0.0
 47
0.0
 48
180360.0524337165
 49
80033.77936194791
140
180369.1574725906
141
80037.61796031875
142
1.0
143
4.787622939151733
 70
  1712
 72
     0
 73
     1
 74
     0
  7
8500ColorShaded.ctb
 75
     0
147
0.2088719209322652
148
-4580581.320935756
149
-2032339.826086972
  0
PLOTSETTINGS
  5
1BE5
102
{ACAD_REACTORS
330
18
102
}
330
18
100
AcDbPlotSettings
  1
8500-Color-Shaded-8.5x11
  2
8500ColorShaded.pc3
  4
Letter
  6

 40
5.027083396911621
 41
5.027085304260253
 42
5.027084350585937
 43
5.027069091796875
 44
215.8999938964843
 45
279.3999938964843
 46
0.0
 47
0.0
 48
180360.0524337165
 49
80033.77936194791
140
180369.1574725906
141
80037.61796031875
142
1.0
143
1.400341199009821
 70
  1712
 72
     0
 73
     1
 74
     0
  7
8500ColorShaded.ctb
 75
     0
147
0.7141116755738516
148
0.0
149
0.0
  0
PLOTSETTINGS
  5
1A4A
102
{ACAD_REACTORS
330
18
102
}
330
18
100
AcDbPlotSettings
  1
8500B&WShaded11x17
  2
8500B&WShaded.pc3
  4
11x17
  6

 40
5.027083396911621
 41
5.027085304260253
 42
5.027099609375
 43
5.027069091796875
 44
279.3999938964843
 45
431.7999877929687
 46
0.0
 47
0.0
 48
180360.0524337165
 49
80033.77936194791
140
180369.1574725906
141
80037.61796031875
142
1.0
143
4.787622939151733
 70
  1712
 72
     0
 73
     1
 74
     0
  7
8500B&WShaded.ctb
 75
     0
147
0.2088719209322652
148
-4580581.320935756
149
-2032339.826086972
  0
PLOTSETTINGS
  5
1A4B
102
{ACAD_REACTORS
330
18
102
}
330
18
100
AcDbPlotSettings
  1
8500ColorShaded11x17
  2
8500ColorShaded.pc3
  4
11x17
  6

 40
5.027083396911621
 41
5.027085304260253
 42
5.027099609375
 43
5.027069091796875
 44
279.3999938964843
 45
431.7999877929687
 46
0.0
 47
0.0
 48
180360.0524337165
 49
80033.77936194791
140
180369.1574725906
141
80037.61796031875
142
1.0
143
4.787622939151733
 70
  1712
 72
     0
 73
     1
 74
     0
  7
8500ColorShaded.ctb
 75
     0
147
0.2088719209322652
148
-4580581.320935756
149
-2032339.826086972
  0
PLOTSETTINGS
  5
1A4C
102
{ACAD_REACTORS
330
18
102
}
330
18
100
AcDbPlotSettings
  1
Laser Jet 5 Shaded 11x17
  2
LaserJet5Shaded.pc3
  4
11x17
  6
PS1
 40
7.143749713897705
 41
5.873736858367919
 42
7.143768310546875
 43
7.14373779296875
 44
279.3999938964843
 45
431.7999877929687
 46
0.0
 47
2.54
 48
180377.877572
 49
80019.819395
140
180380.8390819999
141
80022.26069
142
1.0
143
2.011976231014692
 70
   692
 72
     0
 73
     1
 74
     3
  7
LaserJet5Shaded.ctb
 75
     0
147
0.4970237642895384
148
-4581153.377679998
149
-2032365.335819999
  0
PLOTSETTINGS
  5
1A4D
102
{ACAD_REACTORS
330
18
102
}
330
18
100
AcDbPlotSettings
  1
Laser Jet 5 Shaded 8.5x11
  2
LaserJet5Shaded.pc3
  4
Letter
  6
PS1
 40
7.143749713897705
 41
6.974400997161865
 42
7.14373779296875
 43
6.297088623046875
 44
215.8999938964843
 45
279.3999938964843
 46
15.49399999999999
 47
0.0
 48
180377.877572
 49
80019.819395
140
180380.8390819999
141
80022.26069
142
1.0
143
3.126375516456624
 70
   692
 72
     0
 73
     1
 74
     3
  7
LaserJet5Shaded.ctb
 75
     0
147
0.3198592090861117
148
-4581153.377679998
149
-2032365.335819999
  0
PLOTSETTINGS
  5
1BE6
102
{ACAD_REACTORS
330
18
102
}
330
18
100
AcDbPlotSettings
  1
LaserJet5-Shaded-11x17
  2
LaserJet5Shaded.pc3
  4
11x17
  6

 40
7.143749713897705
 41
5.873736858367919
 42
7.143768310546875
 43
7.14373779296875
 44
279.3999938964843
 45
431.7999877929687
 46
0.0
 47
0.0
 48
180360.0524337165
 49
80033.77936194791
140
180369.1574725906
141
80037.61796031875
142
1.0
143
4.864072045424008
 70
  1712
 72
     0
 73
     1
 74
     0
  7
LaserJet5Shaded.ctb
 75
     0
147
0.205589060084086
148
-4580581.320935756
149
-2032339.826086972
  0
PLOTSETTINGS
  5
1BE7
102
{ACAD_REACTORS
330
18
102
}
330
18
100
AcDbPlotSettings
  1
LaserJet5-Shaded-8.5x11
  2
LaserJet5Shaded.pc3
  4
Letter
  6

 40
7.143749713897705
 41
6.974400997161865
 42
7.14373779296875
 43
6.297088623046875
 44
215.8999938964843
 45
279.3999938964843
 46
0.0
 47
0.0
 48
180360.0524337165
 49
80033.77936194791
140
180369.1574725906
141
80037.61796031875
142
1.0
143
1.417270490660323
 70
  1712
 72
     0
 73
     1
 74
     0
  7
LaserJet5Shaded.ctb
 75
     0
147
0.7055816138061886
148
0.0
149
0.0
  0
PLOTSETTINGS
  5
1A4E
102
{ACAD_REACTORS
330
18
102
}
330
18
100
AcDbPlotSettings
  1
LaserJet5Shaded 11x17
  2
LaserJet5Shaded.pc3
  4
11x17
  6

 40
7.143749713897705
 41
5.873736858367919
 42
7.143768310546875
 43
7.14373779296875
 44
279.3999938964843
 45
431.7999877929687
 46
0.0
 47
0.0
 48
180360.0524337165
 49
80033.77936194791
140
180369.1574725906
141
80037.61796031875
142
1.0
143
4.864072045424008
 70
  1712
 72
     0
 73
     1
 74
     0
  7
LaserJet5Shaded.ctb
 75
     0
147
0.205589060084086
148
-4580581.320935756
149
-2032339.826086972
  0
ACDBPLACEHOLDER
  5
F
102
{ACAD_REACTORS
330
E
102
}
330
E
  0
DICTIONARYVAR
  5
1AE5
102
{ACAD_REACTORS
330
1AE3
102
}
330
1AE3
100
DictionaryVariables
280
     0
  1
1
  0
DICTIONARYVAR
  5
1AE4
102
{ACAD_REACTORS
330
1AE3
102
}
330
1AE3
100
DictionaryVariables
280
     0
  1
1
  0
DICTIONARYVAR
  5
1C0D
102
{ACAD_REACTORS
330
1AE3
102
}
330
1AE3
100
DictionaryVariables
280
     0
  1
1
  0
XRECORD
  5
1AE1
102
{ACAD_REACTORS
330
1AE0
102
}
330
1AE0
100
AcDbXrecord
280
     1
330
1A95
330
1A98
330
1A9B
330
1A9E
330
1AA1
330
1AA4
330
1AA7
330
0
330
1AC2
330
1AC3
330
1AC5
330
1AEA
330
1AED
330
1AF2
330
1AF5
330
1AFB
330
1AFE
330
1B01
330
1B04
330
1B08
330
1BBE
330
1BEE
330
1BEF
330
1BF1
330
1950
330
1BE9
  0
ENDSEC
  0
EOF
