  0
SECTION
  2
HEADER
  9
$ACADVER
  1
AC1015
  9
$ACADMAINTVER
 70
    13
  9
$DWGCODEPAGE
  3
ANSI_1252
  9
$INSBASE
 10
0.0
 20
0.0
 30
0.0
  9
$EXTMIN
 10
0.0
 20
0.0
 30
0.0
  9
$EXTMAX
 10
16.48999999999999
 20
10.44
 30
0.03
  9
$LIMMIN
 10
0.0
 20
0.0
  9
$LIMMAX
 10
12.0
 20
9.0
  9
$ORTHOMODE
 70
     1
  9
$REGENMODE
 70
     1
  9
$FILLMODE
 70
     1
  9
$QTEXTMODE
 70
     0
  9
$MIRRTEXT
 70
     0
  9
$LTSCALE
 40
1.0
  9
$ATTMODE
 70
     1
  9
$TEXTSIZE
 40
0.1
  9
$TRACEWID
 40
0.05
  9
$TEXTSTYLE
  7
SIMPLEX
  9
$CLAYER
  8
IMAGE
  9
$CELTYPE
  6
ByLayer
  9
$CECOLOR
 62
   256
  9
$CELTSCALE
 40
1.0
  9
$DISPSILH
 70
     0
  9
$DIMSCALE
 40
1.0
  9
$DIMASZ
 40
0.18
  9
$DIMEXO
 40
0.0625
  9
$DIMDLI
 40
0.38
  9
$DIMRND
 40
0.0
  9
$DIMDLE
 40
0.0
  9
$DIMEXE
 40
0.18
  9
$DIMTP
 40
0.0
  9
$DIMTM
 40
0.0
  9
$DIMTXT
 40
0.1
  9
$DIMCEN
 40
0.09
  9
$DIMTSZ
 40
0.0
  9
$DIMTOL
 70
     0
  9
$DIMLIM
 70
     0
  9
$DIMTIH
 70
     1
  9
$DIMTOH
 70
     1
  9
$DIMSE1
 70
     0
  9
$DIMSE2
 70
     0
  9
$DIMTAD
 70
     0
  9
$DIMZIN
 70
     0
  9
$DIMBLK
  1

  9
$DIMASO
 70
     1
  9
$DIMSHO
 70
     1
  9
$DIMPOST
  1

  9
$DIMAPOST
  1

  9
$DIMALT
 70
     0
  9
$DIMALTD
 70
     2
  9
$DIMALTF
 40
25.4
  9
$DIMLFAC
 40
1.0
  9
$DIMTOFL
 70
     0
  9
$DIMTVP
 40
0.0
  9
$DIMTIX
 70
     0
  9
$DIMSOXD
 70
     0
  9
$DIMSAH
 70
     0
  9
$DIMBLK1
  1

  9
$DIMBLK2
  1

  9
$DIMSTYLE
  2
Standard
  9
$DIMCLRD
 70
     0
  9
$DIMCLRE
 70
     0
  9
$DIMCLRT
 70
     0
  9
$DIMTFAC
 40
1.0
  9
$DIMGAP
 40
0.09
  9
$DIMJUST
 70
     0
  9
$DIMSD1
 70
     0
  9
$DIMSD2
 70
     0
  9
$DIMTOLJ
 70
     1
  9
$DIMTZIN
 70
     0
  9
$DIMALTZ
 70
     0
  9
$DIMALTTZ
 70
     0
  9
$DIMUPT
 70
     0
  9
$DIMDEC
 70
     4
  9
$DIMTDEC
 70
     4
  9
$DIMALTU
 70
     2
  9
$DIMALTTD
 70
     2
  9
$DIMTXSTY
  7
STANDARD
  9
$DIMAUNIT
 70
     0
  9
$DIMADEC
 70
     0
  9
$DIMALTRND
 40
0.0
  9
$DIMAZIN
 70
     0
  9
$DIMDSEP
 70
    46
  9
$DIMATFIT
 70
     3
  9
$DIMFRAC
 70
     0
  9
$DIMLDRBLK
  1

  9
$DIMLUNIT
 70
     2
  9
$DIMLWD
 70
    -2
  9
$DIMLWE
 70
    -2
  9
$DIMTMOVE
 70
     2
  9
$LUNITS
 70
     2
  9
$LUPREC
 70
     4
  9
$SKETCHINC
 40
0.1
  9
$FILLETRAD
 40
0.0
  9
$AUNITS
 70
     0
  9
$AUPREC
 70
     0
  9
$MENU
  1
ACAD
  9
$ELEVATION
 40
0.0
  9
$PELEVATION
 40
0.0
  9
$THICKNESS
 40
0.0
  9
$LIMCHECK
 70
     0
  9
$CHAMFERA
 40
0.0
  9
$CHAMFERB
 40
0.0
  9
$CHAMFERC
 40
0.0
  9
$CHAMFERD
 40
0.0
  9
$SKPOLY
 70
     0
  9
$TDCREATE
 40
2449646.379281481
  9
$TDUCREATE
 40
2449646.670948148
  9
$TDUPDATE
 40
2453020.555622303
  9
$TDUUPDATE
 40
2453020.847288970
  9
$TDINDWG
 40
0.2520069097
  9
$TDUSRTIMER
 40
0.2520069097
  9
$USRTIMER
 70
     1
  9
$ANGBASE
 50
0.0
  9
$ANGDIR
 70
     0
  9
$PDMODE
 70
     0
  9
$PDSIZE
 40
0.0
  9
$PLINEWID
 40
0.0
  9
$SPLFRAME
 70
     0
  9
$SPLINETYPE
 70
     6
  9
$SPLINESEGS
 70
     8
  9
$HANDSEED
  5
403
  9
$SURFTAB1
 70
     6
  9
$SURFTAB2
 70
     6
  9
$SURFTYPE
 70
     6
  9
$SURFU
 70
     6
  9
$SURFV
 70
     6
  9
$UCSBASE
  2

  9
$UCSNAME
  2

  9
$UCSORG
 10
0.0
 20
0.0
 30
0.0
  9
$UCSXDIR
 10
1.0
 20
0.0
 30
0.0
  9
$UCSYDIR
 10
0.0
 20
1.0
 30
0.0
  9
$UCSORTHOREF
  2

  9
$UCSORTHOVIEW
 70
     0
  9
$UCSORGTOP
 10
0.0
 20
0.0
 30
0.0
  9
$UCSORGBOTTOM
 10
0.0
 20
0.0
 30
0.0
  9
$UCSORGLEFT
 10
0.0
 20
0.0
 30
0.0
  9
$UCSORGRIGHT
 10
0.0
 20
0.0
 30
0.0
  9
$UCSORGFRONT
 10
0.0
 20
0.0
 30
0.0
  9
$UCSORGBACK
 10
0.0
 20
0.0
 30
0.0
  9
$PUCSBASE
  2

  9
$PUCSNAME
  2

  9
$PUCSORG
 10
0.0
 20
0.0
 30
0.0
  9
$PUCSXDIR
 10
1.0
 20
0.0
 30
0.0
  9
$PUCSYDIR
 10
0.0
 20
1.0
 30
0.0
  9
$PUCSORTHOREF
  2

  9
$PUCSORTHOVIEW
 70
     0
  9
$PUCSORGTOP
 10
0.0
 20
0.0
 30
0.0
  9
$PUCSORGBOTTOM
 10
0.0
 20
0.0
 30
0.0
  9
$PUCSORGLEFT
 10
0.0
 20
0.0
 30
0.0
  9
$PUCSORGRIGHT
 10
0.0
 20
0.0
 30
0.0
  9
$PUCSORGFRONT
 10
0.0
 20
0.0
 30
0.0
  9
$PUCSORGBACK
 10
0.0
 20
0.0
 30
0.0
  9
$USERI1
 70
     0
  9
$USERI2
 70
     0
  9
$USERI3
 70
     0
  9
$USERI4
 70
     0
  9
$USERI5
 70
     0
  9
$USERR1
 40
0.0
  9
$USERR2
 40
0.0
  9
$USERR3
 40
0.0
  9
$USERR4
 40
0.0
  9
$USERR5
 40
0.0
  9
$WORLDVIEW
 70
     1
  9
$SHADEDGE
 70
     3
  9
$SHADEDIF
 70
    70
  9
$TILEMODE
 70
     1
  9
$MAXACTVP
 70
    16
  9
$PINSBASE
 10
0.0
 20
0.0
 30
0.0
  9
$PLIMCHECK
 70
     0
  9
$PEXTMIN
 10
1.000000000000000E+20
 20
1.000000000000000E+20
 30
1.000000000000000E+20
  9
$PEXTMAX
 10
-1.000000000000000E+20
 20
-1.000000000000000E+20
 30
-1.000000000000000E+20
  9
$PLIMMIN
 10
0.0
 20
0.0
  9
$PLIMMAX
 10
12.0
 20
9.0
  9
$UNITMODE
 70
     0
  9
$VISRETAIN
 70
     0
  9
$PLINEGEN
 70
     1
  9
$PSLTSCALE
 70
     1
  9
$TREEDEPTH
 70
  3020
  9
$CMLSTYLE
  2
Standard
  9
$CMLJUST
 70
     0
  9
$CMLSCALE
 40
1.0
  9
$PROXYGRAPHICS
 70
     1
  9
$MEASUREMENT
 70
     0
  9
$CELWEIGHT
370
    -1
  9
$ENDCAPS
280
     0
  9
$JOINSTYLE
280
     0
  9
$LWDISPLAY
290
     0
  9
$INSUNITS
 70
     0
  9
$HYPERLINKBASE
  1

  9
$STYLESHEET
  1
OKIColorShaded.ctb
  9
$XEDIT
290
     1
  9
$CEPSNTYPE
380
     0
  9
$PSTYLEMODE
290
     1
  9
$FINGERPRINTGUID
  2
{CFEBD1F4-5117-4452-9446-7887B88AE272}
  9
$VERSIONGUID
  2
{83A32C86-071B-4CD9-B9E3-6C12CC8E50A6}
  9
$EXTNAMES
290
     1
  9
$PSVPSCALE
 40
0.0
  9
$OLESTARTUP
290
     0
  0
ENDSEC
  0
SECTION
  2
CLASSES
  0
CLASS
  1
ACDBDICTIONARYWDFLT
  2
AcDbDictionaryWithDefault
  3
AutoCAD 2000
 90
        0
280
     0
281
     0
  0
CLASS
  1
ACDBPLACEHOLDER
  2
AcDbPlaceHolder
  3
AutoCAD 2000
 90
        0
280
     0
281
     0
  0
CLASS
  1
LAYOUT
  2
AcDbLayout
  3
AutoCAD 2000
 90
        0
280
     0
281
     0
  0
CLASS
  1
DICTIONARYVAR
  2
AcDbDictionaryVar
  3
AutoCAD 2000
 90
        0
280
     0
281
     0
  0
CLASS
  1
PLOTSETTINGS
  2
AcDbPlotSettings
  3
AutoCAD 2000
 90
        0
280
     0
281
     0
  0
ENDSEC
  0
SECTION
  2
TABLES
  0
TABLE
  2
VPORT
  5
8
330
0
100
AcDbSymbolTable
 70
     2
  0
VPORT
  5
402
330
8
100
AcDbSymbolTableRecord
100
AcDbViewportTableRecord
  2
*Active
 70
     0
 10
0.0
 20
0.0
 11
1.0
 21
1.0
 12
8.245000038393772
 22
5.220000024307517
 13
0.0
 23
0.0
 14
0.14
 24
0.14
 15
0.14
 25
0.14
 16
0.0
 26
0.0
 36
1.0
 17
0.0
 27
0.0
 37
0.0
 40
11.0072450655855
 41
1.505548705302096
 42
50.0
 43
0.0
 44
0.0
 50
0.0
 51
0.0
 71
     0
 72
  5000
 73
     1
 74
     1
 75
     0
 76
     0
 77
     0
 78
     0
281
     0
 65
     1
110
0.0
120
0.0
130
0.0
111
1.0
121
0.0
131
0.0
112
0.0
122
1.0
132
0.0
 79
     0
146
0.0
  0
ENDTAB
  0
TABLE
  2
LTYPE
  5
5
330
0
100
AcDbSymbolTable
 70
     1
  0
LTYPE
  5
13
330
5
100
AcDbSymbolTableRecord
100
AcDbLinetypeTableRecord
  2
ByBlock
 70
     0
  3

 72
    65
 73
     0
 40
0.0
  0
LTYPE
  5
14
330
5
100
AcDbSymbolTableRecord
100
AcDbLinetypeTableRecord
  2
ByLayer
 70
     0
  3

 72
    65
 73
     0
 40
0.0
  0
LTYPE
  5
15
330
5
100
AcDbSymbolTableRecord
100
AcDbLinetypeTableRecord
  2
CONTINUOUS
 70
     0
  3
Solid line
 72
    65
 73
     0
 40
0.0
  0
ENDTAB
  0
TABLE
  2
LAYER
  5
2
330
0
100
AcDbSymbolTable
 70
    10
  0
LAYER
  5
10
330
2
100
AcDbSymbolTableRecord
100
AcDbLayerTableRecord
  2
0
 70
     0
 62
     7
  6
CONTINUOUS
370
    -3
390
F
  0
LAYER
  5
2A
330
2
100
AcDbSymbolTableRecord
100
AcDbLayerTableRecord
  2
TEXT_BUBBLES
 70
     0
 62
     6
  6
CONTINUOUS
370
    -3
390
F
  0
LAYER
  5
2B
330
2
100
AcDbSymbolTableRecord
100
AcDbLayerTableRecord
  2
IMAGE
 70
     0
 62
     7
  6
CONTINUOUS
370
    -3
390
F
  0
LAYER
  5
2E
330
2
100
AcDbSymbolTableRecord
100
AcDbLayerTableRecord
  2
TEXT_LEADERS
 70
     0
 62
    -5
  6
CONTINUOUS
370
    -3
390
F
  0
LAYER
  5
2F
330
2
100
AcDbSymbolTableRecord
100
AcDbLayerTableRecord
  2
OPTION-ADAPT-PA-8S-NP
 70
     0
 62
    -1
  6
CONTINUOUS
370
    -3
390
F
  0
LAYER
  5
30
330
2
100
AcDbSymbolTableRecord
100
AcDbLayerTableRecord
  2
OPTION-ADAPT-PA-8S
 70
     0
 62
     1
  6
CONTINUOUS
370
    -3
390
F
  0
LAYER
  5
31
330
2
100
AcDbSymbolTableRecord
100
AcDbLayerTableRecord
  2
INSTRUCT-OPTION
 70
     0
 62
     7
  6
CONTINUOUS
370
    -3
390
F
  0
LAYER
  5
32
330
2
100
AcDbSymbolTableRecord
100
AcDbLayerTableRecord
  2
INSTRUCT-CALLOUT
 70
     0
 62
     4
  6
CONTINUOUS
370
    -3
390
F
  0
LAYER
  5
35
330
2
100
AcDbSymbolTableRecord
100
AcDbLayerTableRecord
  2
OPTION-ADAPT-PA-8SPRS
 70
     0
 62
    -1
  6
CONTINUOUS
370
    -3
390
F
  0
LAYER
  5
34A
330
2
100
AcDbSymbolTableRecord
100
AcDbLayerTableRecord
  2
TITLE
 70
     0
 62
     4
  6
CONTINUOUS
370
    -3
390
F
  0
ENDTAB
  0
TABLE
  2
STYLE
  5
3
330
0
100
AcDbSymbolTable
 70
     6
  0
STYLE
  5
11
330
3
100
AcDbSymbolTableRecord
100
AcDbTextStyleTableRecord
  2
STANDARD
 70
     0
 40
0.0
 41
1.0
 50
0.0
 71
     0
 42
0.2
  3
txt
  4

  0
STYLE
  5
24
330
3
100
AcDbSymbolTableRecord
100
AcDbTextStyleTableRecord
  2
ROMANS
 70
     0
 40
0.0
 41
1.0
 50
0.0
 71
     0
 42
0.1
  3
ROMANS.SHX
  4

  0
STYLE
  5
25
330
3
100
AcDbSymbolTableRecord
100
AcDbTextStyleTableRecord
  2
SIMPLEX
 70
     0
 40
0.0
 41
1.0
 50
0.0
 71
     0
 42
0.1
  3
SIMPLEX
  4

  0
STYLE
  5
34B
330
3
100
AcDbSymbolTableRecord
100
AcDbTextStyleTableRecord
  2
L100
 70
     0
 40
0.1
 41
1.0
 50
0.0
 71
     0
 42
0.1
  3
romans.shx
  4

  0
STYLE
  5
34C
330
3
100
AcDbSymbolTableRecord
100
AcDbTextStyleTableRecord
  2
L200
 70
     0
 40
0.2
 41
1.0
 50
0.0
 71
     0
 42
0.081
  3
ARIAL.TTF
  4

1001
ACAD
1000
Arial
1071
       34
  0
STYLE
  5
34D
330
3
100
AcDbSymbolTableRecord
100
AcDbTextStyleTableRecord
  2
L80
 70
     0
 40
0.08
 41
1.0
 50
0.0
 71
     0
 42
0.08
  3
ROMANS
  4

  0
ENDTAB
  0
TABLE
  2
VIEW
  5
6
330
0
100
AcDbSymbolTable
 70
     1
  0
VIEW
  5
3DA
330
6
100
AcDbSymbolTableRecord
100
AcDbViewTableRecord
  2
PS1
 70
     0
 40
10.44
 10
8.244999999999997
 20
5.219999999999999
 41
16.48999999999999
 11
0.0
 21
0.0
 31
1.0
 12
0.0
 22
0.0
 32
0.0
 42
50.0
 43
0.0
 44
0.0
 50
0.0
 71
     0
281
     0
 72
     1
110
0.0
120
0.0
130
0.0
111
1.0
121
0.0
131
0.0
112
0.0
122
1.0
132
0.0
 79
     0
146
0.0
  0
ENDTAB
  0
TABLE
  2
UCS
  5
7
330
0
100
AcDbSymbolTable
 70
     0
  0
ENDTAB
  0
TABLE
  2
APPID
  5
9
330
0
100
AcDbSymbolTable
 70
     3
  0
APPID
  5
12
330
9
100
AcDbSymbolTableRecord
100
AcDbRegAppTableRecord
  2
ACAD
 70
     0
  0
APPID
  5
34E
330
9
100
AcDbSymbolTableRecord
100
AcDbRegAppTableRecord
  2
RAK
 70
     0
  0
APPID
  5
34F
330
9
100
AcDbSymbolTableRecord
100
AcDbRegAppTableRecord
  2
DCO15
 70
     0
  0
ENDTAB
  0
TABLE
  2
DIMSTYLE
  5
A
330
0
100
AcDbSymbolTable
 70
     1
100
AcDbDimStyleTable
 71
     0
  0
DIMSTYLE
105
33E
330
A
100
AcDbSymbolTableRecord
100
AcDbDimStyleTableRecord
  2
Standard
 70
     0
340
11
  0
ENDTAB
  0
TABLE
  2
BLOCK_RECORD
  5
1
330
0
100
AcDbSymbolTable
 70
     1
  0
BLOCK_RECORD
  5
1E
330
1
100
AcDbSymbolTableRecord
100
AcDbBlockTableRecord
  2
*Model_Space
340
21
  0
BLOCK_RECORD
  5
1A
330
1
100
AcDbSymbolTableRecord
100
AcDbBlockTableRecord
  2
*Paper_Space
340
1D
  0
BLOCK_RECORD
  5
350
330
1
100
AcDbSymbolTableRecord
100
AcDbBlockTableRecord
  2
titleblock
340
0
102
{BLKREFS
331
35F
102
}
  0
ENDTAB
  0
ENDSEC
  0
SECTION
  2
BLOCKS
  0
BLOCK
  5
39
330
1E
100
AcDbEntity
  8
0
100
AcDbBlockBegin
  2
*Model_Space
 70
     0
 10
0.0
 20
0.0
 30
0.0
  3
*Model_Space
  1

  0
ENDBLK
  5
3A
330
1E
100
AcDbEntity
  8
0
100
AcDbBlockEnd
  0
BLOCK
  5
37
330
1A
100
AcDbEntity
 67
     1
  8
0
100
AcDbBlockBegin
  2
*Paper_Space
 70
     0
 10
0.0
 20
0.0
 30
0.0
  3
*Paper_Space
  1

  0
ENDBLK
  5
38
330
1A
100
AcDbEntity
 67
     1
  8
0
100
AcDbBlockEnd
  0
BLOCK
  5
35C
330
350
100
AcDbEntity
  8
0
100
AcDbBlockBegin
  2
titleblock
 70
     2
 10
0.0
 20
0.0
 30
0.0
  3
titleblock
  1

  0
LWPOLYLINE
  5
351
330
350
100
AcDbEntity
  8
IMAGE
100
AcDbPolyline
 90
        4
 70
     1
 43
0.0
 10
0.0
 20
0.0
 10
16.48999999999999
 20
0.0000000000000001
 10
16.48999999999999
 20
10.44
 10
0.0
 20
10.44
  0
ATTDEF
  5
352
330
350
100
AcDbEntity
  8
TITLE
100
AcDbText
 10
0.5055556038023421
 20
0.7842270964783673
 30
0.0
 40
0.2
  1
D
  7
L200
 72
     4
 11
0.6064423705144839
 21
0.8842270964783672
 31
0.0
100
AcDbAttributeDefinition
  3
#
  2
D
 70
     0
  0
ATTDEF
  5
353
330
350
100
AcDbEntity
  8
TITLE
100
AcDbText
 10
1.231442370514484
 20
1.34371230274675
 30
0.0
 40
0.2
  1

  7
L200
100
AcDbAttributeDefinition
  3
DETAIL TITLE TOP LINE
  2
TITLE1
 70
     0
  0
ATTDEF
  5
354
330
350
100
AcDbEntity
  8
TITLE
100
AcDbText
 10
1.231442370514484
 20
0.9842270964783674
 30
0.0
 40
0.2
  1
TITLE
  7
L200
100
AcDbAttributeDefinition
  3
DETAIL TITLE TOP 2ND LINE
  2
TITLE2
 70
     0
  0
ATTDEF
  5
355
330
350
100
AcDbEntity
  8
TITLE
100
AcDbText
 10
2.713645751168312
 20
0.5927927664583189
 30
0.0
 40
0.2
  1
TITLE2
  7
L200
100
AcDbAttributeDefinition
  3
DETAIL TITLE BOTTOM 1
  2
TITLE3
 70
     0
  0
ATTDEF
  5
356
330
350
100
AcDbEntity
  8
TITLE
100
AcDbText
 10
2.713645751168312
 20
0.2692560808167741
 30
0.0
 40
0.2
  1

  7
L200
100
AcDbAttributeDefinition
  3
DETAIL TITLE BOTTOM 2
  2
TITLE4
 70
     0
  0
ATTDEF
  5
357
330
350
100
AcDbEntity
  8
TITLE
 62
     7
100
AcDbText
 10
8.177214829966379
 20
0.9696027915446398
 30
0.0
 40
0.08
  1
-
  7
L80
 72
     2
 11
8.261024353775903
 21
0.9696027915446398
 31
0.0
100
AcDbAttributeDefinition
  3
REVISION DATE
  2
REVISED
 70
     0
  0
ATTDEF
  5
358
330
350
100
AcDbEntity
  8
TITLE
 62
     7
100
AcDbText
 10
0.2639423705144838
 20
0.0847116480207214
 30
0.0
 40
0.08
  1
-
  7
L80
100
AcDbAttributeDefinition
  3
DWG-NAME
  2
DWG-NAME
 70
     0
  0
LWPOLYLINE
  5
359
330
350
100
AcDbEntity
  8
TITLE
 62
     3
100
AcDbPolyline
 90
        2
 70
     1
 43
0.03
 10
0.6064423705144839
 20
0.5417270964783675
 42
0.9999999999999998
 10
0.6064423705144839
 20
1.226727096478367
 42
0.9999999999999998
  0
ATTDEF
  5
35A
330
350
100
AcDbEntity
  8
TITLE
 62
     7
100
AcDbText
 10
1.231442370514484
 20
0.7005637793954894
 30
0.0
 40
0.1
  1
N.T.S.
  7
L100
100
AcDbAttributeDefinition
  3
SCALE
  2
SCALE
 70
     0
  0
LWPOLYLINE
  5
35B
330
350
100
AcDbEntity
  8
TITLE
 62
     3
100
AcDbPolyline
 90
        2
 70
     0
 43
0.04
 39
0.03
 10
0.9489423705144833
 20
0.8842270964783672
 10
8.261024353775903
 20
0.8842270964783672
  0
ENDBLK
  5
35D
330
350
100
AcDbEntity
  8
0
100
AcDbBlockEnd
  0
ENDSEC
  0
SECTION
  2
ENTITIES
  0
TEXT
  5
E0
330
1E
100
AcDbEntity
  8
TEXT_BUBBLES
100
AcDbText
 10
4.588362519113744
 20
5.929098772953555
 30
0.0
 40
0.10000000149
  1

  7
ROMANS
100
AcDbText
  0
TEXT
  5
E2
330
1E
100
AcDbEntity
  8
TEXT_BUBBLES
100
AcDbText
 10
4.588362519113744
 20
3.755036997746555
 30
0.0
 40
0.10000000149
  1

  7
ROMANS
100
AcDbText
  0
TEXT
  5
E3
330
1E
100
AcDbEntity
  8
TEXT_BUBBLES
100
AcDbText
 10
4.588362519113744
 20
5.618518519352554
 30
0.0
 40
0.10000000149
  1

  7
ROMANS
100
AcDbText
  0
TEXT
  5
E4
330
1E
100
AcDbEntity
  8
TEXT_BUBBLES
100
AcDbText
 10
16.90309906005899
 20
1.433911323547
 30
0.0
 40
0.10000000149
  1

  7
ROMANS
100
AcDbText
  0
TEXT
  5
E5
330
1E
100
AcDbEntity
  8
TEXT_BUBBLES
100
AcDbText
 10
16.90309906005899
 20
0.968012332916
 30
0.0
 40
0.10000000149
  1

  7
ROMANS
100
AcDbText
  0
TEXT
  5
E6
330
1E
100
AcDbEntity
  8
TEXT_BUBBLES
100
AcDbText
 10
16.90309906005899
 20
1.12331199646
 30
0.0
 40
0.10000000149
  1

  7
ROMANS
100
AcDbText
  0
TEXT
  5
E7
330
1E
100
AcDbEntity
  8
TEXT_BUBBLES
100
AcDbText
 10
16.90309906005899
 20
1.744510650635
 30
0.0
 40
0.10000000149
  1

  7
ROMANS
100
AcDbText
  0
TEXT
  5
E8
330
1E
100
AcDbEntity
  8
TEXT_BUBBLES
100
AcDbText
 10
16.90309906005899
 20
2.521008968353
 30
0.0
 40
0.10000000149
  1

  7
ROMANS
100
AcDbText
  0
TEXT
  5
E9
330
1E
100
AcDbEntity
  8
TEXT_BUBBLES
100
AcDbText
 10
16.90309906005899
 20
2.986907958984
 30
0.0
 40
0.10000000149
  1

  7
ROMANS
100
AcDbText
  0
TEXT
  5
EA
330
1E
100
AcDbEntity
  8
TEXT_BUBBLES
100
AcDbText
 10
16.90309906005899
 20
2.831608295440999
 30
0.0
 40
0.10000000149
  1

  7
ROMANS
100
AcDbText
  0
TEXT
  5
EB
330
1E
100
AcDbEntity
  8
TEXT_BUBBLES
100
AcDbText
 10
4.588362519113744
 20
3.133876490543554
 30
0.0
 40
0.10000000149
  1

  7
ROMANS
100
AcDbText
  0
TEXT
  5
EC
330
1E
100
AcDbEntity
  8
TEXT_BUBBLES
100
AcDbText
 10
16.90309906005899
 20
2.210409641266
 30
0.0
 40
0.10000000149
  1

  7
ROMANS
100
AcDbText
  0
TEXT
  5
ED
330
1E
100
AcDbEntity
  8
TEXT_BUBBLES
100
AcDbText
 10
16.90309906005899
 20
2.055109977722
 30
0.0
 40
0.10000000149
  1

  7
ROMANS
100
AcDbText
  0
TEXT
  5
EE
330
1E
100
AcDbEntity
  8
TEXT_BUBBLES
100
AcDbText
 10
4.588362519113744
 20
4.842067885349554
 30
0.0
 40
0.10000000149
  1

  7
ROMANS
100
AcDbText
  0
TEXT
  5
EF
330
1E
100
AcDbEntity
  8
TEXT_BUBBLES
100
AcDbText
 10
4.588362519113744
 20
6.394969153355554
 30
0.0
 40
0.10000000149
  1

  7
ROMANS
100
AcDbText
  0
TEXT
  5
F0
330
1E
100
AcDbEntity
  8
TEXT_BUBBLES
100
AcDbText
 10
4.588362519113744
 20
5.152648138950555
 30
0.0
 40
0.10000000149
  1

  7
ROMANS
100
AcDbText
  0
TEXT
  5
F1
330
1E
100
AcDbEntity
  8
TEXT_BUBBLES
100
AcDbText
 10
4.588362519113744
 20
4.065617251347554
 30
0.0
 40
0.10000000149
  1

  7
ROMANS
100
AcDbText
  0
TEXT
  5
F2
330
1E
100
AcDbEntity
  8
TEXT_BUBBLES
100
AcDbText
 10
4.588362519113744
 20
3.444456744145555
 30
0.0
 40
0.10000000149
  1

  7
ROMANS
100
AcDbText
  0
LINE
  5
F4
330
1E
100
AcDbEntity
  8
IMAGE
100
AcDbLine
 10
1.195266219182559
 20
4.434722531517663
 30
0.0
 11
1.845794055721632
 21
4.434722531517663
 31
0.0
  0
LINE
  5
F5
330
1E
100
AcDbEntity
  8
IMAGE
100
AcDbLine
 10
1.195266219182564
 20
4.434722531517663
 30
0.0
 11
0.3359238089937453
 21
4.434722531517663
 31
0.0
  0
TEXT
  5
F6
330
1E
100
AcDbEntity
  8
TEXT_LEADERS
100
AcDbText
 10
5.274613407806193
 20
4.823273011723118
 30
0.0
 40
0.125
  1
FINISH GRADE/TOP OF MULCH
  7
SIMPLEX
100
AcDbText
  0
LWPOLYLINE
  5
F8
330
1E
100
AcDbEntity
  8
IMAGE
100
AcDbPolyline
 90
        4
 70
     1
 43
0.0
 10
1.833267130215664
 20
3.06882360741603
 10
1.833267130215664
 20
3.206596820488058
 10
2.034003095450183
 20
3.206596820488058
 10
2.034003095450183
 20
3.06882360741603
  0
LINE
  5
FE
330
1E
100
AcDbEntity
  8
IMAGE
100
AcDbLine
 10
1.863543839580346
 20
3.230659510098577
 30
0.0
 11
2.005542113567269
 21
3.230670029571083
 31
0.0
  0
LINE
  5
FF
330
1E
100
AcDbEntity
  8
IMAGE
100
AcDbLine
 10
1.845794055721632
 20
3.254559214423241
 30
0.0
 11
2.023291894308784
 21
3.254559214423241
 31
0.0
  0
LINE
  5
100
330
1E
100
AcDbEntity
  8
IMAGE
100
AcDbLine
 10
1.845794055721632
 20
3.206596820488059
 30
0.0
 11
1.845794055721632
 21
4.434722531517663
 31
0.0
  0
LINE
  5
101
330
1E
100
AcDbEntity
  8
IMAGE
100
AcDbLine
 10
2.023291894308784
 20
3.206596820488059
 30
0.0
 11
2.023291894308784
 21
4.434722531517663
 31
0.0
  0
LINE
  5
102
330
1E
100
AcDbEntity
  8
OPTION-ADAPT-PA-8S-NP
100
AcDbLine
 10
1.863543441718739
 20
5.362324164160603
 30
0.0
 11
2.005541715705662
 21
5.362334683633108
 31
0.0
  0
LINE
  5
103
330
1E
100
AcDbEntity
  8
OPTION-ADAPT-PA-8S-NP
100
AcDbLine
 10
1.845793657860024
 20
5.333445354768298
 30
0.0
 11
2.023291496447177
 21
5.333445354768298
 31
0.0
  0
LINE
  5
104
330
1E
100
AcDbEntity
  8
IMAGE
100
AcDbLine
 10
1.847527048516317
 20
5.637165263312875
 30
0.0
 11
2.021558901514096
 21
5.637165263312875
 31
0.0
  0
LINE
  5
105
330
1E
100
AcDbEntity
  8
IMAGE
100
AcDbLine
 10
2.013771077275866
 20
5.637165263312875
 30
0.0
 11
2.013771077275866
 21
5.491559835148991
 31
0.0
  0
TEXT
  5
106
330
1E
100
AcDbEntity
  8
TEXT_LEADERS
100
AcDbText
 10
5.274613407806193
 20
4.473273011723119
 30
0.0
 40
0.125
  1
UV RADIATION RESISTANT
  7
SIMPLEX
100
AcDbText
  0
LINE
  5
107
330
1E
100
AcDbEntity
  8
IMAGE
100
AcDbLine
 10
1.842729809735702
 20
3.06882360741603
 30
0.0
 11
1.842729809735702
 21
2.881600764944865
 31
0.0
  0
LINE
  5
108
330
1E
100
AcDbEntity
  8
IMAGE
100
AcDbLine
 10
2.02071648798988
 20
3.06882360741603
 30
0.0
 11
2.02071648798988
 21
3.058050022014349
 31
0.0
  0
ARC
  5
109
330
1E
100
AcDbEntity
  8
IMAGE
100
AcDbCircle
 10
2.070775241248868
 20
3.058050022014349
 30
0.0
 40
0.0500587532589879
100
AcDbArc
 50
180.0
 51
270.0
  0
LINE
  5
10A
330
1E
100
AcDbEntity
  8
IMAGE
100
AcDbLine
 10
2.151363508002714
 20
3.007991268755368
 30
0.0
 11
2.070775241248868
 21
3.007991268755363
 31
0.0
  0
LINE
  5
10B
330
1E
100
AcDbEntity
  8
IMAGE
100
AcDbLine
 10
2.150578446721775
 20
2.83154201168588
 30
0.0
 11
1.892788562994693
 21
2.83154201168588
 31
0.0
  0
LWPOLYLINE
  5
10C
330
1E
100
AcDbEntity
  8
IMAGE
100
AcDbPolyline
 90
        3
 70
     0
 43
0.0
 10
1.895072235285729
 20
2.835808293541612
 42
0.3551655385017884
 10
1.992995507330664
 20
2.920630147939733
 42
-0.3351985284943452
 10
2.063968994910742
 20
3.004865289906252
 42
-0.5949761929811071
  0
ARC
  5
111
330
1E
100
AcDbEntity
  8
IMAGE
100
AcDbCircle
 10
1.892788562994693
 20
2.881600764944865
 30
0.0
 40
0.0500587532589879
100
AcDbArc
 50
180.0
 51
270.0
  0
LINE
  5
112
330
1E
100
AcDbEntity
  8
IMAGE
100
AcDbLine
 10
2.150581083452286
 20
2.810317562330169
 30
0.0
 11
2.151437925986308
 21
3.026792415311325
 31
0.0
  0
ARC
  5
113
330
1E
100
AcDbEntity
  8
IMAGE
100
AcDbCircle
 10
2.239998860939233
 20
-0.3566815106128338
 30
0.0
 40
3.16826114248061
100
AcDbArc
 50
61.49072909609822
 51
91.61727251044187
  0
ARC
  5
114
330
1E
100
AcDbEntity
  8
IMAGE
100
AcDbCircle
 10
2.243620999302108
 20
-0.3326762456756391
 30
0.0
 40
3.360733164528165
100
AcDbArc
 50
61.30701558492705
 51
91.57178904497754
  0
LWPOLYLINE
  5
115
330
1E
100
AcDbEntity
  8
IMAGE
100
AcDbPolyline
 90
        4
 70
     0
 43
0.0
 10
1.235538695074665
 20
2.559922362420703
 42
0.5107053858875276
 10
1.235538695074655
 20
2.449758680265453
 42
-0.5107053858875159
 10
1.235538695074665
 20
2.342689384496279
 42
-0.5397302473450178
 10
1.233483752677503
 20
2.451305873458488
 42
-0.5397302473450178
  0
TEXT
  5
11B
330
1E
100
AcDbEntity
  8
TEXT_LEADERS
100
AcDbText
 10
5.274613407806193
 20
1.751377803656772
 30
0.0
 40
0.125
  1
PVC LATERAL PIPE
  7
SIMPLEX
100
AcDbText
  0
TEXT
  5
11C
330
1E
100
AcDbEntity
  8
TEXT_LEADERS
100
AcDbText
 10
4.674910068512
 20
1.118389844893999
 30
0.0
 40
0.10000000149
  1

  7
SIMPLEX
100
AcDbText
  0
TEXT
  5
11D
330
1E
100
AcDbEntity
  8
TEXT_LEADERS
100
AcDbText
 10
5.274613407806193
 20
3.123243162029779
 30
0.0
 40
0.125
  1
SWING PIPE, 12-INCH LENGTH:
  7
SIMPLEX
100
AcDbText
  0
TEXT
  5
11E
330
1E
100
AcDbEntity
  8
TEXT_LEADERS
100
AcDbText
 10
5.274613407806193
 20
2.948243162029779
 30
0.0
 40
0.125
  1
  RAIN BIRD MODEL SP-100
  7
SIMPLEX
100
AcDbText
  0
ARC
  5
11F
330
1E
100
AcDbEntity
  8
IMAGE
100
AcDbCircle
 10
3.925348861934771
 20
2.453323365886706
 30
0.0
 40
0.116211661910035
100
AcDbArc
 50
202.3302578892593
 51
100.5273986155574
  0
ARC
  5
120
330
1E
100
AcDbEntity
  8
IMAGE
100
AcDbCircle
 10
3.925348861934771
 20
2.453323365886706
 30
0.0
 40
0.0899305478958117
100
AcDbArc
 50
234.4756814862676
 51
62.64469113840124
  0
LINE
  5
121
330
1E
100
AcDbEntity
  8
IMAGE
100
AcDbLine
 10
3.971970420228141
 20
2.530546512370581
 30
0.0
 11
3.847675627919552
 21
2.598382282462047
 31
0.0
  0
LINE
  5
122
330
1E
100
AcDbEntity
  8
IMAGE
100
AcDbLine
 10
3.881635806649151
 20
2.374852474159137
 30
0.0
 11
3.760153744265509
 21
2.440212110490771
 31
0.0
  0
LINE
  5
123
330
1E
100
AcDbEntity
  8
IMAGE
100
AcDbLine
 10
3.601143299187635
 20
2.342689384496279
 30
0.0
 11
1.235538695074665
 21
2.342689384496279
 31
0.0
  0
LINE
  5
124
330
1E
100
AcDbEntity
  8
IMAGE
100
AcDbLine
 10
3.477456138892018
 20
2.559922362420703
 30
0.0
 11
1.235538695074665
 21
2.559922362420703
 31
0.0
  0
LWPOLYLINE
  5
125
330
1E
100
AcDbEntity
  8
IMAGE
100
AcDbPolyline
 90
        4
 70
     0
 43
0.0
 10
4.546232830672735
 20
2.559922362420703
 42
-0.5107053858875276
 10
4.546232830672745
 20
2.449758680265453
 42
0.5107053858875159
 10
4.546232830672735
 20
2.342689384496279
 42
0.5397302473450178
 10
4.548287773069897
 20
2.451305873458488
 42
0.5397302473450178
  0
LINE
  5
12C
330
1E
100
AcDbEntity
  8
IMAGE
100
AcDbLine
 10
4.246396798391502
 20
2.559922362420703
 30
0.0
 11
4.546232830672735
 21
2.559922362420703
 31
0.0
  0
LINE
  5
12D
330
1E
100
AcDbEntity
  8
IMAGE
100
AcDbLine
 10
3.925348861934771
 20
2.453323365886706
 30
0.0
 11
3.864174964376188
 21
2.425585070544411
 31
0.0
  0
LINE
  5
12E
330
1E
100
AcDbEntity
  8
IMAGE
100
AcDbLine
 10
3.915008131619642
 20
2.522996549376336
 30
0.0
 11
3.925348861934771
 21
2.453323365886706
 31
0.0
  0
LINE
  5
12F
330
1E
100
AcDbEntity
  8
IMAGE
100
AcDbLine
 10
3.601143299187635
 20
2.504291136089331
 30
0.0
 11
3.601143299187635
 21
2.298871689729283
 31
0.0
  0
LINE
  5
130
330
1E
100
AcDbEntity
  8
IMAGE
100
AcDbLine
 10
3.601143299187635
 20
2.298871689729283
 30
0.0
 11
4.246396798391502
 21
2.298871689729283
 31
0.0
  0
LINE
  5
131
330
1E
100
AcDbEntity
  8
IMAGE
100
AcDbLine
 10
4.246396798391502
 20
2.298871689729283
 30
0.0
 11
4.246396798391502
 21
2.607369747975271
 31
0.0
  0
LINE
  5
132
330
1E
100
AcDbEntity
  8
IMAGE
100
AcDbLine
 10
3.752212925100358
 20
2.427395947200766
 30
0.0
 11
3.857163071274885
 21
2.615375549176904
 31
0.0
  0
LINE
  5
133
330
1E
100
AcDbEntity
  8
IMAGE
100
AcDbLine
 10
4.246396798391502
 20
2.607369747975271
 30
0.0
 11
3.852693384151797
 21
2.607369747975265
 31
0.0
  0
TEXT
  5
134
330
1E
100
AcDbEntity
  8
TEXT_LEADERS
100
AcDbText
 10
5.274613407806193
 20
3.626112130960418
 30
0.0
 40
0.125
  1
  0.490-INCH BARB ELBOW:
  7
SIMPLEX
100
AcDbText
  0
TEXT
  5
135
330
1E
100
AcDbEntity
  8
TEXT_LEADERS
100
AcDbText
 10
5.274613407806193
 20
3.801112130960418
 30
0.0
 40
0.125
  1
1/2-INCH FEMALE NPT x
  7
SIMPLEX
100
AcDbText
  0
TEXT
  5
136
330
1E
100
AcDbEntity
  8
TEXT_LEADERS
100
AcDbText
 10
5.274613407806193
 20
3.451112130960418
 30
0.0
 40
0.125
  1
  RAIN BIRD MODEL SBFE-050
  7
SIMPLEX
100
AcDbText
  0
TEXT
  5
137
330
1E
100
AcDbEntity
  8
TEXT_LEADERS
100
AcDbText
 10
4.674910068512
 20
1.906340003014
 30
0.0
 40
0.10000000149
  1

  7
SIMPLEX
100
AcDbText
  0
TEXT
  5
138
330
1E
100
AcDbEntity
  8
TEXT_LEADERS
100
AcDbText
 10
5.274613407806193
 20
2.470912246505822
 30
0.0
 40
0.125
  1
  x .490-INCH BARB ELBOW:
  7
SIMPLEX
100
AcDbText
  0
TEXT
  5
139
330
1E
100
AcDbEntity
  8
TEXT_LEADERS
100
AcDbText
 10
5.274613407806193
 20
5.351860059999999
 30
0.0
 40
0.125
  1
PLANT MATERIAL
  7
SIMPLEX
100
AcDbText
  0
TEXT
  5
13A
330
1E
100
AcDbEntity
  8
TEXT_LEADERS
100
AcDbText
 10
5.274613407806193
 20
4.29827301172312
 30
0.0
 40
0.125
  1
  PVC SCH 80 NIPPLE
  7
SIMPLEX
100
AcDbText
  0
ARC
  5
13B
330
1E
100
AcDbEntity
  8
IMAGE
100
AcDbCircle
 10
3.072666023557424
 20
4.912386653355842
 30
0.0
 40
0.1738489379910888
100
AcDbArc
 50
116.0563205359582
 51
205.2549940243739
  0
ARC
  5
13C
330
1E
100
AcDbEntity
  8
IMAGE
100
AcDbCircle
 10
2.83907000525157
 20
4.994393827749086
 30
0.0
 40
0.1738489379910888
100
AcDbArc
 50
296.0563205359582
 51
25.2549940243739
  0
ARC
  5
13D
330
1E
100
AcDbEntity
  8
IMAGE
100
AcDbCircle
 10
2.918468962806982
 20
5.285705547932645
 30
0.0
 40
0.1738489379910888
100
AcDbArc
 50
116.0563205359582
 51
205.2549940243739
  0
ARC
  5
13E
330
1E
100
AcDbEntity
  8
IMAGE
100
AcDbCircle
 10
2.684872944501128
 20
5.367712722325888
 30
0.0
 40
0.1738489379910888
100
AcDbArc
 50
296.0563205359582
 51
25.2549940243739
  0
ARC
  5
13F
330
1E
100
AcDbEntity
  8
IMAGE
100
AcDbCircle
 10
2.85354388459627
 20
5.070641402143834
 30
0.0
 40
0.1738489379910888
100
AcDbArc
 50
116.0563205359582
 51
205.2549940243739
  0
ARC
  5
140
330
1E
100
AcDbEntity
  8
IMAGE
100
AcDbCircle
 10
2.619947866290416
 20
5.152648576537078
 30
0.0
 40
0.1738489379910888
100
AcDbArc
 50
296.0563205359582
 51
25.2549940243739
  0
ARC
  5
141
330
1E
100
AcDbEntity
  8
IMAGE
100
AcDbCircle
 10
3.210631814755188
 20
4.83528818599759
 30
0.0
 40
0.1738489379910888
100
AcDbArc
 50
116.0563205359582
 51
205.2549940243739
  0
ARC
  5
142
330
1E
100
AcDbEntity
  8
IMAGE
100
AcDbCircle
 10
2.977035796449336
 20
4.917295360390833
 30
0.0
 40
0.1738489379910888
100
AcDbArc
 50
296.0563205359582
 51
25.2549940243739
  0
ARC
  5
143
330
1E
100
AcDbEntity
  8
IMAGE
100
AcDbCircle
 10
2.74804063250386
 20
4.729785020138928
 30
0.0
 40
0.1738489379910888
100
AcDbArc
 50
116.0563205359582
 51
205.2549940243739
  0
ARC
  5
144
330
1E
100
AcDbEntity
  8
IMAGE
100
AcDbCircle
 10
2.514444614198007
 20
4.811792194532171
 30
0.0
 40
0.1738489379910888
100
AcDbArc
 50
296.0563205359582
 51
25.2549940243739
  0
ARC
  5
145
330
1E
100
AcDbEntity
  8
IMAGE
100
AcDbCircle
 10
2.772387536832878
 20
4.559356829136474
 30
0.0
 40
0.1738489379910888
100
AcDbArc
 50
116.0563205359582
 51
205.2549940243739
  0
ARC
  5
146
330
1E
100
AcDbEntity
  8
IMAGE
100
AcDbCircle
 10
2.538791518527024
 20
4.641364003529717
 30
0.0
 40
0.1738489379910888
100
AcDbArc
 50
296.0563205359582
 51
25.2549940243739
  0
ARC
  5
147
330
1E
100
AcDbEntity
  8
IMAGE
100
AcDbCircle
 10
2.959047136688678
 20
4.737900648281901
 30
0.0
 40
0.1738489379910888
100
AcDbArc
 50
116.0563205359582
 51
205.2549940243739
  0
ARC
  5
148
330
1E
100
AcDbEntity
  8
IMAGE
100
AcDbCircle
 10
2.725451118382824
 20
4.819907822675145
 30
0.0
 40
0.1738489379910888
100
AcDbArc
 50
296.0563205359582
 51
25.2549940243739
  0
ARC
  5
149
330
1E
100
AcDbEntity
  8
IMAGE
100
AcDbCircle
 10
3.252821251063947
 20
4.587317386824211
 30
0.0
 40
0.1738489379910888
100
AcDbArc
 50
143.5307656099477
 51
232.7294390983634
  0
ARC
  5
14A
330
1E
100
AcDbEntity
  8
IMAGE
100
AcDbCircle
 10
3.007736712808458
 20
4.55230530993057
 30
0.0
 40
0.1738489379910888
100
AcDbArc
 50
323.5307656099477
 51
52.72943909836341
  0
ARC
  5
14B
330
1E
100
AcDbEntity
  8
IMAGE
100
AcDbCircle
 10
3.301648102915034
 20
5.349016275701204
 30
0.0
 40
0.1738489379910888
100
AcDbArc
 50
143.5307656099477
 51
232.7294390983634
  0
ARC
  5
14C
330
1E
100
AcDbEntity
  8
IMAGE
100
AcDbCircle
 10
3.056563564659548
 20
5.314004198807563
 30
0.0
 40
0.1738489379910888
100
AcDbArc
 50
323.5307656099477
 51
52.72943909836341
  0
ARC
  5
14D
330
1E
100
AcDbEntity
  8
IMAGE
100
AcDbCircle
 10
2.500887732557171
 20
5.173239609037283
 30
0.0
 40
0.1738489379910888
100
AcDbArc
 50
143.5307656099477
 51
232.7294390983634
  0
ARC
  5
14E
330
1E
100
AcDbEntity
  8
IMAGE
100
AcDbCircle
 10
2.255803194301681
 20
5.138227532143642
 30
0.0
 40
0.1738489379910888
100
AcDbArc
 50
323.5307656099477
 51
52.72943909836341
  0
ARC
  5
14F
330
1E
100
AcDbEntity
  8
IMAGE
100
AcDbCircle
 10
2.520418473297606
 20
4.577552016453992
 30
0.0
 40
0.1738489379910888
100
AcDbArc
 50
143.5307656099477
 51
232.7294390983634
  0
ARC
  5
150
330
1E
100
AcDbEntity
  8
IMAGE
100
AcDbCircle
 10
2.275333935042118
 20
4.542539939560352
 30
0.0
 40
0.1738489379910888
100
AcDbArc
 50
323.5307656099477
 51
52.72943909836341
  0
ARC
  5
151
330
1E
100
AcDbEntity
  8
IMAGE
100
AcDbCircle
 10
2.608306806629567
 20
4.968166831262707
 30
0.0
 40
0.1738489379910888
100
AcDbArc
 50
143.5307656099477
 51
232.7294390983634
  0
ARC
  5
152
330
1E
100
AcDbEntity
  8
IMAGE
100
AcDbCircle
 10
2.363222268374078
 20
4.933154754369067
 30
0.0
 40
0.1738489379910888
100
AcDbArc
 50
323.5307656099477
 51
52.72943909836341
  0
ARC
  5
153
330
1E
100
AcDbEntity
  8
IMAGE
100
AcDbCircle
 10
2.764552732553053
 20
5.104882016445757
 30
0.0
 40
0.1738489379910888
100
AcDbArc
 50
143.5307656099477
 51
232.7294390983634
  0
ARC
  5
154
330
1E
100
AcDbEntity
  8
IMAGE
100
AcDbCircle
 10
2.519468194297565
 20
5.069869939552117
 30
0.0
 40
0.1738489379910888
100
AcDbArc
 50
323.5307656099477
 51
52.72943909836341
  0
ARC
  5
155
330
1E
100
AcDbEntity
  8
IMAGE
100
AcDbCircle
 10
3.116106065880897
 20
5.251362571999025
 30
0.0
 40
0.1738489379910888
100
AcDbArc
 50
143.5307656099477
 51
232.7294390983634
  0
ARC
  5
156
330
1E
100
AcDbEntity
  8
IMAGE
100
AcDbCircle
 10
2.871021527625408
 20
5.216350495105385
 30
0.0
 40
0.1738489379910888
100
AcDbArc
 50
323.5307656099477
 51
52.72943909836341
  0
ARC
  5
157
330
1E
100
AcDbEntity
  8
IMAGE
100
AcDbCircle
 10
3.067279214029807
 20
5.153708868296846
 30
0.0
 40
0.1738489379910888
100
AcDbArc
 50
143.5307656099477
 51
232.7294390983634
  0
ARC
  5
158
330
1E
100
AcDbEntity
  8
IMAGE
100
AcDbCircle
 10
2.822194675774317
 20
5.118696791403206
 30
0.0
 40
0.1738489379910888
100
AcDbArc
 50
323.5307656099477
 51
52.72943909836341
  0
ARC
  5
159
330
1E
100
AcDbEntity
  8
IMAGE
100
AcDbCircle
 10
2.989156251068063
 20
4.977932201632925
 30
0.0
 40
0.1738489379910888
100
AcDbArc
 50
143.5307656099477
 51
232.7294390983634
  0
ARC
  5
15A
330
1E
100
AcDbEntity
  8
IMAGE
100
AcDbCircle
 10
2.744071712812576
 20
4.942920124739285
 30
0.0
 40
0.1738489379910888
100
AcDbArc
 50
323.5307656099477
 51
52.72943909836341
  0
ARC
  5
15B
330
1E
100
AcDbEntity
  8
IMAGE
100
AcDbCircle
 10
2.852441065885013
 20
4.733797942377478
 30
0.0
 40
0.1738489379910888
100
AcDbArc
 50
143.5307656099477
 51
232.7294390983634
  0
ARC
  5
15C
330
1E
100
AcDbEntity
  8
IMAGE
100
AcDbCircle
 10
2.607356527629526
 20
4.698785865483839
 30
0.0
 40
0.1738489379910888
100
AcDbArc
 50
323.5307656099477
 51
52.72943909836341
  0
ARC
  5
15D
330
1E
100
AcDbEntity
  8
IMAGE
100
AcDbCircle
 10
2.647368288110439
 20
4.577552016453992
 30
0.0
 40
0.1738489379910888
100
AcDbArc
 50
143.5307656099477
 51
232.7294390983634
  0
ARC
  5
15E
330
1E
100
AcDbEntity
  8
IMAGE
100
AcDbCircle
 10
2.40228374985495
 20
4.542539939560352
 30
0.0
 40
0.1738489379910888
100
AcDbArc
 50
323.5307656099477
 51
52.72943909836341
  0
ARC
  5
15F
330
1E
100
AcDbEntity
  8
IMAGE
100
AcDbCircle
 10
2.969625510327627
 20
4.558021275713556
 30
0.0
 40
0.1738489379910888
100
AcDbArc
 50
143.5307656099477
 51
232.7294390983634
  0
ARC
  5
160
330
1E
100
AcDbEntity
  8
IMAGE
100
AcDbCircle
 10
2.724540972072139
 20
4.523009198819917
 30
0.0
 40
0.1738489379910888
100
AcDbArc
 50
323.5307656099477
 51
52.72943909836341
  0
ARC
  5
161
330
1E
100
AcDbEntity
  8
IMAGE
100
AcDbCircle
 10
3.145402176991549
 20
4.616613497934864
 30
0.0
 40
0.1738489379910888
100
AcDbArc
 50
143.5307656099477
 51
232.7294390983634
  0
ARC
  5
162
330
1E
100
AcDbEntity
  8
IMAGE
100
AcDbCircle
 10
2.900317638736061
 20
4.581601421041224
 30
0.0
 40
0.1738489379910888
100
AcDbArc
 50
323.5307656099477
 51
52.72943909836341
  0
ARC
  5
163
330
1E
100
AcDbEntity
  8
IMAGE
100
AcDbCircle
 10
3.301648102915034
 20
4.968166831262707
 30
0.0
 40
0.1738489379910888
100
AcDbArc
 50
143.5307656099477
 51
232.7294390983634
  0
ARC
  5
164
330
1E
100
AcDbEntity
  8
IMAGE
100
AcDbCircle
 10
3.056563564659548
 20
4.933154754369067
 30
0.0
 40
0.1738489379910888
100
AcDbArc
 50
323.5307656099477
 51
52.72943909836341
  0
ARC
  5
165
330
1E
100
AcDbEntity
  8
IMAGE
100
AcDbCircle
 10
3.008686991808501
 20
5.280658683109678
 30
0.0
 40
0.1738489379910888
100
AcDbArc
 50
143.5307656099477
 51
232.7294390983634
  0
ARC
  5
166
330
1E
100
AcDbEntity
  8
IMAGE
100
AcDbCircle
 10
2.763602453553011
 20
5.245646606216038
 30
0.0
 40
0.1738489379910888
100
AcDbArc
 50
323.5307656099477
 51
52.72943909836341
  0
ARC
  5
167
330
1E
100
AcDbEntity
  8
IMAGE
100
AcDbCircle
 10
3.294216297333858
 20
4.790680945021895
 30
0.0
 40
0.1738489379910888
100
AcDbArc
 50
159.7199718669747
 51
248.9186453553905
  0
ARC
  5
168
330
1E
100
AcDbEntity
  8
IMAGE
100
AcDbCircle
 10
3.068612009765852
 20
4.688725161217124
 30
0.0
 40
0.1738489379910888
100
AcDbArc
 50
339.7199718669747
 51
68.91864535539045
  0
ARC
  5
169
330
1E
100
AcDbEntity
  8
IMAGE
100
AcDbCircle
 10
3.128205001040154
 20
5.044580574647559
 30
0.0
 40
0.1738489379910888
100
AcDbArc
 50
159.7199718669747
 51
248.9186453553905
  0
ARC
  5
16A
330
1E
100
AcDbEntity
  8
IMAGE
100
AcDbCircle
 10
2.902600713472149
 20
4.942624790842788
 30
0.0
 40
0.1738489379910888
100
AcDbArc
 50
339.7199718669747
 51
68.91864535539045
  0
ARC
  5
16B
330
1E
100
AcDbEntity
  8
IMAGE
100
AcDbCircle
 10
2.727824815861222
 20
4.985988352426252
 30
0.0
 40
0.1738489379910888
100
AcDbArc
 50
159.7199718669747
 51
248.9186453553905
  0
ARC
  5
16C
330
1E
100
AcDbEntity
  8
IMAGE
100
AcDbCircle
 10
2.502220528293216
 20
4.884032568621481
 30
0.0
 40
0.1738489379910888
100
AcDbArc
 50
339.7199718669747
 51
68.91864535539045
  0
ARC
  5
16D
330
1E
100
AcDbEntity
  8
IMAGE
100
AcDbCircle
 10
2.659467223269697
 20
4.819977056132549
 30
0.0
 40
0.1738489379910888
100
AcDbArc
 50
159.7199718669747
 51
248.9186453553905
  0
ARC
  5
16E
330
1E
100
AcDbEntity
  8
IMAGE
100
AcDbCircle
 10
2.433862935701692
 20
4.718021272327777
 30
0.0
 40
0.1738489379910888
100
AcDbArc
 50
339.7199718669747
 51
68.91864535539045
  0
ARC
  5
16F
330
1E
100
AcDbEntity
  8
IMAGE
100
AcDbCircle
 10
2.461284873411783
 20
4.95438925634712
 30
0.0
 40
0.1738489379910888
100
AcDbArc
 50
159.7199718669747
 51
248.9186453553905
  0
ARC
  5
170
330
1E
100
AcDbEntity
  8
IMAGE
100
AcDbCircle
 10
2.235680585843779
 20
4.852433472542349
 30
0.0
 40
0.1738489379910888
100
AcDbArc
 50
339.7199718669747
 51
68.91864535539045
  0
ARC
  5
171
330
1E
100
AcDbEntity
  8
IMAGE
100
AcDbCircle
 10
2.727824815861222
 20
5.278949463532788
 30
0.0
 40
0.1738489379910888
100
AcDbArc
 50
159.7199718669747
 51
248.9186453553905
  0
ARC
  5
172
330
1E
100
AcDbEntity
  8
IMAGE
100
AcDbCircle
 10
2.502220528293216
 20
5.176993679728018
 30
0.0
 40
0.1738489379910888
100
AcDbArc
 50
339.7199718669747
 51
68.91864535539045
  0
ARC
  5
173
330
1E
100
AcDbEntity
  8
IMAGE
100
AcDbCircle
 10
2.903601482525143
 20
5.22035724131148
 30
0.0
 40
0.1738489379910888
100
AcDbArc
 50
159.7199718669747
 51
248.9186453553905
  0
ARC
  5
174
330
1E
100
AcDbEntity
  8
IMAGE
100
AcDbCircle
 10
2.677997194957139
 20
5.11840145750671
 30
0.0
 40
0.1738489379910888
100
AcDbArc
 50
339.7199718669747
 51
68.91864535539045
  0
ARC
  5
175
330
1E
100
AcDbEntity
  8
IMAGE
100
AcDbCircle
 10
3.23562407511255
 20
5.259418722792352
 30
0.0
 40
0.1738489379910888
100
AcDbArc
 50
159.7199718669747
 51
248.9186453553905
  0
ARC
  5
176
330
1E
100
AcDbEntity
  8
IMAGE
100
AcDbCircle
 10
3.010019787544546
 20
5.157462938987581
 30
0.0
 40
0.1738489379910888
100
AcDbArc
 50
339.7199718669747
 51
68.91864535539045
  0
ARC
  5
177
330
1E
100
AcDbEntity
  8
IMAGE
100
AcDbCircle
 10
3.050082038078412
 20
4.751619463541023
 30
0.0
 40
0.1738489379910888
100
AcDbArc
 50
159.7199718669747
 51
248.9186453553905
  0
ARC
  5
178
330
1E
100
AcDbEntity
  8
IMAGE
100
AcDbCircle
 10
2.824477750510406
 20
4.649663679736252
 30
0.0
 40
0.1738489379910888
100
AcDbArc
 50
339.7199718669747
 51
68.91864535539045
  0
ARC
  5
179
330
1E
100
AcDbEntity
  8
IMAGE
100
AcDbCircle
 10
3.108674260299719
 20
4.829742426502766
 30
0.0
 40
0.1738489379910888
100
AcDbArc
 50
159.7199718669747
 51
248.9186453553905
  0
ARC
  5
17A
330
1E
100
AcDbEntity
  8
IMAGE
100
AcDbCircle
 10
2.883069972731713
 20
4.727786642697995
 30
0.0
 40
0.1738489379910888
100
AcDbArc
 50
339.7199718669747
 51
68.91864535539045
  0
ARC
  5
17B
330
1E
100
AcDbEntity
  8
IMAGE
100
AcDbCircle
 10
2.60087500104839
 20
5.210591870941263
 30
0.0
 40
0.1738489379910888
100
AcDbArc
 50
159.7199718669747
 51
248.9186453553905
  0
ARC
  5
17C
330
1E
100
AcDbEntity
  8
IMAGE
100
AcDbCircle
 10
2.375270713480385
 20
5.108636087136492
 30
0.0
 40
0.1738489379910888
100
AcDbArc
 50
339.7199718669747
 51
68.91864535539045
  0
ARC
  5
17D
330
1E
100
AcDbEntity
  8
IMAGE
100
AcDbCircle
 10
2.668501064878147
 20
4.6280050184265
 30
0.0
 40
0.1738489379910888
100
AcDbArc
 50
278.5307656099478
 51
7.729439098363569
  0
ARC
  5
17E
330
1E
100
AcDbEntity
  8
IMAGE
100
AcDbCircle
 10
2.866559280837496
 20
4.479461356456988
 30
0.0
 40
0.1738489379910888
100
AcDbArc
 50
98.53076560994793
 51
187.7294390983635
  0
ARC
  5
17F
330
1E
100
AcDbEntity
  8
IMAGE
100
AcDbCircle
 10
2.28765162043965
 20
4.764720203609551
 30
0.0
 40
0.1738489379910888
100
AcDbArc
 50
278.5307656099478
 51
7.729439098363569
  0
ARC
  5
180
330
1E
100
AcDbEntity
  8
IMAGE
100
AcDbCircle
 10
2.485709836398998
 20
4.616176541640038
 30
0.0
 40
0.1738489379910888
100
AcDbArc
 50
98.53076560994793
 51
187.7294390983635
  0
ARC
  5
181
330
1E
100
AcDbEntity
  8
IMAGE
100
AcDbCircle
 10
3.029819768576207
 20
5.233457981380008
 30
0.0
 40
0.1738489379910888
100
AcDbArc
 50
278.5307656099478
 51
7.729439098363569
  0
ARC
  5
182
330
1E
100
AcDbEntity
  8
IMAGE
100
AcDbCircle
 10
3.227877984535556
 20
5.084914319410496
 30
0.0
 40
0.1738489379910888
100
AcDbArc
 50
98.53076560994793
 51
187.7294390983635
  0
ARC
  5
183
330
1E
100
AcDbEntity
  8
IMAGE
100
AcDbCircle
 10
2.648701083846485
 20
4.874267198251263
 30
0.0
 40
0.1738489379910888
100
AcDbArc
 50
339.7199718669747
 51
68.91864535539045
  0
ARC
  5
184
330
1E
100
AcDbEntity
  8
IMAGE
100
AcDbCircle
 10
2.874305371414489
 20
4.976222982056034
 30
0.0
 40
0.1738489379910888
100
AcDbArc
 50
159.7199718669747
 51
248.9186453553905
  0
ARC
  5
185
330
1E
100
AcDbEntity
  8
IMAGE
100
AcDbCircle
 10
2.551316620435533
 20
5.379938536933275
 30
0.0
 40
0.1738489379910888
100
AcDbArc
 50
278.5307656099478
 51
7.729439098363569
  0
ARC
  5
186
330
1E
100
AcDbEntity
  8
IMAGE
100
AcDbCircle
 10
2.74937483639488
 20
5.231394874963764
 30
0.0
 40
0.1738489379910888
100
AcDbArc
 50
98.53076560994793
 51
187.7294390983635
  0
ARC
  5
187
330
1E
100
AcDbEntity
  8
IMAGE
100
AcDbCircle
 10
1.127156247200868
 20
4.912386653355842
 30
0.0
 40
0.1738489379910888
100
AcDbArc
 50
116.0563205359582
 51
205.2549940243739
  0
ARC
  5
188
330
1E
100
AcDbEntity
  8
IMAGE
100
AcDbCircle
 10
0.8935602288950146
 20
4.994393827749086
 30
0.0
 40
0.1738489379910888
100
AcDbArc
 50
296.0563205359582
 51
25.2549940243739
  0
ARC
  5
189
330
1E
100
AcDbEntity
  8
IMAGE
100
AcDbCircle
 10
0.6767385171140499
 20
5.301936804218593
 30
0.0
 40
0.1738489379910888
100
AcDbArc
 50
116.0563205359582
 51
205.2549940243739
  0
ARC
  5
18A
330
1E
100
AcDbEntity
  8
IMAGE
100
AcDbCircle
 10
0.4431424988081958
 20
5.383943978611836
 30
0.0
 40
0.1738489379910888
100
AcDbArc
 50
296.0563205359582
 51
25.2549940243739
  0
ARC
  5
18B
330
1E
100
AcDbEntity
  8
IMAGE
100
AcDbCircle
 10
0.9729591864504268
 20
5.285705547932645
 30
0.0
 40
0.1738489379910888
100
AcDbArc
 50
116.0563205359582
 51
205.2549940243739
  0
ARC
  5
18C
330
1E
100
AcDbEntity
  8
IMAGE
100
AcDbCircle
 10
0.7393631681445728
 20
5.367712722325888
 30
0.0
 40
0.1738489379910888
100
AcDbArc
 50
296.0563205359582
 51
25.2549940243739
  0
ARC
  5
18D
330
1E
100
AcDbEntity
  8
IMAGE
100
AcDbCircle
 10
0.9080341082397145
 20
5.070641402143834
 30
0.0
 40
0.1738489379910888
100
AcDbArc
 50
116.0563205359582
 51
205.2549940243739
  0
ARC
  5
18E
330
1E
100
AcDbEntity
  8
IMAGE
100
AcDbCircle
 10
0.6744380899338605
 20
5.152648576537078
 30
0.0
 40
0.1738489379910888
100
AcDbArc
 50
296.0563205359582
 51
25.2549940243739
  0
ARC
  5
18F
330
1E
100
AcDbEntity
  8
IMAGE
100
AcDbCircle
 10
1.265122038398633
 20
4.83528818599759
 30
0.0
 40
0.1738489379910888
100
AcDbArc
 50
116.0563205359582
 51
205.2549940243739
  0
ARC
  5
190
330
1E
100
AcDbEntity
  8
IMAGE
100
AcDbCircle
 10
1.03152602009278
 20
4.917295360390833
 30
0.0
 40
0.1738489379910888
100
AcDbArc
 50
296.0563205359582
 51
25.2549940243739
  0
ARC
  5
191
330
1E
100
AcDbEntity
  8
IMAGE
100
AcDbCircle
 10
0.8025308561473043
 20
4.729785020138928
 30
0.0
 40
0.1738489379910888
100
AcDbArc
 50
116.0563205359582
 51
205.2549940243739
  0
ARC
  5
192
330
1E
100
AcDbEntity
  8
IMAGE
100
AcDbCircle
 10
0.5689348378414517
 20
4.811792194532171
 30
0.0
 40
0.1738489379910888
100
AcDbArc
 50
296.0563205359582
 51
25.2549940243739
  0
ARC
  5
193
330
1E
100
AcDbEntity
  8
IMAGE
100
AcDbCircle
 10
0.8268777604763231
 20
4.559356829136474
 30
0.0
 40
0.1738489379910888
100
AcDbArc
 50
116.0563205359582
 51
205.2549940243739
  0
ARC
  5
194
330
1E
100
AcDbEntity
  8
IMAGE
100
AcDbCircle
 10
0.5932817421704691
 20
4.641364003529717
 30
0.0
 40
0.1738489379910888
100
AcDbArc
 50
296.0563205359582
 51
25.2549940243739
  0
ARC
  5
195
330
1E
100
AcDbEntity
  8
IMAGE
100
AcDbCircle
 10
1.013537360332122
 20
4.737900648281901
 30
0.0
 40
0.1738489379910888
100
AcDbArc
 50
116.0563205359582
 51
205.2549940243739
  0
ARC
  5
196
330
1E
100
AcDbEntity
  8
IMAGE
100
AcDbCircle
 10
0.7799413420262685
 20
4.819907822675145
 30
0.0
 40
0.1738489379910888
100
AcDbArc
 50
296.0563205359582
 51
25.2549940243739
  0
ARC
  5
197
330
1E
100
AcDbEntity
  8
IMAGE
100
AcDbCircle
 10
1.307311474707391
 20
4.587317386824211
 30
0.0
 40
0.1738489379910888
100
AcDbArc
 50
143.5307656099477
 51
232.7294390983634
  0
ARC
  5
198
330
1E
100
AcDbEntity
  8
IMAGE
100
AcDbCircle
 10
1.062226936451902
 20
4.55230530993057
 30
0.0
 40
0.1738489379910888
100
AcDbArc
 50
323.5307656099477
 51
52.72943909836341
  0
ARC
  5
199
330
1E
100
AcDbEntity
  8
IMAGE
100
AcDbCircle
 10
1.356138326558479
 20
5.349016275701204
 30
0.0
 40
0.1738489379910888
100
AcDbArc
 50
143.5307656099477
 51
232.7294390983634
  0
ARC
  5
19A
330
1E
100
AcDbEntity
  8
IMAGE
100
AcDbCircle
 10
1.111053788302992
 20
5.314004198807563
 30
0.0
 40
0.1738489379910888
100
AcDbArc
 50
323.5307656099477
 51
52.72943909836341
  0
ARC
  5
19B
330
1E
100
AcDbEntity
  8
IMAGE
100
AcDbCircle
 10
0.6627970302730116
 20
4.968166831262707
 30
0.0
 40
0.1738489379910888
100
AcDbArc
 50
143.5307656099477
 51
232.7294390983634
  0
ARC
  5
19C
330
1E
100
AcDbEntity
  8
IMAGE
100
AcDbCircle
 10
0.4177124920175232
 20
4.933154754369067
 30
0.0
 40
0.1738489379910888
100
AcDbArc
 50
323.5307656099477
 51
52.72943909836341
  0
ARC
  5
19D
330
1E
100
AcDbEntity
  8
IMAGE
100
AcDbCircle
 10
0.8190429561964974
 20
5.104882016445757
 30
0.0
 40
0.1738489379910888
100
AcDbArc
 50
143.5307656099477
 51
232.7294390983634
  0
ARC
  5
19E
330
1E
100
AcDbEntity
  8
IMAGE
100
AcDbCircle
 10
0.5739584179410093
 20
5.069869939552117
 30
0.0
 40
0.1738489379910888
100
AcDbArc
 50
323.5307656099477
 51
52.72943909836341
  0
ARC
  5
19F
330
1E
100
AcDbEntity
  8
IMAGE
100
AcDbCircle
 10
1.170596289524341
 20
5.251362571999025
 30
0.0
 40
0.1738489379910888
100
AcDbArc
 50
143.5307656099477
 51
232.7294390983634
  0
ARC
  5
1A0
330
1E
100
AcDbEntity
  8
IMAGE
100
AcDbCircle
 10
0.9255117512688519
 20
5.216350495105385
 30
0.0
 40
0.1738489379910888
100
AcDbArc
 50
323.5307656099477
 51
52.72943909836341
  0
ARC
  5
1A1
330
1E
100
AcDbEntity
  8
IMAGE
100
AcDbCircle
 10
1.121769437673251
 20
5.153708868296846
 30
0.0
 40
0.1738489379910888
100
AcDbArc
 50
143.5307656099477
 51
232.7294390983634
  0
ARC
  5
1A2
330
1E
100
AcDbEntity
  8
IMAGE
100
AcDbCircle
 10
0.8766848994177621
 20
5.118696791403206
 30
0.0
 40
0.1738489379910888
100
AcDbArc
 50
323.5307656099477
 51
52.72943909836341
  0
ARC
  5
1A3
330
1E
100
AcDbEntity
  8
IMAGE
100
AcDbCircle
 10
1.043646474711507
 20
4.977932201632925
 30
0.0
 40
0.1738489379910888
100
AcDbArc
 50
143.5307656099477
 51
232.7294390983634
  0
ARC
  5
1A4
330
1E
100
AcDbEntity
  8
IMAGE
100
AcDbCircle
 10
0.7985619364560204
 20
4.942920124739285
 30
0.0
 40
0.1738489379910888
100
AcDbArc
 50
323.5307656099477
 51
52.72943909836341
  0
ARC
  5
1A5
330
1E
100
AcDbEntity
  8
IMAGE
100
AcDbCircle
 10
0.906931289528458
 20
4.733797942377478
 30
0.0
 40
0.1738489379910888
100
AcDbArc
 50
143.5307656099477
 51
232.7294390983634
  0
ARC
  5
1A6
330
1E
100
AcDbEntity
  8
IMAGE
100
AcDbCircle
 10
0.66184675127297
 20
4.698785865483839
 30
0.0
 40
0.1738489379910888
100
AcDbArc
 50
323.5307656099477
 51
52.72943909836341
  0
ARC
  5
1A7
330
1E
100
AcDbEntity
  8
IMAGE
100
AcDbCircle
 10
0.7018585117538836
 20
4.577552016453992
 30
0.0
 40
0.1738489379910888
100
AcDbArc
 50
143.5307656099477
 51
232.7294390983634
  0
ARC
  5
1A8
330
1E
100
AcDbEntity
  8
IMAGE
100
AcDbCircle
 10
0.4567739734983942
 20
4.542539939560352
 30
0.0
 40
0.1738489379910888
100
AcDbArc
 50
323.5307656099477
 51
52.72943909836341
  0
ARC
  5
1A9
330
1E
100
AcDbEntity
  8
IMAGE
100
AcDbCircle
 10
1.024115733971071
 20
4.558021275713556
 30
0.0
 40
0.1738489379910888
100
AcDbArc
 50
143.5307656099477
 51
232.7294390983634
  0
ARC
  5
1AA
330
1E
100
AcDbEntity
  8
IMAGE
100
AcDbCircle
 10
0.7790311957155839
 20
4.523009198819917
 30
0.0
 40
0.1738489379910888
100
AcDbArc
 50
323.5307656099477
 51
52.72943909836341
  0
ARC
  5
1AB
330
1E
100
AcDbEntity
  8
IMAGE
100
AcDbCircle
 10
1.199892400634993
 20
4.616613497934864
 30
0.0
 40
0.1738489379910888
100
AcDbArc
 50
143.5307656099477
 51
232.7294390983634
  0
ARC
  5
1AC
330
1E
100
AcDbEntity
  8
IMAGE
100
AcDbCircle
 10
0.9548078623795062
 20
4.581601421041224
 30
0.0
 40
0.1738489379910888
100
AcDbArc
 50
323.5307656099477
 51
52.72943909836341
  0
ARC
  5
1AD
330
1E
100
AcDbEntity
  8
IMAGE
100
AcDbCircle
 10
1.356138326558479
 20
4.968166831262707
 30
0.0
 40
0.1738489379910888
100
AcDbArc
 50
143.5307656099477
 51
232.7294390983634
  0
ARC
  5
1AE
330
1E
100
AcDbEntity
  8
IMAGE
100
AcDbCircle
 10
1.111053788302992
 20
4.933154754369067
 30
0.0
 40
0.1738489379910888
100
AcDbArc
 50
323.5307656099477
 51
52.72943909836341
  0
ARC
  5
1AF
330
1E
100
AcDbEntity
  8
IMAGE
100
AcDbCircle
 10
1.063177215451945
 20
5.280658683109678
 30
0.0
 40
0.1738489379910888
100
AcDbArc
 50
143.5307656099477
 51
232.7294390983634
  0
ARC
  5
1B0
330
1E
100
AcDbEntity
  8
IMAGE
100
AcDbCircle
 10
0.8180926771964555
 20
5.245646606216038
 30
0.0
 40
0.1738489379910888
100
AcDbArc
 50
323.5307656099477
 51
52.72943909836341
  0
ARC
  5
1B1
330
1E
100
AcDbEntity
  8
IMAGE
100
AcDbCircle
 10
1.348706520977303
 20
4.790680945021895
 30
0.0
 40
0.1738489379910888
100
AcDbArc
 50
159.7199718669747
 51
248.9186453553905
  0
ARC
  5
1B2
330
1E
100
AcDbEntity
  8
IMAGE
100
AcDbCircle
 10
1.123102233409297
 20
4.688725161217124
 30
0.0
 40
0.1738489379910888
100
AcDbArc
 50
339.7199718669747
 51
68.91864535539045
  0
ARC
  5
1B3
330
1E
100
AcDbEntity
  8
IMAGE
100
AcDbCircle
 10
1.182695224683599
 20
5.044580574647559
 30
0.0
 40
0.1738489379910888
100
AcDbArc
 50
159.7199718669747
 51
248.9186453553905
  0
ARC
  5
1B4
330
1E
100
AcDbEntity
  8
IMAGE
100
AcDbCircle
 10
0.9570909371155932
 20
4.942624790842788
 30
0.0
 40
0.1738489379910888
100
AcDbArc
 50
339.7199718669747
 51
68.91864535539045
  0
ARC
  5
1B5
330
1E
100
AcDbEntity
  8
IMAGE
100
AcDbCircle
 10
0.7823150395046666
 20
4.985988352426252
 30
0.0
 40
0.1738489379910888
100
AcDbArc
 50
159.7199718669747
 51
248.9186453553905
  0
ARC
  5
1B6
330
1E
100
AcDbEntity
  8
IMAGE
100
AcDbCircle
 10
0.5567107519366611
 20
4.884032568621481
 30
0.0
 40
0.1738489379910888
100
AcDbArc
 50
339.7199718669747
 51
68.91864535539045
  0
ARC
  5
1B7
330
1E
100
AcDbEntity
  8
IMAGE
100
AcDbCircle
 10
0.7139574469131416
 20
4.819977056132549
 30
0.0
 40
0.1738489379910888
100
AcDbArc
 50
159.7199718669747
 51
248.9186453553905
  0
ARC
  5
1B8
330
1E
100
AcDbEntity
  8
IMAGE
100
AcDbCircle
 10
0.4883531593451369
 20
4.718021272327777
 30
0.0
 40
0.1738489379910888
100
AcDbArc
 50
339.7199718669747
 51
68.91864535539045
  0
ARC
  5
1B9
330
1E
100
AcDbEntity
  8
IMAGE
100
AcDbCircle
 10
0.7823150395046666
 20
5.278949463532788
 30
0.0
 40
0.1738489379910888
100
AcDbArc
 50
159.7199718669747
 51
248.9186453553905
  0
ARC
  5
1BA
330
1E
100
AcDbEntity
  8
IMAGE
100
AcDbCircle
 10
0.5567107519366611
 20
5.176993679728018
 30
0.0
 40
0.1738489379910888
100
AcDbArc
 50
339.7199718669747
 51
68.91864535539045
  0
ARC
  5
1BB
330
1E
100
AcDbEntity
  8
IMAGE
100
AcDbCircle
 10
0.9580917061685878
 20
5.22035724131148
 30
0.0
 40
0.1738489379910888
100
AcDbArc
 50
159.7199718669747
 51
248.9186453553905
  0
ARC
  5
1BC
330
1E
100
AcDbEntity
  8
IMAGE
100
AcDbCircle
 10
0.7324874186005836
 20
5.11840145750671
 30
0.0
 40
0.1738489379910888
100
AcDbArc
 50
339.7199718669747
 51
68.91864535539045
  0
ARC
  5
1BD
330
1E
100
AcDbEntity
  8
IMAGE
100
AcDbCircle
 10
1.290114298755995
 20
5.259418722792352
 30
0.0
 40
0.1738489379910888
100
AcDbArc
 50
159.7199718669747
 51
248.9186453553905
  0
ARC
  5
1BE
330
1E
100
AcDbEntity
  8
IMAGE
100
AcDbCircle
 10
1.06451001118799
 20
5.157462938987581
 30
0.0
 40
0.1738489379910888
100
AcDbArc
 50
339.7199718669747
 51
68.91864535539045
  0
ARC
  5
1BF
330
1E
100
AcDbEntity
  8
IMAGE
100
AcDbCircle
 10
1.104572261721856
 20
4.751619463541023
 30
0.0
 40
0.1738489379910888
100
AcDbArc
 50
159.7199718669747
 51
248.9186453553905
  0
ARC
  5
1C0
330
1E
100
AcDbEntity
  8
IMAGE
100
AcDbCircle
 10
0.8789679741538504
 20
4.649663679736252
 30
0.0
 40
0.1738489379910888
100
AcDbArc
 50
339.7199718669747
 51
68.91864535539045
  0
ARC
  5
1C1
330
1E
100
AcDbEntity
  8
IMAGE
100
AcDbCircle
 10
1.163164483943163
 20
4.829742426502766
 30
0.0
 40
0.1738489379910888
100
AcDbArc
 50
159.7199718669747
 51
248.9186453553905
  0
ARC
  5
1C2
330
1E
100
AcDbEntity
  8
IMAGE
100
AcDbCircle
 10
0.9375601963751581
 20
4.727786642697995
 30
0.0
 40
0.1738489379910888
100
AcDbArc
 50
339.7199718669747
 51
68.91864535539045
  0
ARC
  5
1C3
330
1E
100
AcDbEntity
  8
IMAGE
100
AcDbCircle
 10
0.655365224691834
 20
5.210591870941263
 30
0.0
 40
0.1738489379910888
100
AcDbArc
 50
159.7199718669747
 51
248.9186453553905
  0
ARC
  5
1C4
330
1E
100
AcDbEntity
  8
IMAGE
100
AcDbCircle
 10
0.4297609371238295
 20
5.108636087136492
 30
0.0
 40
0.1738489379910888
100
AcDbArc
 50
339.7199718669747
 51
68.91864535539045
  0
ARC
  5
1C5
330
1E
100
AcDbEntity
  8
IMAGE
100
AcDbCircle
 10
0.7229912885215918
 20
4.6280050184265
 30
0.0
 40
0.1738489379910888
100
AcDbArc
 50
278.5307656099478
 51
7.729439098363569
  0
ARC
  5
1C6
330
1E
100
AcDbEntity
  8
IMAGE
100
AcDbCircle
 10
0.9210495044809404
 20
4.479461356456988
 30
0.0
 40
0.1738489379910888
100
AcDbArc
 50
98.53076560994793
 51
187.7294390983635
  0
ARC
  5
1C7
330
1E
100
AcDbEntity
  8
IMAGE
100
AcDbCircle
 10
1.084309992219652
 20
5.233457981380008
 30
0.0
 40
0.1738489379910888
100
AcDbArc
 50
278.5307656099478
 51
7.729439098363569
  0
ARC
  5
1C8
330
1E
100
AcDbEntity
  8
IMAGE
100
AcDbCircle
 10
1.282368208179001
 20
5.084914319410496
 30
0.0
 40
0.1738489379910888
100
AcDbArc
 50
98.53076560994793
 51
187.7294390983635
  0
ARC
  5
1C9
330
1E
100
AcDbEntity
  8
IMAGE
100
AcDbCircle
 10
0.7031913074899292
 20
4.874267198251263
 30
0.0
 40
0.1738489379910888
100
AcDbArc
 50
339.7199718669747
 51
68.91864535539045
  0
ARC
  5
1CA
330
1E
100
AcDbEntity
  8
IMAGE
100
AcDbCircle
 10
0.9287955950579336
 20
4.976222982056034
 30
0.0
 40
0.1738489379910888
100
AcDbArc
 50
159.7199718669747
 51
248.9186453553905
  0
ARC
  5
1CB
330
1E
100
AcDbEntity
  8
IMAGE
100
AcDbCircle
 10
0.6058068440789779
 20
5.379938536933275
 30
0.0
 40
0.1738489379910888
100
AcDbArc
 50
278.5307656099478
 51
7.729439098363569
  0
ARC
  5
1CC
330
1E
100
AcDbEntity
  8
IMAGE
100
AcDbCircle
 10
0.8038650600383252
 20
5.231394874963764
 30
0.0
 40
0.1738489379910888
100
AcDbArc
 50
98.53076560994793
 51
187.7294390983635
  0
LINE
  5
1CD
330
1E
100
AcDbEntity
  8
IMAGE
100
AcDbLine
 10
2.023291894308784
 20
4.434722531517663
 30
0.0
 11
3.402958695051194
 21
4.434722531517663
 31
0.0
  0
TEXT
  5
1E9
330
1E
100
AcDbEntity
  8
TEXT_LEADERS
100
AcDbText
 10
5.274613407806193
 20
2.645912246505822
 30
0.0
 40
0.125
  1
1/2-INCH MALE NPT
  7
SIMPLEX
100
AcDbText
  0
TEXT
  5
1EA
330
1E
100
AcDbEntity
  8
TEXT_LEADERS
100
AcDbText
 10
5.274613407806193
 20
2.295912246505822
 30
0.0
 40
0.125
  1
  RAIN BIRD MODEL SBE-050
  7
SIMPLEX
100
AcDbText
  0
TEXT
  5
1EB
330
1E
100
AcDbEntity
  8
TEXT_LEADERS
100
AcDbText
 10
5.274613407806193
 20
2.029425658917212
 30
0.0
 40
0.125
  1
PVC SCH 40 TEE OR ELL
  7
SIMPLEX
100
AcDbText
  0
TEXT
  5
1EC
330
1E
100
AcDbEntity
  8
TEXT_BUBBLES
100
AcDbText
 10
5.274613407806193
 20
6.410201514592563
 30
0.0
 40
0.125
  1
  1800 SERIES
  7
SIMPLEX
100
AcDbText
  0
TEXT
  5
1ED
330
1E
100
AcDbEntity
  8
TEXT_BUBBLES
100
AcDbText
 10
5.274613407806193
 20
6.585201514592564
 30
0.0
 40
0.125
  1
PLASTIC NOZZLE: RAIN BIRD
  7
SIMPLEX
100
AcDbText
  0
TEXT
  5
1F0
330
1E
100
AcDbEntity
  8
TEXT_BUBBLES
100
AcDbText
 10
5.274613407806193
 20
1.89293771517844
 30
0.0
 40
0.125
  1
PVC SCH 40 TEE OR ELL
  7
SIMPLEX
100
AcDbText
  0
TEXT
  5
1F1
330
1E
100
AcDbEntity
  8
TEXT_BUBBLES
100
AcDbText
 10
5.274613407806193
 20
2.210821485472809
 30
0.0
 40
0.125
  1
  RAIN BIRD MODEL SBE-050
  7
SIMPLEX
100
AcDbText
  0
TEXT
  5
1F2
330
1E
100
AcDbEntity
  8
TEXT_BUBBLES
100
AcDbText
 10
5.274613407806193
 20
2.560821485472809
 30
0.0
 40
0.125
  1
1/2-INCH MALE NPT
  7
SIMPLEX
100
AcDbText
  0
TEXT
  5
1F3
330
1E
100
AcDbEntity
  8
TEXT_BUBBLES
100
AcDbText
 10
5.274613407806193
 20
4.65936599
 30
0.0
 40
0.125
  1
  PVC SCH 80 NIPPLE
  7
SIMPLEX
100
AcDbText
  0
TEXT
  5
1F4
330
1E
100
AcDbEntity
  8
TEXT_BUBBLES
100
AcDbText
 10
5.274613407806193
 20
5.53436599
 30
0.0
 40
0.125
  1
PLANT MATERIAL
  7
SIMPLEX
100
AcDbText
  0
TEXT
  5
1F5
330
1E
100
AcDbEntity
  8
TEXT_BUBBLES
100
AcDbText
 10
5.274613407806193
 20
2.385821485472809
 30
0.0
 40
0.125
  1
  x .490-INCH BARB ELBOW:
  7
SIMPLEX
100
AcDbText
  0
TEXT
  5
1F6
330
1E
100
AcDbEntity
  8
TEXT_BUBBLES
100
AcDbText
 10
5.274613407806193
 20
3.785821485472809
 30
0.0
 40
0.125
  1
  RAIN BIRD MODEL SBFE-050
  7
SIMPLEX
100
AcDbText
  0
TEXT
  5
1F7
330
1E
100
AcDbEntity
  8
TEXT_BUBBLES
100
AcDbText
 10
5.274613407806193
 20
4.135821485472809
 30
0.0
 40
0.125
  1
1/2-INCH FEMALE NPT x
  7
SIMPLEX
100
AcDbText
  0
TEXT
  5
1F8
330
1E
100
AcDbEntity
  8
TEXT_BUBBLES
100
AcDbText
 10
5.274613407806193
 20
3.960821485472809
 30
0.0
 40
0.125
  1
  0.490-INCH BARB ELBOW:
  7
SIMPLEX
100
AcDbText
  0
TEXT
  5
1F9
330
1E
100
AcDbEntity
  8
TEXT_BUBBLES
100
AcDbText
 10
5.274613407806193
 20
3.260821485472809
 30
0.0
 40
0.125
  1
  RAIN BIRD MODEL SP-100
  7
SIMPLEX
100
AcDbText
  0
TEXT
  5
1FA
330
1E
100
AcDbEntity
  8
TEXT_BUBBLES
100
AcDbText
 10
5.274613407806193
 20
3.435821485472809
 30
0.0
 40
0.125
  1
SWING PIPE, 12-INCH LENGTH:
  7
SIMPLEX
100
AcDbText
  0
TEXT
  5
1FB
330
1E
100
AcDbEntity
  8
TEXT_BUBBLES
100
AcDbText
 10
5.274613407806193
 20
2.910821485472809
 30
0.0
 40
0.125
  1
PVC LATERAL PIPE
  7
SIMPLEX
100
AcDbText
  0
TEXT
  5
1FC
330
1E
100
AcDbEntity
  8
TEXT_BUBBLES
100
AcDbText
 10
4.878870189999999
 20
5.00936599
 30
0.0
 40
0.125
  1

  7
SIMPLEX
100
AcDbText
  0
TEXT
  5
1FE
330
1E
100
AcDbEntity
  8
TEXT_BUBBLES
100
AcDbText
 10
12.485117467021
 20
5.934757240355271
 30
0.0
 40
0.10000000149
  1

  7
ROMANS
100
AcDbText
  0
TEXT
  5
1FF
330
1E
100
AcDbEntity
  8
TEXT_BUBBLES
100
AcDbText
 10
12.485117467021
 20
3.760695465148272
 30
0.0
 40
0.10000000149
  1

  7
ROMANS
100
AcDbText
  0
TEXT
  5
200
330
1E
100
AcDbEntity
  8
TEXT_BUBBLES
100
AcDbText
 10
12.485117467021
 20
5.624176986754271
 30
0.0
 40
0.10000000149
  1

  7
ROMANS
100
AcDbText
  0
TEXT
  5
201
330
1E
100
AcDbEntity
  8
TEXT_BUBBLES
100
AcDbText
 10
24.79985400796626
 20
1.439569790948717
 30
0.0
 40
0.10000000149
  1

  7
ROMANS
100
AcDbText
  0
TEXT
  5
202
330
1E
100
AcDbEntity
  8
TEXT_BUBBLES
100
AcDbText
 10
24.79985400796626
 20
0.973670800317717
 30
0.0
 40
0.10000000149
  1

  7
ROMANS
100
AcDbText
  0
TEXT
  5
203
330
1E
100
AcDbEntity
  8
TEXT_BUBBLES
100
AcDbText
 10
24.79985400796626
 20
1.128970463861717
 30
0.0
 40
0.10000000149
  1

  7
ROMANS
100
AcDbText
  0
TEXT
  5
204
330
1E
100
AcDbEntity
  8
TEXT_BUBBLES
100
AcDbText
 10
24.79985400796626
 20
1.750169118036717
 30
0.0
 40
0.10000000149
  1

  7
ROMANS
100
AcDbText
  0
TEXT
  5
205
330
1E
100
AcDbEntity
  8
TEXT_BUBBLES
100
AcDbText
 10
24.79985400796626
 20
2.526667435754716
 30
0.0
 40
0.10000000149
  1

  7
ROMANS
100
AcDbText
  0
TEXT
  5
206
330
1E
100
AcDbEntity
  8
TEXT_BUBBLES
100
AcDbText
 10
24.79985400796626
 20
2.992566426385717
 30
0.0
 40
0.10000000149
  1

  7
ROMANS
100
AcDbText
  0
TEXT
  5
207
330
1E
100
AcDbEntity
  8
TEXT_BUBBLES
100
AcDbText
 10
24.79985400796626
 20
2.837266762842716
 30
0.0
 40
0.10000000149
  1

  7
ROMANS
100
AcDbText
  0
TEXT
  5
208
330
1E
100
AcDbEntity
  8
TEXT_BUBBLES
100
AcDbText
 10
12.485117467021
 20
3.139534957945271
 30
0.0
 40
0.10000000149
  1

  7
ROMANS
100
AcDbText
  0
TEXT
  5
209
330
1E
100
AcDbEntity
  8
TEXT_BUBBLES
100
AcDbText
 10
24.79985400796626
 20
2.216068108667716
 30
0.0
 40
0.10000000149
  1

  7
ROMANS
100
AcDbText
  0
TEXT
  5
20A
330
1E
100
AcDbEntity
  8
TEXT_BUBBLES
100
AcDbText
 10
24.79985400796626
 20
2.060768445123716
 30
0.0
 40
0.10000000149
  1

  7
ROMANS
100
AcDbText
  0
TEXT
  5
20B
330
1E
100
AcDbEntity
  8
TEXT_BUBBLES
100
AcDbText
 10
12.485117467021
 20
4.847726352751271
 30
0.0
 40
0.10000000149
  1

  7
ROMANS
100
AcDbText
  0
TEXT
  5
20C
330
1E
100
AcDbEntity
  8
TEXT_BUBBLES
100
AcDbText
 10
12.485117467021
 20
6.400627620757271
 30
0.0
 40
0.10000000149
  1

  7
ROMANS
100
AcDbText
  0
TEXT
  5
20D
330
1E
100
AcDbEntity
  8
TEXT_BUBBLES
100
AcDbText
 10
12.485117467021
 20
5.158306606352272
 30
0.0
 40
0.10000000149
  1

  7
ROMANS
100
AcDbText
  0
TEXT
  5
20E
330
1E
100
AcDbEntity
  8
TEXT_BUBBLES
100
AcDbText
 10
12.485117467021
 20
4.071275718749271
 30
0.0
 40
0.10000000149
  1

  7
ROMANS
100
AcDbText
  0
TEXT
  5
20F
330
1E
100
AcDbEntity
  8
TEXT_BUBBLES
100
AcDbText
 10
12.485117467021
 20
3.450115211547271
 30
0.0
 40
0.10000000149
  1

  7
ROMANS
100
AcDbText
  0
CIRCLE
  5
210
330
1E
100
AcDbEntity
  8
TEXT_BUBBLES
100
AcDbCircle
 10
5.037597266289607
 20
6.64261274723086
 30
0.0
 40
0.15625
  0
TEXT
  5
211
330
1E
100
AcDbEntity
  8
TEXT_BUBBLES
100
AcDbText
 10
4.987002028194368
 20
6.58011274723086
 30
0.0
 40
0.125
  1
1
  7
ROMANS
 72
     4
 11
5.037597266289607
 21
6.64261274723086
 31
0.0
100
AcDbText
  0
TEXT
  5
212
330
1E
100
AcDbEntity
  8
TEXT_BUBBLES
100
AcDbText
 10
4.978073456765797
 20
5.547060153462243
 30
0.0
 40
0.125
  1
3
  7
ROMANS
 72
     4
 11
5.037597266289607
 21
5.609560153462243
 31
0.0
100
AcDbText
  0
CIRCLE
  5
213
330
1E
100
AcDbEntity
  8
TEXT_BUBBLES
100
AcDbCircle
 10
5.037597266289607
 20
5.609560153462243
 30
0.0
 40
0.15625
  0
TEXT
  5
214
330
1E
100
AcDbEntity
  8
TEXT_BUBBLES
100
AcDbText
 10
4.975097266289607
 20
5.174779370725887
 30
0.0
 40
0.125
  1
4
  7
ROMANS
 72
     4
 11
5.037597266289607
 21
5.237279370725887
 31
0.0
100
AcDbText
  0
CIRCLE
  5
215
330
1E
100
AcDbEntity
  8
TEXT_BUBBLES
100
AcDbCircle
 10
5.037597266289607
 20
5.237279370725887
 30
0.0
 40
0.15625
  0
TEXT
  5
216
330
1E
100
AcDbEntity
  8
TEXT_BUBBLES
100
AcDbText
 10
4.978073456765797
 20
4.838701181147426
 30
0.0
 40
0.125
  1
5
  7
ROMANS
 72
     4
 11
5.037597266289607
 21
4.901201181147426
 31
0.0
100
AcDbText
  0
CIRCLE
  5
217
330
1E
100
AcDbEntity
  8
TEXT_BUBBLES
100
AcDbCircle
 10
5.037597266289607
 20
4.901201181147426
 30
0.0
 40
0.15625
  0
TEXT
  5
218
330
1E
100
AcDbEntity
  8
TEXT_BUBBLES
100
AcDbText
 10
4.975097266289607
 20
4.130635579817474
 30
0.0
 40
0.125
  1
6
  7
ROMANS
 72
     4
 11
5.037597266289607
 21
4.193135579817474
 31
0.0
100
AcDbText
  0
CIRCLE
  5
219
330
1E
100
AcDbEntity
  8
TEXT_BUBBLES
100
AcDbCircle
 10
5.037597266289607
 20
4.193135579817474
 30
0.0
 40
0.15625
  0
TEXT
  5
21A
330
1E
100
AcDbEntity
  8
TEXT_BUBBLES
100
AcDbText
 10
4.978073456765797
 20
3.430635579817475
 30
0.0
 40
0.125
  1
7
  7
ROMANS
 72
     4
 11
5.037597266289607
 21
3.493135579817475
 31
0.0
100
AcDbText
  0
CIRCLE
  5
21B
330
1E
100
AcDbEntity
  8
TEXT_BUBBLES
100
AcDbCircle
 10
5.037597266289607
 20
3.493135579817475
 30
0.0
 40
0.15625
  0
TEXT
  5
21C
330
1E
100
AcDbEntity
  8
TEXT_BUBBLES
100
AcDbText
 10
4.981049647241988
 20
2.562596485028243
 30
0.0
 40
0.125
  1
9
  7
ROMANS
 72
     4
 11
5.037597266289607
 21
2.625096485028243
 31
0.0
100
AcDbText
  0
CIRCLE
  5
21D
330
1E
100
AcDbEntity
  8
TEXT_BUBBLES
100
AcDbCircle
 10
5.037597266289607
 20
2.625096485028243
 30
0.0
 40
0.15625
  0
TEXT
  5
21E
330
1E
100
AcDbEntity
  8
TEXT_BUBBLES
100
AcDbText
 10
4.909621075813416
 20
1.883479179426562
 30
0.0
 40
0.125
  1
10
  7
ROMANS
 72
     4
 11
5.037597266289607
 21
1.945979179426562
 31
0.0
100
AcDbText
  0
CIRCLE
  5
21F
330
1E
100
AcDbEntity
  8
TEXT_BUBBLES
100
AcDbCircle
 10
5.037597266289607
 20
1.945979179426562
 30
0.0
 40
0.15625
  0
TEXT
  5
220
330
1E
100
AcDbEntity
  8
TEXT_BUBBLES
100
AcDbText
 10
4.978073456765797
 20
2.933479179426562
 30
0.0
 40
0.125
  1
8
  7
ROMANS
 72
     4
 11
5.037597266289607
 21
2.995979179426562
 31
0.0
100
AcDbText
  0
CIRCLE
  5
221
330
1E
100
AcDbEntity
  8
TEXT_BUBBLES
100
AcDbCircle
 10
5.037597266289607
 20
2.995979179426562
 30
0.0
 40
0.15625
  0
TEXT
  5
222
330
1E
100
AcDbEntity
  8
TEXT_BUBBLES
100
AcDbText
 10
3.881615923037061
 20
6.301521474067641
 30
0.0
 40
0.125
  1
1
  7
ROMANS
 72
     4
 11
3.932211161132299
 21
6.364021474067641
 31
0.0
100
AcDbText
  0
CIRCLE
  5
223
330
1E
100
AcDbEntity
  8
TEXT_BUBBLES
100
AcDbCircle
 10
3.932211161132299
 20
6.364021474067641
 30
0.0
 40
0.15625
  0
TEXT
  5
224
330
1E
100
AcDbEntity
  8
TEXT_BUBBLES
100
AcDbText
 10
3.87268735160849
 20
5.170597468977627
 30
0.0
 40
0.125
  1
3
  7
ROMANS
 72
     4
 11
3.932211161132299
 21
5.233097468977627
 31
0.0
100
AcDbText
  0
CIRCLE
  5
225
330
1E
100
AcDbEntity
  8
TEXT_BUBBLES
100
AcDbCircle
 10
3.932211161132299
 20
5.233097468977627
 30
0.0
 40
0.15625
  0
CIRCLE
  5
226
330
1E
100
AcDbEntity
  8
TEXT_BUBBLES
100
AcDbCircle
 10
3.932211161132299
 20
4.652533434137644
 30
0.0
 40
0.15625
  0
TEXT
  5
227
330
1E
100
AcDbEntity
  8
TEXT_BUBBLES
100
AcDbText
 10
3.869711161132299
 20
4.590033434137644
 30
0.0
 40
0.125
  1
4
  7
ROMANS
 72
     4
 11
3.932211161132299
 21
4.652533434137644
 31
0.0
100
AcDbText
  0
TEXT
  5
228
330
1E
100
AcDbEntity
  8
TEXT_BUBBLES
100
AcDbText
 10
3.87268735160849
 20
4.17370851493938
 30
0.0
 40
0.125
  1
5
  7
ROMANS
 72
     4
 11
3.932211161132299
 21
4.23620851493938
 31
0.0
100
AcDbText
  0
CIRCLE
  5
229
330
1E
100
AcDbEntity
  8
TEXT_BUBBLES
100
AcDbCircle
 10
3.932211161132299
 20
4.23620851493938
 30
0.0
 40
0.15625
  0
TEXT
  5
22A
330
1E
100
AcDbEntity
  8
TEXT_BUBBLES
100
AcDbText
 10
3.869711161132299
 20
3.693095157559887
 30
0.0
 40
0.125
  1
6
  7
ROMANS
 72
     4
 11
3.932211161132299
 21
3.755595157559887
 31
0.0
100
AcDbText
  0
CIRCLE
  5
22B
330
1E
100
AcDbEntity
  8
TEXT_BUBBLES
100
AcDbCircle
 10
3.932211161132299
 20
3.755595157559887
 30
0.0
 40
0.15625
  0
TEXT
  5
22C
330
1E
100
AcDbEntity
  8
TEXT_BUBBLES
100
AcDbText
 10
3.87268735160849
 20
3.070325461948255
 30
0.0
 40
0.125
  1
7
  7
ROMANS
 72
     4
 11
3.932211161132299
 21
3.132825461948255
 31
0.0
100
AcDbText
  0
CIRCLE
  5
22D
330
1E
100
AcDbEntity
  8
TEXT_BUBBLES
100
AcDbCircle
 10
3.932211161132299
 20
3.132825461948255
 30
0.0
 40
0.15625
  0
CIRCLE
  5
23E
330
1E
100
AcDbEntity
  8
TEXT_BUBBLES
100
AcDbCircle
 10
2.818942776339797
 20
1.773212139197167
 30
0.0
 40
0.15625
  0
TEXT
  5
23F
330
1E
100
AcDbEntity
  8
TEXT_BUBBLES
100
AcDbText
 10
2.759418966815988
 20
1.710712139197167
 30
0.0
 40
0.125
  1
8
  7
ROMANS
 72
     4
 11
2.818942776339797
 21
1.773212139197167
 31
0.0
100
AcDbText
  0
TEXT
  5
240
330
1E
100
AcDbEntity
  8
TEXT_BUBBLES
100
AcDbText
 10
3.624803026270688
 20
1.710712139197167
 30
0.0
 40
0.125
  1
9
  7
ROMANS
 72
     4
 11
3.681350645318307
 21
1.773212139197167
 31
0.0
100
AcDbText
  0
CIRCLE
  5
241
330
1E
100
AcDbEntity
  8
TEXT_BUBBLES
100
AcDbCircle
 10
3.681350645318307
 20
1.773212139197167
 30
0.0
 40
0.15625
  0
TEXT
  5
242
330
1E
100
AcDbEntity
  8
TEXT_BUBBLES
100
AcDbText
 10
3.948163978289198
 20
1.710712139197167
 30
0.0
 40
0.125
  1
10
  7
ROMANS
 72
     4
 11
4.076140168765388
 21
1.773212139197167
 31
0.0
100
AcDbText
  0
CIRCLE
  5
243
330
1E
100
AcDbEntity
  8
TEXT_BUBBLES
100
AcDbCircle
 10
4.076140168765388
 20
1.773212139197167
 30
0.0
 40
0.15625
  0
LINE
  5
244
330
1E
100
AcDbEntity
  8
TEXT_BUBBLES
100
AcDbLine
 10
2.791810248579339
 20
1.61933592778901
 30
0.0
 11
2.791002224282007
 21
1.614753394281743
 31
0.0
  0
LWPOLYLINE
  5
248
330
1E
100
AcDbEntity
  8
IMAGE
100
AcDbPolyline
 90
        2
 70
     0
 43
0.0
 10
1.855314872754549
 20
5.491559835148991
 10
1.855314872754549
 20
5.637165263312875
  0
LWPOLYLINE
  5
24C
330
1E
100
AcDbEntity
  8
IMAGE
100
AcDbPolyline
 90
        2
 70
     0
 43
0.0
 10
1.847527048516317
 20
5.637165263312875
 10
1.847527048516317
 20
5.650379549132875
  0
LINE
  5
250
330
1E
100
AcDbEntity
  8
IMAGE
100
AcDbLine
 10
1.847527048516317
 20
5.650379549132875
 30
0.0
 11
2.021558901514096
 21
5.650379549132875
 31
0.0
  0
LWPOLYLINE
  5
251
330
1E
100
AcDbEntity
  8
IMAGE
100
AcDbPolyline
 90
        2
 70
     0
 43
0.0
 10
2.021558901514096
 20
5.650379549132875
 10
2.021558901514096
 20
5.637165263312875
  0
LWPOLYLINE
  5
255
330
1E
100
AcDbEntity
  8
OPTION-ADAPT-PA-8S-NP
100
AcDbPolyline
 90
        2
 70
     0
 43
0.0
 10
1.828706689986708
 20
5.491559835148991
 10
2.040378464320492
 20
5.491559835148991
  0
LWPOLYLINE
  5
259
330
1E
100
AcDbEntity
  8
IMAGE
100
AcDbPolyline
 90
        2
 70
     0
 43
0.0
 10
1.855314872754549
 20
5.544387216523991
 10
2.013771077275866
 20
5.544387216523991
  0
LWPOLYLINE
  5
25D
330
1E
100
AcDbEntity
  8
IMAGE
100
AcDbPolyline
 90
        2
 70
     0
 43
0.0
 10
1.855314872754549
 20
5.61042144324274
 10
2.013771077275866
 20
5.61042144324274
  0
LWPOLYLINE
  5
261
330
1E
100
AcDbEntity
  8
IMAGE
100
AcDbPolyline
 90
        2
 70
     0
 43
0.0
 10
1.944447736999208
 20
5.491559835148991
 10
1.944447736999208
 20
5.544387216523991
  0
LWPOLYLINE
  5
265
330
1E
100
AcDbEntity
  8
IMAGE
100
AcDbPolyline
 90
        2
 70
     0
 43
0.0
 10
1.924638213031208
 20
5.491559835148991
 10
1.924638213031208
 20
5.544387216523991
  0
LWPOLYLINE
  5
269
330
1E
100
AcDbEntity
  8
OPTION-ADAPT-PA-8S-NP
100
AcDbPolyline
 90
        2
 70
     0
 43
0.0
 10
1.828706689986708
 20
5.389299647315613
 10
2.040378464320492
 20
5.389299647315613
  0
LWPOLYLINE
  5
26D
330
1E
100
AcDbEntity
  8
OPTION-ADAPT-PA-8S-NP
100
AcDbPolyline
 90
        2
 70
     0
 43
0.0
 10
1.828706689986708
 20
5.491559835148991
 10
1.828706689986708
 20
5.389299647315613
  0
LWPOLYLINE
  5
271
330
1E
100
AcDbEntity
  8
OPTION-ADAPT-PA-8S-NP
100
AcDbPolyline
 90
        2
 70
     0
 43
0.0
 10
2.040378464320492
 20
5.491559835148991
 10
2.040378464320492
 20
5.389299647315613
  0
LWPOLYLINE
  5
275
330
1E
100
AcDbEntity
  8
OPTION-ADAPT-PA-8S-NP
100
AcDbPolyline
 90
        2
 70
     0
 43
0.0
 10
1.987188834111708
 20
5.491559835148991
 10
1.987188834111708
 20
5.389299647315613
  0
LWPOLYLINE
  5
279
330
1E
100
AcDbEntity
  8
OPTION-ADAPT-PA-8S-NP
100
AcDbPolyline
 90
        2
 70
     0
 43
0.0
 10
1.881534071361708
 20
5.491559835148991
 10
1.881534071361708
 20
5.389299647315613
  0
TEXT
  5
27D
330
1E
100
AcDbEntity
  8
OPTION-ADAPT-PA-8S
100
AcDbText
 10
5.274613407806193
 20
6.049548729999999
 30
0.0
 40
0.125
  1
PLASTIC SHRUB ADAPTER:
  7
SIMPLEX
100
AcDbText
  0
CIRCLE
  5
27E
330
1E
100
AcDbEntity
  8
TEXT_BUBBLES
100
AcDbCircle
 10
5.037597266289607
 20
6.107746802810166
 30
0.0
 40
0.15625
  0
TEXT
  5
27F
330
1E
100
AcDbEntity
  8
TEXT_BUBBLES
100
AcDbText
 10
4.978073456765797
 20
6.045246802810166
 30
0.0
 40
0.125
  1
2
  7
ROMANS
 72
     4
 11
5.037597266289607
 21
6.107746802810166
 31
0.0
100
AcDbText
  0
TEXT
  5
280
330
1E
100
AcDbEntity
  8
OPTION-ADAPT-PA-8S
100
AcDbText
 10
5.274613407806193
 20
5.874548729999999
 30
0.0
 40
0.125
  1
  RAIN BIRD MODEL PA-8S
  7
SIMPLEX
100
AcDbText
  0
CIRCLE
  5
281
330
1E
100
AcDbEntity
  8
TEXT_BUBBLES
100
AcDbCircle
 10
3.932211161132299
 20
6.037040771627932
 30
0.0
 40
0.15625
  0
TEXT
  5
282
330
1E
100
AcDbEntity
  8
TEXT_BUBBLES
100
AcDbText
 10
3.87268735160849
 20
5.974540771627932
 30
0.0
 40
0.125
  1
2
  7
ROMANS
 72
     4
 11
3.932211161132299
 21
6.037040771627932
 31
0.0
100
AcDbText
  0
TEXT
  5
285
330
1E
100
AcDbEntity
  8
INSTRUCT-CALLOUT
100
AcDbText
 10
11.35568234055327
 20
8.445526218521557
 30
0.0
 40
0.125
  1
TO TURN OFF THIS INSTRUCTION BOX, TURN OFF
  7
ROMANS
100
AcDbText
  0
TEXT
  5
286
330
1E
100
AcDbEntity
  8
INSTRUCT-CALLOUT
100
AcDbText
 10
11.35568234055327
 20
8.270526218521556
 30
0.0
 40
0.125
  1
LAYER "INSTRUCT-CALLOUT".
  7
ROMANS
100
AcDbText
  0
CIRCLE
  5
287
330
1E
100
AcDbEntity
  8
INSTRUCT-CALLOUT
100
AcDbCircle
 10
14.40524475589699
 20
9.043619442871897
 30
0.0
 40
0.125
  0
TEXT
  5
288
330
1E
100
AcDbEntity
  8
INSTRUCT-CALLOUT
100
AcDbText
 10
14.35464951780176
 20
8.981119442871897
 30
0.0
 40
0.125
  1
1
  7
ROMANS
 72
     4
 11
14.40524475589699
 21
9.043619442871897
 31
0.0
100
AcDbText
  0
LINE
  5
289
330
1E
100
AcDbEntity
  8
INSTRUCT-CALLOUT
100
AcDbLine
 10
14.02877653019251
 20
8.940839726294072
 30
0.0
 11
14.28465794711735
 21
9.010697997758692
 31
0.0
  0
SOLID
  5
28A
330
1E
100
AcDbEntity
  8
INSTRUCT-CALLOUT
100
AcDbTrace
 10
14.09805094098431
 20
8.990850285273637
 30
0.0
 11
14.11385323463865
 21
8.93296861705941
 31
0.0
 12
13.93230708316879
 22
8.914502570203509
 32
0.0
 13
13.93230708316879
 23
8.914502570203509
 33
0.0
  0
TEXT
  5
28B
330
1E
100
AcDbEntity
  8
INSTRUCT-CALLOUT
100
AcDbText
 10
12.32020931274864
 20
9.029387017272734
 30
0.0
 40
0.125
  1
ITEM 1
  7
ROMANS
100
AcDbText
  0
SOLID
  5
28C
330
1E
100
AcDbEntity
  8
INSTRUCT-CALLOUT
100
AcDbTrace
 10
11.95558161293488
 20
8.97742425072224
 30
0.0
 11
11.93252972804315
 21
9.032819292043086
 31
0.0
 12
11.77787054652648
 22
8.935966116707465
 32
0.0
 13
11.77787054652648
 23
8.935966116707465
 33
0.0
  0
LINE
  5
28D
330
1E
100
AcDbEntity
  8
INSTRUCT-CALLOUT
100
AcDbLine
 10
11.87019561539455
 20
8.974385924860353
 30
0.0
 11
12.15796602987288
 21
9.094137626666633
 31
0.0
  0
LINE
  5
28E
330
1E
100
AcDbEntity
  8
INSTRUCT-CALLOUT
100
AcDbLine
 10
12.15796602987288
 20
9.094137626666633
 30
0.0
 11
12.29423457573151
 21
9.094137626666633
 31
0.0
  0
TEXT
  5
28F
330
1E
100
AcDbEntity
  8
INSTRUCT-CALLOUT
100
AcDbText
 10
11.85084137791609
 20
9.346608880368247
 30
0.0
 40
0.125
  1
TEXT_LEADERS         TEXT_BUBBLES
  7
ROMANS
100
AcDbText
  0
TEXT
  5
290
330
1E
100
AcDbEntity
  8
INSTRUCT-CALLOUT
100
AcDbText
 10
11.35568234055327
 20
9.670526218521557
 30
0.0
 40
0.125
  1
BY TURNING ON THE APPROPRIATE LAYER:
  7
ROMANS
100
AcDbText
  0
TEXT
  5
292
330
1E
100
AcDbEntity
  8
INSTRUCT-CALLOUT
100
AcDbText
 10
11.9122730702186
 20
10.2196372818053
 30
0.0
 40
0.125
  1
CHOOSING EQUIPMENT CALLOUT METHOD
  7
ROMANS
100
AcDbText
  0
LWPOLYLINE
  5
293
330
1E
100
AcDbEntity
  8
INSTRUCT-CALLOUT
100
AcDbPolyline
 90
        4
 70
     1
 43
0.0
 10
11.31665499475796
 20
10.1625217910881
 10
11.31665499475796
 20
8.731035769745865
 10
16.25837285748261
 20
8.731035769745865
 10
16.25837285748261
 20
10.1625217910881
  0
TEXT
  5
299
330
1E
100
AcDbEntity
  8
INSTRUCT-OPTION
100
AcDbText
 10
11.35568234055327
 20
6.117596402118273
 30
0.0
 40
0.125
  1
LAYER "INSTRUCT-OPTION".
  7
ROMANS
100
AcDbText
  0
TEXT
  5
29A
330
1E
100
AcDbEntity
  8
INSTRUCT-OPTION
100
AcDbText
 10
11.35568234055327
 20
6.292596402118269
 30
0.0
 40
0.125
  1
TO TURN OFF THIS INSTRUCTION BOX, TURN OFF
  7
ROMANS
100
AcDbText
  0
TEXT
  5
2A1
330
1E
100
AcDbEntity
  8
INSTRUCT-OPTION
100
AcDbText
 10
11.89879181023892
 20
7.959496389259245
 30
0.0
 40
0.125
  1
CHOOSING NOZZLE AND ADAPTER MODELS
  7
ROMANS
100
AcDbText
  0
TEXT
  5
2A3
330
1E
100
AcDbEntity
  8
INSTRUCT-OPTION
100
AcDbText
 10
7.857329845427999
 20
3.654940366745
 30
0.0
 40
0.10000000149
  1

  7
ROMANS
100
AcDbText
  0
LINE
  5
2BC
330
1E
100
AcDbEntity
  8
OPTION-ADAPT-PA-8S-NP
100
AcDbLine
 10
1.845794055721632
 20
4.434722531517663
 30
0.0
 11
1.845793657860024
 21
5.389299647315613
 31
0.0
  0
LINE
  5
2BD
330
1E
100
AcDbEntity
  8
OPTION-ADAPT-PA-8S-NP
100
AcDbLine
 10
2.023291894308784
 20
4.434722531517663
 30
0.0
 11
2.023291496447177
 21
5.389299647315613
 31
0.0
  0
LINE
  5
2BE
330
1E
100
AcDbEntity
  8
OPTION-ADAPT-PA-8S
100
AcDbLine
 10
2.023291894308784
 20
4.434722531517663
 30
0.0
 11
2.023344093484306
 21
5.359491381711491
 31
0.0
  0
LINE
  5
2BF
330
1E
100
AcDbEntity
  8
OPTION-ADAPT-PA-8S
100
AcDbLine
 10
1.845794055721632
 20
4.434722531517663
 30
0.0
 11
1.845846254897154
 21
5.359491381711491
 31
0.0
  0
LWPOLYLINE
  5
2C0
330
1E
100
AcDbEntity
  8
OPTION-ADAPT-PA-8S
100
AcDbPolyline
 90
        2
 70
     0
 43
0.0
 10
1.881586668398838
 20
5.491559835148991
 10
1.881586668398838
 20
5.359491381711491
  0
LWPOLYLINE
  5
2C4
330
1E
100
AcDbEntity
  8
OPTION-ADAPT-PA-8S
100
AcDbPolyline
 90
        2
 70
     0
 43
0.0
 10
1.828759287023838
 20
5.491559835148991
 10
1.828759287023838
 20
5.359491381711491
  0
LWPOLYLINE
  5
2C8
330
1E
100
AcDbEntity
  8
OPTION-ADAPT-PA-8S
100
AcDbPolyline
 90
        2
 70
     0
 43
0.0
 10
1.828759287023838
 20
5.359491381711491
 10
2.040431061357622
 20
5.359491381711491
  0
LINE
  5
2CC
330
1E
100
AcDbEntity
  8
OPTION-ADAPT-PA-8S
100
AcDbLine
 10
1.845846254897154
 20
5.303637089164175
 30
0.0
 11
2.023344093484306
 21
5.303637089164175
 31
0.0
  0
LINE
  5
2CD
330
1E
100
AcDbEntity
  8
OPTION-ADAPT-PA-8S
100
AcDbLine
 10
1.863596038755868
 20
5.33251589855648
 30
0.0
 11
2.005594312742791
 21
5.332526418028986
 31
0.0
  0
LWPOLYLINE
  5
2CE
330
1E
100
AcDbEntity
  8
OPTION-ADAPT-PA-8S
100
AcDbPolyline
 90
        2
 70
     0
 43
0.0
 10
1.987241431148837
 20
5.491559835148991
 10
1.987241431148837
 20
5.359491381711491
  0
LWPOLYLINE
  5
2D2
330
1E
100
AcDbEntity
  8
OPTION-ADAPT-PA-8S
100
AcDbPolyline
 90
        2
 70
     0
 43
0.0
 10
2.040431061357622
 20
5.491559835148991
 10
2.040431061357622
 20
5.359491381711491
  0
LWPOLYLINE
  5
2D6
330
1E
100
AcDbEntity
  8
OPTION-ADAPT-PA-8S
100
AcDbPolyline
 90
        2
 70
     0
 43
0.0
 10
1.828759287023838
 20
5.491559835148991
 10
2.040431061357622
 20
5.491559835148991
  0
LINE
  5
2DA
330
1E
100
AcDbEntity
  8
OPTION-ADAPT-PA-8SPRS
100
AcDbLine
 10
1.863543839580346
 20
4.410947145538472
 30
0.0
 11
2.005542113567269
 21
4.410936626065966
 31
0.0
  0
LINE
  5
2DB
330
1E
100
AcDbEntity
  8
OPTION-ADAPT-PA-8SPRS
100
AcDbLine
 10
1.845794055721632
 20
4.387047441213807
 30
0.0
 11
2.023291894308784
 21
4.387047441213807
 31
0.0
  0
LINE
  5
2DC
330
1E
100
AcDbEntity
  8
IMAGE
100
AcDbLine
 10
2.023291894308784
 20
4.38051262874325
 30
0.0
 11
2.023291894308784
 21
4.434722531517663
 31
0.0
  0
LINE
  5
2DD
330
1E
100
AcDbEntity
  8
OPTION-ADAPT-PA-8SPRS
100
AcDbLine
 10
1.801317048516319
 20
4.434722531517663
 30
0.0
 11
2.067768901514097
 21
4.434722531517663
 31
0.0
  0
LWPOLYLINE
  5
2DE
330
1E
100
AcDbEntity
  8
OPTION-ADAPT-PA-8SPRS
100
AcDbPolyline
 90
        2
 70
     0
 43
0.0
 10
2.067768901514097
 20
4.619595744589693
 10
2.067768901514097
 20
4.434722531517662
  0
LWPOLYLINE
  5
2E2
330
1E
100
AcDbEntity
  8
OPTION-ADAPT-PA-8SPRS
100
AcDbPolyline
 90
        2
 70
     0
 43
0.0
 10
1.801317048516319
 20
4.619595744589693
 10
1.801317048516319
 20
4.434722531517663
  0
LWPOLYLINE
  5
2E6
330
1E
100
AcDbEntity
  8
OPTION-ADAPT-PA-8SPRS
100
AcDbPolyline
 90
        2
 70
     0
 43
0.0
 10
2.067768901514097
 20
4.619595744589692
 10
1.801317048516319
 20
4.619595744589692
  0
LWPOLYLINE
  5
2EA
330
1E
100
AcDbEntity
  8
OPTION-ADAPT-PA-8SPRS
100
AcDbPolyline
 90
        2
 70
     0
 43
0.0
 10
2.041368901514097
 20
4.751695744589692
 10
1.827717048516319
 20
4.751695744589692
  0
LWPOLYLINE
  5
2EE
330
1E
100
AcDbEntity
  8
OPTION-ADAPT-PA-8SPRS
100
AcDbPolyline
 90
        2
 70
     0
 43
0.0
 10
1.847527048516319
 20
5.491559835148991
 10
1.847527048516319
 20
4.751695744589692
  0
LWPOLYLINE
  5
2F2
330
1E
100
AcDbEntity
  8
OPTION-ADAPT-PA-8SPRS
100
AcDbPolyline
 90
        2
 70
     0
 43
0.0
 10
2.021558901514096
 20
5.491559835148991
 10
2.021558901514096
 20
4.751695744589692
  0
LWPOLYLINE
  5
2F6
330
1E
100
AcDbEntity
  8
OPTION-ADAPT-PA-8SPRS
100
AcDbPolyline
 90
        2
 70
     0
 43
0.0
 10
2.041368901514097
 20
4.751695744589692
 10
2.041368901514097
 20
4.619595744589693
  0
LWPOLYLINE
  5
2FA
330
1E
100
AcDbEntity
  8
OPTION-ADAPT-PA-8SPRS
100
AcDbPolyline
 90
        2
 70
     0
 43
0.0
 10
1.827717048516319
 20
4.751695744589692
 10
1.827717048516319
 20
4.619595744589693
  0
ARC
  5
2FE
330
1E
100
AcDbEntity
  8
IMAGE
100
AcDbCircle
 10
1.225348363148453
 20
4.542539939560352
 30
0.0
 40
0.1738489379910888
100
AcDbArc
 50
323.5307656099477
 51
52.72943909836341
  0
ARC
  5
2FF
330
1E
100
AcDbEntity
  8
IMAGE
100
AcDbCircle
 10
1.470432901403943
 20
4.577552016453992
 30
0.0
 40
0.1738489379910888
100
AcDbArc
 50
143.5307656099477
 51
232.7294390983634
  0
ARC
  5
300
330
1E
100
AcDbEntity
  8
IMAGE
100
AcDbCircle
 10
1.595452150126382
 20
4.559356829136474
 30
0.0
 40
0.1738489379910888
100
AcDbArc
 50
116.0563205359582
 51
205.2549940243739
  0
ARC
  5
301
330
1E
100
AcDbEntity
  8
IMAGE
100
AcDbCircle
 10
1.198335326773889
 20
5.108636087136492
 30
0.0
 40
0.1738489379910888
100
AcDbArc
 50
339.7199718669747
 51
68.91864535539045
  0
ARC
  5
302
330
1E
100
AcDbEntity
  8
IMAGE
100
AcDbCircle
 10
1.423939614341893
 20
5.210591870941263
 30
0.0
 40
0.1738489379910888
100
AcDbArc
 50
159.7199718669747
 51
248.9186453553905
  0
ARC
  5
303
330
1E
100
AcDbEntity
  8
IMAGE
100
AcDbCircle
 10
1.482531836563201
 20
4.819977056132549
 30
0.0
 40
0.1738489379910888
100
AcDbArc
 50
159.7199718669747
 51
248.9186453553905
  0
ARC
  5
304
330
1E
100
AcDbEntity
  8
IMAGE
100
AcDbCircle
 10
1.431371419923071
 20
4.968166831262707
 30
0.0
 40
0.1738489379910888
100
AcDbArc
 50
143.5307656099477
 51
232.7294390983634
  0
ARC
  5
305
330
1E
100
AcDbEntity
  8
IMAGE
100
AcDbCircle
 10
1.445312906764109
 20
5.301936804218593
 30
0.0
 40
0.1738489379910888
100
AcDbArc
 50
116.0563205359582
 51
205.2549940243739
  0
ARC
  5
306
330
1E
100
AcDbEntity
  8
IMAGE
100
AcDbCircle
 10
1.374381233729037
 20
5.379938536933275
 30
0.0
 40
0.1738489379910888
100
AcDbArc
 50
278.5307656099478
 51
7.729439098363569
  0
ARC
  5
307
330
1E
100
AcDbEntity
  8
IMAGE
100
AcDbCircle
 10
1.32528514158672
 20
5.176993679728018
 30
0.0
 40
0.1738489379910888
100
AcDbArc
 50
339.7199718669747
 51
68.91864535539045
  0
ARC
  5
308
330
1E
100
AcDbEntity
  8
IMAGE
100
AcDbCircle
 10
1.550889429154726
 20
5.278949463532788
 30
0.0
 40
0.1738489379910888
100
AcDbArc
 50
159.7199718669747
 51
248.9186453553905
  0
ARC
  5
309
330
1E
100
AcDbEntity
  8
IMAGE
100
AcDbCircle
 10
1.587617345846557
 20
5.104882016445757
 30
0.0
 40
0.1738489379910888
100
AcDbArc
 50
143.5307656099477
 51
232.7294390983634
  0
ARC
  5
30A
330
1E
100
AcDbEntity
  8
IMAGE
100
AcDbCircle
 10
1.256927548995196
 20
4.718021272327777
 30
0.0
 40
0.1738489379910888
100
AcDbArc
 50
339.7199718669747
 51
68.91864535539045
  0
ARC
  5
30B
330
1E
100
AcDbEntity
  8
IMAGE
100
AcDbCircle
 10
1.32528514158672
 20
4.884032568621481
 30
0.0
 40
0.1738489379910888
100
AcDbArc
 50
339.7199718669747
 51
68.91864535539045
  0
ARC
  5
30C
330
1E
100
AcDbEntity
  8
IMAGE
100
AcDbCircle
 10
1.550889429154726
 20
4.985988352426252
 30
0.0
 40
0.1738489379910888
100
AcDbArc
 50
159.7199718669747
 51
248.9186453553905
  0
ARC
  5
30D
330
1E
100
AcDbEntity
  8
IMAGE
100
AcDbCircle
 10
1.186286881667582
 20
4.933154754369067
 30
0.0
 40
0.1738489379910888
100
AcDbArc
 50
323.5307656099477
 51
52.72943909836341
  0
ARC
  5
30E
330
1E
100
AcDbEntity
  8
IMAGE
100
AcDbCircle
 10
1.337509227491511
 20
4.811792194532171
 30
0.0
 40
0.1738489379910888
100
AcDbArc
 50
296.0563205359582
 51
25.2549940243739
  0
ARC
  5
30F
330
1E
100
AcDbEntity
  8
IMAGE
100
AcDbCircle
 10
1.571105245797363
 20
4.729785020138928
 30
0.0
 40
0.1738489379910888
100
AcDbArc
 50
116.0563205359582
 51
205.2549940243739
  0
ARC
  5
310
330
1E
100
AcDbEntity
  8
IMAGE
100
AcDbCircle
 10
1.572439449688384
 20
5.231394874963764
 30
0.0
 40
0.1738489379910888
100
AcDbArc
 50
98.53076560994793
 51
187.7294390983635
  0
ARC
  5
311
330
1E
100
AcDbEntity
  8
IMAGE
100
AcDbCircle
 10
1.211716888458255
 20
5.383943978611836
 30
0.0
 40
0.1738489379910888
100
AcDbArc
 50
296.0563205359582
 51
25.2549940243739
  0
ARC
  5
312
330
1E
100
AcDbEntity
  8
IMAGE
100
AcDbCircle
 10
1.342532807591068
 20
5.069869939552117
 30
0.0
 40
0.1738489379910888
100
AcDbArc
 50
323.5307656099477
 51
52.72943909836341
  0
ARC
  5
313
330
1E
100
AcDbEntity
  8
IMAGE
100
AcDbCircle
 10
1.361856131820528
 20
4.641364003529717
 30
0.0
 40
0.1738489379910888
100
AcDbArc
 50
296.0563205359582
 51
25.2549940243739
  0
LWPOLYLINE
  5
314
330
1E
100
AcDbEntity
  8
OPTION-ADAPT-PA-8SPRS
100
AcDbPolyline
 90
        2
 70
     0
 43
0.0
 10
1.847527048516319
 20
5.491559835148991
 10
2.021558901514096
 20
5.491559835148991
  0
LWPOLYLINE
  5
318
330
1E
100
AcDbEntity
  8
OPTION-ADAPT-PA-8SPRS
100
AcDbPolyline
 90
        2
 70
     0
 43
0.0
 10
2.061165901514097
 20
4.619595744589693
 10
2.061165901514097
 20
4.434722531517662
  0
LWPOLYLINE
  5
31C
330
1E
100
AcDbEntity
  8
OPTION-ADAPT-PA-8SPRS
100
AcDbPolyline
 90
        2
 70
     0
 43
0.0
 10
1.807920048516318
 20
4.619595744589693
 10
1.807920048516319
 20
4.434722531517663
  0
LWPOLYLINE
  5
320
330
1E
100
AcDbEntity
  8
OPTION-ADAPT-PA-8SPRS
100
AcDbPolyline
 90
        2
 70
     0
 43
0.0
 10
1.944447975015208
 20
4.619595744589692
 10
1.944447975015208
 20
4.434722531517664
  0
LWPOLYLINE
  5
324
330
1E
100
AcDbEntity
  8
OPTION-ADAPT-PA-8SPRS
100
AcDbPolyline
 90
        2
 70
     0
 43
0.0
 10
1.924637975015208
 20
4.619595744589692
 10
1.924637975015208
 20
4.434722531517664
  0
TEXT
  5
328
330
1E
100
AcDbEntity
  8
OPTION-ADAPT-PA-8SPRS
100
AcDbText
 10
5.274613407806193
 20
5.874548729999999
 30
0.0
 40
0.125
  1
  RAIN BIRD MODEL PA-8S-PRS
  7
SIMPLEX
100
AcDbText
  0
TEXT
  5
329
330
1E
100
AcDbEntity
  8
OPTION-ADAPT-PA-8SPRS
100
AcDbText
 10
5.274613407806193
 20
6.049548729999999
 30
0.0
 40
0.125
  1
PLASTIC SHRUB ADAPTER:
  7
SIMPLEX
100
AcDbText
  0
TEXT
  5
333
330
1E
100
AcDbEntity
  8
INSTRUCT-OPTION
100
AcDbText
 10
11.35568234055327
 20
7.473079503386613
 30
0.0
 40
0.125
  1
CHOOSE ONE OF THE FOLLOWING ADAPTER
  7
ROMANS
100
AcDbText
  0
TEXT
  5
334
330
1E
100
AcDbEntity
  8
INSTRUCT-OPTION
100
AcDbText
 10
7.77206486
 20
2.200831969999999
 30
0.0
 40
0.125
  1

  7
ROMANS
100
AcDbText
  0
TEXT
  5
335
330
1E
100
AcDbEntity
  8
INSTRUCT-OPTION
100
AcDbText
 10
11.35568234055327
 20
6.99259640211827
 30
0.0
 40
0.125
  1
  OPTION-ADAPT-A-8S
  7
ROMANS
100
AcDbText
  0
TEXT
  5
336
330
1E
100
AcDbEntity
  8
INSTRUCT-OPTION
100
AcDbText
 10
11.35568234055327
 20
6.81759640211827
 30
0.0
 40
0.125
  1
  OPTION-ADAPT-PA-8S
  7
ROMANS
100
AcDbText
  0
TEXT
  5
337
330
1E
100
AcDbEntity
  8
INSTRUCT-OPTION
100
AcDbText
 10
11.35568234055327
 20
6.64259640211827
 30
0.0
 40
0.125
  1
  OPTION-ADAPT-PA-8SPRS
  7
ROMANS
100
AcDbText
  0
ARC
  5
338
330
1E
100
AcDbEntity
  8
IMAGE
100
AcDbCircle
 10
2.541344695818905
 20
5.344582266201972
 30
0.0
 40
0.1738489379910888
100
AcDbArc
 50
159.7199718669747
 51
248.9186453553905
  0
ARC
  5
339
330
1E
100
AcDbEntity
  8
IMAGE
100
AcDbCircle
 10
2.315740408250901
 20
5.242626482397201
 30
0.0
 40
0.1738489379910888
100
AcDbArc
 50
339.7199718669747
 51
68.91864535539045
  0
ARC
  5
33A
330
1E
100
AcDbEntity
  8
IMAGE
100
AcDbCircle
 10
2.419610649413392
 20
5.365121978629058
 30
0.0
 40
0.1738489379910888
100
AcDbArc
 50
296.0563205359582
 51
25.2549940243739
  0
ARC
  5
33B
330
1E
100
AcDbEntity
  8
IMAGE
100
AcDbCircle
 10
2.653206667719246
 20
5.283114804235813
 30
0.0
 40
0.1738489379910888
100
AcDbArc
 50
116.0563205359582
 51
205.2549940243739
  0
TEXT
  5
33C
330
1E
100
AcDbEntity
  8
TEXT_LEADERS
100
AcDbText
 10
5.274613407806193
 20
4.123273011723119
 30
0.0
 40
0.125
  1
  (LENGTH AS REQUIRED)
  7
SIMPLEX
100
AcDbText
  0
TEXT
  5
33D
330
1E
100
AcDbEntity
  8
TEXT_BUBBLES
100
AcDbText
 10
4.878870189999999
 20
4.484365989999999
 30
0.0
 40
0.125
  1

  7
SIMPLEX
100
AcDbText
  0
INSERT
  5
35F
330
1E
100
AcDbEntity
  8
IMAGE
100
AcDbBlockReference
 66
     1
  2
titleblock
 10
0.0
 20
0.0
 30
0.0
  0
ATTRIB
  5
361
330
35F
100
AcDbEntity
  8
TITLE
100
AcDbText
 10
0.5055556038023421
 20
0.7842270964783673
 30
0.0
 40
0.2
  1
D
  7
L200
 72
     4
 11
0.6064423705144839
 21
0.8842270964783672
 31
0.0
100
AcDbAttribute
  2
D
 70
     0
  0
ATTRIB
  5
362
330
35F
100
AcDbEntity
  8
TITLE
100
AcDbText
 10
1.231442370514484
 20
1.34371230274675
 30
0.0
 40
0.2
  1

  7
L200
100
AcDbAttribute
  2
TITLE1
 70
     0
  0
ATTRIB
  5
363
330
35F
100
AcDbEntity
  8
TITLE
100
AcDbText
 10
1.231442370514484
 20
0.9842270964783674
 30
0.0
 40
0.2
  1
1800 NOZZLE ON RISER
  7
L200
100
AcDbAttribute
  2
TITLE2
 70
     0
  0
ATTRIB
  5
364
330
35F
100
AcDbEntity
  8
TITLE
100
AcDbText
 10
2.713645751168312
 20
0.5927927664583189
 30
0.0
 40
0.2
  1
WITH SWING PIPE
  7
L200
100
AcDbAttribute
  2
TITLE3
 70
     0
  0
ATTRIB
  5
365
330
35F
100
AcDbEntity
  8
TITLE
100
AcDbText
 10
2.713645751168312
 20
0.2692560808167741
 30
0.0
 40
0.2
  1

  7
L200
100
AcDbAttribute
  2
TITLE4
 70
     0
  0
ATTRIB
  5
366
330
35F
100
AcDbEntity
  8
TITLE
 62
     7
100
AcDbText
 10
7.689595782347332
 20
0.9696027915446398
 30
0.0
 40
0.08
  1
1-12-04
  7
L80
 72
     2
 11
8.261024353775903
 21
0.9696027915446398
 31
0.0
100
AcDbAttribute
  2
REVISED
 70
     0
  0
ATTRIB
  5
367
330
35F
100
AcDbEntity
  8
TITLE
 62
     7
100
AcDbText
 10
0.2639423705144838
 20
0.0847116480207214
 30
0.0
 40
0.08
  1
N-1800 NOZZLE ON RISER-SP.DWG
  7
L80
100
AcDbAttribute
  2
DWG-NAME
 70
     0
  0
ATTRIB
  5
368
330
35F
100
AcDbEntity
  8
TITLE
 62
     7
100
AcDbText
 10
1.231442370514484
 20
0.7005637793954894
 30
0.0
 40
0.1
  1
N.T.S.
  7
L100
100
AcDbAttribute
  2
SCALE
 70
     0
  0
SEQEND
  5
360
330
35F
100
AcDbEntity
  8
IMAGE
  0
TEXT
  5
370
330
1E
100
AcDbEntity
  8
INSTRUCT-CALLOUT
100
AcDbText
 10
11.35568234055327
 20
9.845526218521555
 30
0.0
 40
0.125
  1
CHOOSE EITHER LEADERS OR BUBBLE CALLOUTS
  7
ROMANS
100
AcDbText
  0
TEXT
  5
371
330
1E
100
AcDbEntity
  8
INSTRUCT-CALLOUT
100
AcDbText
 10
7.77206486
 20
2.37583197
 30
0.0
 40
0.125
  1

  7
ROMANS
100
AcDbText
  0
TEXT
  5
373
330
1E
100
AcDbEntity
  8
INSTRUCT-OPTION
100
AcDbText
 10
11.35568234055327
 20
7.648079503386613
 30
0.0
 40
0.125
  1
%%uADAPTER%%u
  7
ROMANS
100
AcDbText
  0
TEXT
  5
374
330
1E
100
AcDbEntity
  8
INSTRUCT-OPTION
100
AcDbText
 10
11.35568234055327
 20
7.298079503386613
 30
0.0
 40
0.125
  1
MODELS BY TURNING ON THE APPROPRIATE LAYER:
  7
ROMANS
100
AcDbText
  0
TEXT
  5
378
330
1E
100
AcDbEntity
  8
OPTION-ADAPT-PA-8S-NP
100
AcDbText
 10
5.274613407806193
 20
5.88436599
 30
0.0
 40
0.125
  1
  RAIN BIRD MODEL PA-8S-NP
  7
SIMPLEX
100
AcDbText
  0
TEXT
  5
379
330
1E
100
AcDbEntity
  8
OPTION-ADAPT-PA-8S-NP
100
AcDbText
 10
5.274613407806193
 20
6.059365989999999
 30
0.0
 40
0.125
  1
PLASTIC SHRUB ADAPTER:
  7
SIMPLEX
100
AcDbText
  0
LEADER
  5
380
330
1E
100
AcDbEntity
  8
TEXT_LEADERS
100
AcDbLeader
  3
Standard
 76
     3
 10
2.013771077275866
 20
5.604625050748165
 30
0.0
 10
4.352875406563781
 20
6.654699320370412
 30
0.0
 10
5.12459891972309
 20
6.654699320370411
 30
0.0
1001
ACAD
1000
DSTYLE
1002
{
1070
   147
1040
0.09
1070
    77
1070
     0
1070
   140
1040
0.1
1070
   279
1070
     2
1002
}
  0
LEADER
  5
382
330
1E
100
AcDbEntity
  8
TEXT_LEADERS
100
AcDbLeader
  3
Standard
 76
     3
 10
2.040378464320492
 20
5.39894778035556
 30
0.0
 10
3.811711838073576
 20
6.154962027238483
 30
0.0
 10
5.12459891972309
 20
6.154962027238482
 30
0.0
1001
ACAD
1000
DSTYLE
1002
{
1070
   147
1040
0.09
1070
    77
1070
     0
1070
   140
1040
0.1
1070
   279
1070
     2
1002
}
  0
LEADER
  5
383
330
1E
100
AcDbEntity
  8
TEXT_LEADERS
100
AcDbLeader
  3
Standard
 76
     3
 10
3.224277249412545
 20
4.978932185349863
 30
0.0
 10
4.352875406563782
 20
5.389708321000604
 30
0.0
 10
5.124598919723091
 20
5.389708321000603
 30
0.0
1001
ACAD
1000
DSTYLE
1002
{
1070
   147
1040
0.09
1070
    77
1070
     0
1070
   140
1040
0.1
1070
   279
1070
     2
1002
}
  0
LEADER
  5
384
330
1E
100
AcDbEntity
  8
TEXT_LEADERS
100
AcDbLeader
  3
Standard
 76
     3
 10
3.397497083270638
 20
4.434722531517662
 30
0.0
 10
4.638972531683759
 20
4.884594777193084
 30
0.0
 10
5.12459891972309
 20
4.884594777193083
 30
0.0
1001
ACAD
1000
DSTYLE
1002
{
1070
   147
1040
0.09
1070
    77
1070
     0
1070
   140
1040
0.1
1070
   279
1070
     2
1002
}
  0
LEADER
  5
385
330
1E
100
AcDbEntity
  8
TEXT_LEADERS
100
AcDbLeader
  3
Standard
 76
     3
 10
2.023291894308784
 20
3.675111775849679
 30
0.0
 10
4.352875406563782
 20
4.523010832547812
 30
0.0
 10
5.124598919723091
 20
4.523010832547811
 30
0.0
1001
ACAD
1000
DSTYLE
1002
{
1070
   147
1040
0.09
1070
    77
1070
     0
1070
   140
1040
0.1
1070
   279
1070
     2
1002
}
  0
LEADER
  5
386
330
1E
100
AcDbEntity
  8
TEXT_LEADERS
100
AcDbLeader
  3
Standard
 76
     3
 10
2.023362483591434
 20
3.041990470676855
 30
0.0
 10
4.352875406563782
 20
3.889863834977246
 30
0.0
 10
5.124598919723091
 20
3.889863834977245
 30
0.0
1001
ACAD
1000
DSTYLE
1002
{
1070
   147
1040
0.09
1070
    77
1070
     0
1070
   140
1040
0.1
1070
   279
1070
     2
1002
}
  0
LEADER
  5
387
330
1E
100
AcDbEntity
  8
TEXT_LEADERS
100
AcDbLeader
  3
Standard
 76
     3
 10
3.228829053168547
 20
2.880405218239677
 30
0.0
 10
4.058106579098835
 20
3.182237553624221
 30
0.0
 10
5.124598919723091
 20
3.182237553624221
 30
0.0
1001
ACAD
1000
DSTYLE
1002
{
1070
   147
1040
0.09
1070
    77
1070
     0
1070
   140
1040
0.1
1070
   279
1070
     2
1002
}
  0
LEADER
  5
388
330
1E
100
AcDbEntity
  8
TEXT_LEADERS
100
AcDbLeader
  3
Standard
 76
     3
 10
3.946522078956726
 20
2.567589919369488
 30
0.0
 10
4.352875406563782
 20
2.715490435213479
 30
0.0
 10
5.124598919723091
 20
2.715490435213478
 30
0.0
1001
ACAD
1000
DSTYLE
1002
{
1070
   147
1040
0.09
1070
    77
1070
     0
1070
   140
1040
0.1
1070
   279
1070
     2
1002
}
  0
LEADER
  5
389
330
1E
100
AcDbEntity
  8
TEXT_LEADERS
100
AcDbLeader
  3
Standard
 76
     3
 10
3.708800113573377
 20
2.298871689729283
 30
0.0
 10
4.352875406563781
 20
2.064447454454493
 30
0.0
 10
5.124598919723091
 20
2.064447454454493
 30
0.0
1001
ACAD
1000
DSTYLE
1002
{
1070
   147
1040
0.09
1070
    77
1070
     0
1070
   140
1040
0.1
1070
   279
1070
     2
1002
}
  0
LEADER
  5
38A
330
1E
100
AcDbEntity
  8
TEXT_LEADERS
100
AcDbLeader
  3
Standard
 76
     3
 10
2.935909794176404
 20
2.342689384496279
 30
0.0
 10
4.352875406563782
 20
1.826956078608493
 30
0.0
 10
5.124598919723092
 20
1.826956078608493
 30
0.0
1001
ACAD
1000
DSTYLE
1002
{
1070
   147
1040
0.09
1070
    77
1070
     0
1070
   140
1040
0.1
1070
   279
1070
     2
1002
}
  0
TEXT
  5
393
330
1E
100
AcDbEntity
  8
TEXT_BUBBLES
100
AcDbText
 10
5.274613407806193
 20
5.184365989999999
 30
0.0
 40
0.125
  1
FINISH GRADE/TOP OF MULCH
  7
SIMPLEX
100
AcDbText
  0
TEXT
  5
394
330
1E
100
AcDbEntity
  8
TEXT_BUBBLES
100
AcDbText
 10
5.274613407806193
 20
4.83436599
 30
0.0
 40
0.125
  1
UV RADIATION RESISTANT
  7
SIMPLEX
100
AcDbText
  0
TEXT
  5
395
330
1E
100
AcDbEntity
  8
TEXT_BUBBLES
100
AcDbText
 10
5.274613407806193
 20
4.484365989999999
 30
0.0
 40
0.125
  1
  (LENGTH AS REQUIRED)
  7
SIMPLEX
100
AcDbText
  0
LINE
  5
398
330
1E
100
AcDbEntity
  8
IMAGE
100
AcDbLine
 10
4.246396798391502
 20
2.342689384496279
 30
0.0
 11
4.546232830672735
 21
2.342689384496279
 31
0.0
  0
LEADER
  5
39B
330
1E
100
AcDbEntity
  8
TEXT_BUBBLES
100
AcDbLeader
  3
Standard
 76
     2
 10
2.013771077275866
 20
5.608100883663173
 30
0.0
 10
3.813029859425613
 20
6.262977524107737
 30
0.0
1001
ACAD
1000
DSTYLE
1002
{
1070
   147
1040
0.09
1070
    77
1070
     0
1070
   140
1040
0.1
1070
   279
1070
     2
1002
}
  0
LEADER
  5
39C
330
1E
100
AcDbEntity
  8
TEXT_BUBBLES
100
AcDbLeader
  3
Standard
 76
     2
 10
2.040378464320492
 20
5.389299647315613
 30
0.0
 10
3.776597577755777
 20
6.022952650081109
 30
0.0
1001
ACAD
1000
DSTYLE
1002
{
1070
   147
1040
0.09
1070
    77
1070
     0
1070
   140
1040
0.1
1070
   279
1070
     2
1002
}
  0
LEADER
  5
39D
330
1E
100
AcDbEntity
  8
TEXT_BUBBLES
100
AcDbLeader
  3
Standard
 76
     2
 10
3.224277249412546
 20
4.978932185349863
 30
0.0
 10
3.784291360520122
 20
5.182760652562067
 30
0.0
1001
ACAD
1000
DSTYLE
1002
{
1070
   147
1040
0.09
1070
    77
1070
     0
1070
   140
1040
0.1
1070
   279
1070
     2
1002
}
  0
LEADER
  5
39E
330
1E
100
AcDbEntity
  8
TEXT_BUBBLES
100
AcDbLeader
  3
Standard
 76
     2
 10
3.402958695051194
 20
4.434722531517663
 30
0.0
 10
3.794272658691018
 20
4.579137030654525
 30
0.0
1001
ACAD
1000
DSTYLE
1002
{
1070
   147
1040
0.09
1070
    77
1070
     0
1070
   140
1040
0.1
1070
   279
1070
     2
1002
}
  0
LEADER
  5
39F
330
1E
100
AcDbEntity
  8
TEXT_BUBBLES
100
AcDbLeader
  3
Standard
 76
     2
 10
2.023291894308784
 20
3.522869939437032
 30
0.0
 10
3.792262075418048
 20
4.166722430665296
 30
0.0
1001
ACAD
1000
DSTYLE
1002
{
1070
   147
1040
0.09
1070
    77
1070
     0
1070
   140
1040
0.1
1070
   279
1070
     2
1002
}
  0
LEADER
  5
3A0
330
1E
100
AcDbEntity
  8
TEXT_BUBBLES
100
AcDbLeader
  3
Standard
 76
     2
 10
2.023362483591434
 20
3.041990470676855
 30
0.0
 10
3.792385014074284
 20
3.685862015518887
 30
0.0
1001
ACAD
1000
DSTYLE
1002
{
1070
   147
1040
0.09
1070
    77
1070
     0
1070
   140
1040
0.1
1070
   279
1070
     2
1002
}
  0
LEADER
  5
3A1
330
1E
100
AcDbEntity
  8
TEXT_BUBBLES
100
AcDbLeader
  3
Standard
 76
     2
 10
3.228829053168547
 20
2.880405218239677
 30
0.0
 10
3.784264638794712
 20
3.082567238459818
 30
0.0
1001
ACAD
1000
DSTYLE
1002
{
1070
   147
1040
0.09
1070
    77
1070
     0
1070
   140
1040
0.1
1070
   279
1070
     2
1002
}
  0
LEADER
  5
3A2
330
1E
100
AcDbEntity
  8
TEXT_BUBBLES
100
AcDbLeader
  3
Standard
 76
     2
 10
4.148918244314913
 20
2.298871689729283
 30
0.0
 10
4.083748690244537
 20
1.929276782537359
 30
0.0
1001
ACAD
1000
DSTYLE
1002
{
1070
   147
1040
0.09
1070
    77
1070
     0
1070
   140
1040
0.1
1070
   279
1070
     2
1002
}
  0
LEADER
  5
3A3
330
1E
100
AcDbEntity
  8
TEXT_BUBBLES
100
AcDbLeader
  3
Standard
 76
     2
 10
3.808299051916463
 20
2.414309028690897
 30
0.0
 10
3.721865180634252
 20
1.924118185888918
 30
0.0
1001
ACAD
1000
DSTYLE
1002
{
1070
   147
1040
0.09
1070
    77
1070
     0
1070
   140
1040
0.1
1070
   279
1070
     2
1002
}
  0
LEADER
  5
3A4
330
1E
100
AcDbEntity
  8
TEXT_BUBBLES
100
AcDbLeader
  3
Standard
 76
     2
 10
2.92517521752526
 20
2.342689384496279
 30
0.0
 10
2.851699851148988
 20
1.92598987497678
 30
0.0
1001
ACAD
1000
DSTYLE
1002
{
1070
   147
1040
0.09
1070
    77
1070
     0
1070
   140
1040
0.1
1070
   279
1070
     2
1002
}
  0
HATCH
  5
3E7
330
1E
100
AcDbEntity
  8
IMAGE
100
AcDbHatch
 10
0.0
 20
0.0
 30
0.0
210
0.0
220
0.0
230
1.0
  2
EARTH
 70
     0
 71
     0
 91
        2
 92
        1
 93
        9
 72
     1
 10
0.3622131494019217
 20
4.434722531517662
 11
0.5030815857296177
 21
4.279543740194757
 72
     1
 10
0.5030815857296177
 20
4.279543740194757
 11
0.6229726139549279
 21
4.19898369080835
 72
     1
 10
0.6229726139549279
 20
4.19898369080835
 11
0.7696339600329586
 21
4.150116317033631
 72
     1
 10
0.7696339600329586
 20
4.150116317033631
 11
1.019189633414304
 21
4.116829277940358
 72
     1
 10
1.019189633414304
 20
4.116829277940358
 11
1.329352092544251
 21
4.087580482100762
 72
     1
 10
1.329352092544251
 20
4.087580482100762
 11
1.664044266444629
 21
4.082861401031597
 72
     1
 10
1.664044266444629
 20
4.082861401031597
 11
1.845794055721632
 21
4.082861401031597
 72
     1
 10
1.845794055721632
 20
4.082861401031597
 11
1.845794055721632
 21
4.434316817793371
 72
     1
 10
1.845794055721632
 20
4.434316817793371
 11
0.3622131494019218
 21
4.434722531517662
 97
        0
 92
        1
 93
        8
 72
     1
 10
2.023291894308784
 20
4.434722531517663
 11
3.14727624682917
 21
4.434722531517663
 72
     1
 10
3.14727624682917
 20
4.434722531517663
 11
3.128409335467883
 21
4.359287077661453
 72
     1
 10
3.128409335467883
 20
4.359287077661453
 11
3.018709029338616
 21
4.17912606021146
 72
     1
 10
3.018709029338616
 20
4.17912606021146
 11
2.607286347302961
 21
4.138000402287724
 72
     1
 10
2.607286347302961
 20
4.138000402287724
 11
2.253349537151067
 21
4.106481246788797
 72
     1
 10
2.253349537151067
 20
4.106481246788797
 11
2.068222922263018
 21
4.09106025938552
 72
     1
 10
2.068222922263018
 20
4.09106025938552
 11
2.023291894308784
 21
4.09106025938552
 72
     1
 10
2.023291894308784
 20
4.09106025938552
 11
2.023291894308784
 21
4.434722531517663
 97
        0
 75
     0
 76
     1
 52
45.0
 41
0.75
 77
     0
 78
     6
 53
45.0
 43
0.0
 44
0.0
 45
0.0
 46
0.2651650429449553
 79
     2
 49
0.1875
 49
-0.1875
 53
45.0
 43
-0.0497184455521791
 44
0.0497184455521791
 45
0.0
 46
0.2651650429449553
 79
     2
 49
0.1875
 49
-0.1875
 53
45.0
 43
-0.0994368911043583
 44
0.0994368911043583
 45
0.0
 46
0.2651650429449553
 79
     2
 49
0.1875
 49
-0.1875
 53
135.0
 43
-0.0994368911043583
 44
0.1325825214724777
 45
-0.2651650429449553
 46
0.0
 79
     2
 49
0.1875
 49
-0.1875
 53
135.0
 43
-0.0497184455521791
 44
0.1823009670246568
 45
-0.2651650429449553
 46
0.0
 79
     2
 49
0.1875
 49
-0.1875
 53
135.0
 43
0.0
 44
0.2320194125768359
 45
-0.2651650429449553
 46
0.0
 79
     2
 49
0.1875
 49
-0.1875
 98
        1
 10
0.0
 20
0.0
  0
TEXT
  5
3F1
330
1E
100
AcDbEntity
  8
TEXT_LEADERS
100
AcDbText
 10
5.274613407806193
 20
6.585201514592564
 30
0.0
 40
0.125
  1
PLASTIC NOZZLE: RAIN BIRD
  7
SIMPLEX
100
AcDbText
  0
TEXT
  5
3F2
330
1E
100
AcDbEntity
  8
TEXT_LEADERS
100
AcDbText
 10
5.274613407806193
 20
6.410201514592563
 30
0.0
 40
0.125
  1
  1800 SERIES
  7
SIMPLEX
100
AcDbText
  0
LINE
  5
3F4
330
1E
100
AcDbEntity
  8
INSTRUCT-OPTION
100
AcDbLine
 10
11.34310008231475
 20
7.91559810604222
 30
0.0
 11
11.34310008231475
 21
6.568794213541268
 31
0.0
  0
LINE
  5
3F5
330
1E
100
AcDbEntity
  8
INSTRUCT-OPTION
100
AcDbLine
 10
11.34310008231475
 20
6.568794213541267
 30
0.0
 11
16.43887510825974
 21
6.568794213541267
 31
0.0
  0
LINE
  5
3F6
330
1E
100
AcDbEntity
  8
INSTRUCT-OPTION
100
AcDbLine
 10
16.43887510825974
 20
6.568794213541268
 30
0.0
 11
16.43887510825974
 21
7.91559810604222
 31
0.0
  0
LINE
  5
3F7
330
1E
100
AcDbEntity
  8
INSTRUCT-OPTION
100
AcDbLine
 10
16.43887510825974
 20
7.91559810604222
 30
0.0
 11
11.34310008231475
 21
7.91559810604222
 31
0.0
  0
VIEWPORT
  5
F3
330
1A
100
AcDbEntity
 67
     1
  8
0
100
AcDbViewport
 10
6.172388059701492
 20
4.5
 30
0.0
 40
12.34477611940298
 41
9.0
 68
     1
 69
     1
 12
6.172388059701492
 22
4.5
 13
0.0
 23
0.0
 14
0.14
 24
0.14
 15
0.14
 25
0.14
 16
0.0
 26
0.0
 36
1.0
 17
0.0
 27
0.0
 37
0.0
 42
50.0
 43
0.0
 44
0.0
 45
9.0
 50
0.0
 51
0.0
 72
   100
 90
    32800
  1

281
     0
 71
     0
 74
     0
110
0.0
120
0.0
130
0.0
111
0.0
121
0.0
131
0.0
112
0.0
122
0.0
132
0.0
 79
     0
146
0.0
  0
ENDSEC
  0
SECTION
  2
OBJECTS
  0
DICTIONARY
  5
C
330
0
100
AcDbDictionary
281
     1
  3
ACAD_GROUP
350
D
  3
ACAD_LAYOUT
350
19
  3
ACAD_MLINESTYLE
350
16
  3
ACAD_PLOTSETTINGS
350
18
  3
ACAD_PLOTSTYLENAME
350
E
  3
AcadDim
350
3F9
  3
AcDbVariableDictionary
350
341
  0
DICTIONARY
  5
D
102
{ACAD_REACTORS
330
C
102
}
330
C
100
AcDbDictionary
281
     1
  0
DICTIONARY
  5
19
102
{ACAD_REACTORS
330
C
102
}
330
C
100
AcDbDictionary
281
     1
  3
Layout1
350
1D
  3
Model
350
21
  0
DICTIONARY
  5
16
102
{ACAD_REACTORS
330
C
102
}
330
C
100
AcDbDictionary
281
     1
  3
Standard
350
17
  0
DICTIONARY
  5
18
102
{ACAD_REACTORS
330
C
102
}
330
C
100
AcDbDictionary
281
     1
  3
1055 B&W Full Shaded Draft
350
3B1
  3
1055 B&W Full Shaded Final
350
3B2
  3
1055 Color Full Shaded Draft
350
3B3
  3
1055 Color Full Shaded Final
350
3B4
  3
1055 PLUS B&W Full Shaded Draft
350
3B5
  3
1055 PLUS B&W Full Shaded Final
350
3B6
  3
1055 PLUS Color Full Shaded Draft
350
3B7
  3
1055 PLUS Color Full Shaded Final
350
3B8
  3
1055-B&W-Shaded-Draft
350
3B9
  3
1055-B&W-Shaded-Final
350
3BA
  3
1055-Color-Shaded-Draft
350
3BB
  3
1055-Color-Shaded-Final
350
3BC
  3
1055-PLUS-B&W-Shaded-Draft
350
3BD
  3
1055-PLUS-B&W-Shaded-Final
350
3BE
  3
1055-PLUS-Color-Shaded-Draft
350
3BF
  3
1055-PLUS-Color-Shaded-Final
350
3C0
  3
2200 Color Inkjet
350
3C1
  3
2200-Color-Inkjet
350
3C2
  3
24x36 PDF
350
3C3
  3
8500 B&W Shaded 11x17
350
3C4
  3
8500 B&W Shaded 8.5x11
350
3C5
  3
8500 Color Shaded 11x17
350
3C6
  3
8500 Color Shaded 8.5x11
350
3C7
  3
8500-B&W-Shaded-11x17
350
3C8
  3
8500-B&W-Shaded-8.5x11
350
3C9
  3
8500-Color-Shaded-11x17
350
3CA
  3
8500-Color-Shaded-8.5x11
350
3CB
  3
Laser Jet 5 Shaded 11x17
350
3CC
  3
Laser Jet 5 Shaded 8.5x11
350
3CD
  3
LaserJet5-Shaded-11x17
350
3CE
  3
LaserJet5-Shaded-8.5x11
350
3CF
  3
Oki Doki B&W Shaded 11x17
350
3D0
  3
Oki Doki B&W Shaded 8.5x11
350
3D1
  3
Oki Doki Color Laser
350
3D2
  3
Oki Doki Color Shaded 11x17
350
3D3
  3
Oki Doki Color Shaded 8.5x11
350
3D4
  3
Oki-Doki-B&W-Shaded-11x17
350
3D5
  3
Oki-Doki-B&W-Shaded-8.5x11
350
3D6
  3
Oki-Doki-Color-Laser
350
3D7
  3
Oki-Doki-Color-Shaded-11x17
350
3D8
  3
Oki-Doki-Color-Shaded-8.5x11
350
3D9
  0
ACDBDICTIONARYWDFLT
  5
E
102
{ACAD_REACTORS
330
C
102
}
330
C
100
AcDbDictionary
281
     1
  3
Normal
350
F
100
AcDbDictionaryWithDefault
340
F
  0
XRECORD
  5
3F9
102
{ACAD_REACTORS
330
C
102
}
330
C
100
AcDbXrecord
280
     1
 90
   990106
  3

 60
     4
 61
     0
 62
     1
 63
     3
 64
     0
 65
     0
 66
     0
 67
     3
 68
     1
 69
     0
 70
     0
 71
     0
 72
     0
 40
0.0
170
     0
  0
DICTIONARY
  5
341
102
{ACAD_REACTORS
330
C
102
}
330
C
100
AcDbDictionary
281
     1
  3
DIMASSOC
350
344
  3
HIDETEXT
350
343
  3
SORTENTS
350
342
  0
LAYOUT
  5
1D
102
{ACAD_REACTORS
330
19
102
}
330
19
100
AcDbPlotSettings
  1

  2
S:\AutoCAD 2002\Plotters\1055B&WDraftShaded.pc3
  4

  6

 40
0.0
 41
0.0
 42
0.0
 43
0.0
 44
0.0
 45
0.0
 46
0.0
 47
0.0
 48
0.0
 49
0.0
140
0.0
141
0.0
142
1.0
143
1.0
 70
   688
 72
     0
 73
     0
 74
     5
  7
TRexLJ5Shaded2.ctb
 75
    16
147
1.0
148
0.0
149
0.0
100
AcDbLayout
  1
Layout1
 70
     1
 71
     1
 10
0.0
 20
0.0
 11
12.0
 21
9.0
 12
0.0
 22
0.0
 32
0.0
 14
1.000000000000000E+20
 24
1.000000000000000E+20
 34
1.000000000000000E+20
 15
-1.000000000000000E+20
 25
-1.000000000000000E+20
 35
-1.000000000000000E+20
146
0.0
 13
0.0
 23
0.0
 33
0.0
 16
1.0
 26
0.0
 36
0.0
 17
0.0
 27
1.0
 37
0.0
 76
     0
330
1A
331
F3
  0
LAYOUT
  5
21
102
{ACAD_REACTORS
330
19
102
}
330
19
100
AcDbPlotSettings
  1

  2
OKI DOKI Color Laser.pc3
  4
Tabloid
  6
PS1
 40
5.027083396911621
 41
5.027085304260253
 42
5.027099609375
 43
5.027069091796875
 44
279.3999938964843
 45
431.7999877929687
 46
1.27
 47
0.0
 48
180360.0524337165
 49
80033.77936194791
140
180369.1574725906
141
80037.61796031875
142
1.0
143
0.9931242156595709
 70
 11956
 72
     0
 73
     1
 74
     3
  7
OKIColorShaded.ctb
 75
     0
147
1.006923388063659
148
0.0000000000000115
149
0.0
100
AcDbLayout
  1
Model
 70
     1
 71
     0
 10
0.0
 20
0.0
 11
12.0
 21
9.0
 12
0.0
 22
0.0
 32
0.0
 14
0.0
 24
0.0
 34
0.0
 15
0.0
 25
0.0
 35
0.0
146
0.0
 13
0.0
 23
0.0
 33
0.0
 16
1.0
 26
0.0
 36
0.0
 17
0.0
 27
1.0
 37
0.0
 76
     0
330
1E
  0
MLINESTYLE
  5
17
102
{ACAD_REACTORS
330
16
102
}
330
16
100
AcDbMlineStyle
  2
STANDARD
 70
     0
  3

 62
   256
 51
90.0
 52
90.0
 71
     2
 49
0.5
 62
   256
  6
BYLAYER
 49
-0.5
 62
   256
  6
BYLAYER
  0
PLOTSETTINGS
  5
3B1
102
{ACAD_REACTORS
330
18
102
}
330
18
100
AcDbPlotSettings
  1
1055 B&W Full Shaded Draft
  2
1055B&WDraftShaded.pc3
  4
User607
  6
ps1
 40
0.0
 41
0.0
 42
0.0
 43
0.0
 44
901.7000122070312
 45
1155.700073242187
 46
0.0
 47
0.0
 48
180377.877572
 49
80019.819395
140
180380.8390819999
141
80022.26069
142
1.0
143
1.0
 70
   688
 72
     0
 73
     2
 74
     3
  7
1055B&WFullDraftShaded.ctb
 75
    16
147
1.0
148
-4581603.303200401
149
-2032962.095032944
  0
PLOTSETTINGS
  5
3B2
102
{ACAD_REACTORS
330
18
102
}
330
18
100
AcDbPlotSettings
  1
1055 B&W Full Shaded Final
  2
1055B&WFinalShaded.pc3
  4
User257
  6
PS1
 40
4.995333194732666
 41
8.297271728515625
 42
4.99530029296875
 43
8.29736328125
 44
911.6906738281249
 45
1172.294677734375
 46
0.0
 47
0.0
 48
180377.877572
 49
80019.819395
140
180380.8390819999
141
80022.26069
142
1.0
143
1.0
 70
   688
 72
     0
 73
     3
 74
     3
  7
1055B&WFullFinalShaded.ctb
 75
    16
147
1.0
148
-4581603.303200401
149
-2032962.095032944
  0
PLOTSETTINGS
  5
3B3
102
{ACAD_REACTORS
330
18
102
}
330
18
100
AcDbPlotSettings
  1
1055 Color Full Shaded Draft
  2
1055ColorDraftShaded.pc3
  4
User607
  6
PS1
 40
0.0
 41
0.0
 42
0.0
 43
0.0
 44
901.7000122070312
 45
1155.700073242187
 46
0.0
 47
0.0
 48
180377.877572
 49
80019.819395
140
180380.8390819999
141
80022.26069
142
1.0
143
1.0
 70
   688
 72
     0
 73
     2
 74
     3
  7
1055ColorFullDraftShaded.ctb
 75
    16
147
1.0
148
-4581603.303200401
149
-2032962.095032944
  0
PLOTSETTINGS
  5
3B4
102
{ACAD_REACTORS
330
18
102
}
330
18
100
AcDbPlotSettings
  1
1055 Color Full Shaded Final
  2
1055ColorFinalShaded.pc3
  4
User607
  6
PS1
 40
0.0
 41
0.0
 42
0.0
 43
0.0
 44
901.7000122070312
 45
1155.700073242187
 46
0.0
 47
0.0
 48
180377.877572
 49
80019.819395
140
180380.8390819999
141
80022.26069
142
1.0
143
1.0
 70
   688
 72
     0
 73
     2
 74
     3
  7
1055ColorFullFinalShaded.ctb
 75
    16
147
1.0
148
-4581603.303200401
149
-2032962.095032944
  0
PLOTSETTINGS
  5
3B5
102
{ACAD_REACTORS
330
18
102
}
330
18
100
AcDbPlotSettings
  1
1055 PLUS B&W Full Shaded Draft
  2
1055_PLUS_B&WDraftShaded.pc3
  4
User257
  6
ps1
 40
4.995333194732666
 41
8.297393798828125
 42
4.99530029296875
 43
8.29736328125
 44
901.6152954101562
 45
1155.615356445312
 46
0.0
 47
0.0
 48
180377.877572
 49
80019.819395
140
180380.8390819999
141
80022.26069
142
1.0
143
1.0
 70
   688
 72
     0
 73
     3
 74
     5
  7
1055B&WFullDraftShaded.ctb
 75
    16
147
1.0
148
-4581603.303200401
149
-2032962.095032944
  0
PLOTSETTINGS
  5
3B6
102
{ACAD_REACTORS
330
18
102
}
330
18
100
AcDbPlotSettings
  1
1055 PLUS B&W Full Shaded Final
  2
1055_PLUS_B&WFinalShaded.pc3
  4
User257
  6
PS1
 40
4.995333194732666
 41
8.297271728515625
 42
4.99530029296875
 43
8.29736328125
 44
901.6576538085937
 45
1155.657592773437
 46
0.0
 47
0.0
 48
180377.877572
 49
80019.819395
140
180380.8390819999
141
80022.26069
142
1.0
143
1.0
 70
   688
 72
     0
 73
     3
 74
     5
  7
1055B&WFullFinalShaded.ctb
 75
    16
147
1.0
148
-4581603.303200401
149
-2032962.095032944
  0
PLOTSETTINGS
  5
3B7
102
{ACAD_REACTORS
330
18
102
}
330
18
100
AcDbPlotSettings
  1
1055 PLUS Color Full Shaded Draft
  2
1055_PLUS_ColorDraftShaded.pc3
  4
User257
  6
PS1
 40
4.995333194732666
 41
8.297393798828125
 42
4.99530029296875
 43
8.29736328125
 44
901.6152954101562
 45
1155.615356445312
 46
0.0
 47
0.0
 48
180377.877572
 49
80019.819395
140
180380.8390819999
141
80022.26069
142
1.0
143
1.0
 70
   688
 72
     0
 73
     3
 74
     5
  7
1055ColorFullDraftShaded.ctb
 75
    16
147
1.0
148
-4581603.303200401
149
-2032962.095032944
  0
PLOTSETTINGS
  5
3B8
102
{ACAD_REACTORS
330
18
102
}
330
18
100
AcDbPlotSettings
  1
1055 PLUS Color Full Shaded Final
  2
1055_PLUS_ColorFinalShaded.pc3
  4
User257
  6
PS1
 40
4.995333194732666
 41
8.297271728515625
 42
4.99530029296875
 43
8.29736328125
 44
901.6576538085937
 45
1155.657592773437
 46
0.0
 47
0.0
 48
180377.877572
 49
80019.819395
140
180380.8390819999
141
80022.26069
142
1.0
143
1.0
 70
   688
 72
     0
 73
     3
 74
     5
  7
1055ColorFullFinalShaded.ctb
 75
    16
147
1.0
148
-4581603.303200401
149
-2032962.095032944
  0
PLOTSETTINGS
  5
3B9
102
{ACAD_REACTORS
330
18
102
}
330
18
100
AcDbPlotSettings
  1
1055-B&W-Shaded-Draft
  2
1055B&WDraftShaded.pc3
  4
User257
  6

 40
4.995333194732666
 41
8.297393798828125
 42
4.99530029296875
 43
8.29736328125
 44
901.6152954101562
 45
1155.615356445312
 46
0.0
 47
0.0
 48
180360.0524337165
 49
80033.77936194791
140
180369.1574725906
141
80037.61796031875
142
1.0
143
30.0
 70
  1696
 72
     0
 73
     1
 74
     1
  7
1055B&WFullDraftShaded.ctb
 75
     0
147
0.0333333333333333
148
-190.0773302744904
149
-129.2444057835751
  0
PLOTSETTINGS
  5
3BA
102
{ACAD_REACTORS
330
18
102
}
330
18
100
AcDbPlotSettings
  1
1055-B&W-Shaded-Final
  2
1055B&WFinalShaded.pc3
  4
User607
  6

 40
0.0
 41
0.0
 42
0.0
 43
0.0
 44
901.7000122070312
 45
1155.700073242187
 46
0.0
 47
0.0
 48
180360.0524337165
 49
80033.77936194791
140
180369.1574725906
141
80037.61796031875
142
1.0
143
30.0
 70
  1696
 72
     0
 73
     1
 74
     1
  7
1055B&WFullFinalShaded.ctb
 75
     0
147
0.0333333333333333
148
-190.0773302744904
149
-129.2444057835751
  0
PLOTSETTINGS
  5
3BB
102
{ACAD_REACTORS
330
18
102
}
330
18
100
AcDbPlotSettings
  1
1055-Color-Shaded-Draft
  2
1055ColorDraftShaded.pc3
  4
User257
  6

 40
4.995333194732666
 41
8.297393798828125
 42
4.99530029296875
 43
8.29736328125
 44
901.6152954101562
 45
1155.615356445312
 46
0.0
 47
0.0
 48
180360.0524337165
 49
80033.77936194791
140
180369.1574725906
141
80037.61796031875
142
1.0
143
30.0
 70
  1696
 72
     0
 73
     1
 74
     1
  7
1055ColorFullDraftShaded.ctb
 75
     0
147
0.0333333333333333
148
-190.0773302744904
149
-129.2444057835751
  0
PLOTSETTINGS
  5
3BC
102
{ACAD_REACTORS
330
18
102
}
330
18
100
AcDbPlotSettings
  1
1055-Color-Shaded-Final
  2
1055ColorDraftShaded.pc3
  4
User257
  6

 40
4.995333194732666
 41
8.297393798828125
 42
4.99530029296875
 43
8.29736328125
 44
901.6152954101562
 45
1155.615356445312
 46
0.0
 47
0.0
 48
180360.0524337165
 49
80033.77936194791
140
180369.1574725906
141
80037.61796031875
142
1.0
143
30.0
 70
  1696
 72
     0
 73
     1
 74
     1
  7
1055ColorFullFinalShaded.ctb
 75
     0
147
0.0333333333333333
148
-190.0773302744904
149
-129.2444057835751
  0
PLOTSETTINGS
  5
3BD
102
{ACAD_REACTORS
330
18
102
}
330
18
100
AcDbPlotSettings
  1
1055-PLUS-B&W-Shaded-Draft
  2
1055_PLUS_B&WDraftShaded.pc3
  4
User257
  6

 40
4.995333194732666
 41
8.297393798828125
 42
4.99530029296875
 43
8.29736328125
 44
901.6152954101562
 45
1155.615356445312
 46
0.0
 47
0.0
 48
180360.0524337165
 49
80033.77936194791
140
180369.1574725906
141
80037.61796031875
142
1.0
143
30.0
 70
  1696
 72
     0
 73
     1
 74
     0
  7
1055B&WFullDraftShaded.ctb
 75
     0
147
0.0333333333333333
148
0.9506237099442845
149
8.593888772447144
  0
PLOTSETTINGS
  5
3BE
102
{ACAD_REACTORS
330
18
102
}
330
18
100
AcDbPlotSettings
  1
1055-PLUS-B&W-Shaded-Final
  2
1055_PLUS_B&WFinalShaded.pc3
  4
User257
  6

 40
4.995333194732666
 41
8.297271728515625
 42
4.99530029296875
 43
8.29736328125
 44
901.6576538085937
 45
1155.657592773437
 46
0.0
 47
0.0
 48
180360.0524337165
 49
80033.77936194791
140
180369.1574725906
141
80037.61796031875
142
1.0
143
30.0
 70
  1696
 72
     0
 73
     1
 74
     0
  7
1055B&WFullFinalShaded.ctb
 75
     0
147
0.0333333333333333
148
0.9506237099442845
149
8.593888772447144
  0
PLOTSETTINGS
  5
3BF
102
{ACAD_REACTORS
330
18
102
}
330
18
100
AcDbPlotSettings
  1
1055-PLUS-Color-Shaded-Draft
  2
1055_PLUS_ColorDraftShaded.pc3
  4
User257
  6

 40
4.995333194732666
 41
8.297393798828125
 42
4.99530029296875
 43
8.29736328125
 44
901.6152954101562
 45
1155.615356445312
 46
0.0
 47
0.0
 48
180360.0524337165
 49
80033.77936194791
140
180369.1574725906
141
80037.61796031875
142
1.0
143
30.0
 70
  1696
 72
     0
 73
     1
 74
     0
  7
1055ColorFullDraftShaded.ctb
 75
     0
147
0.0333333333333333
148
0.9506237099442845
149
8.593888772447144
  0
PLOTSETTINGS
  5
3C0
102
{ACAD_REACTORS
330
18
102
}
330
18
100
AcDbPlotSettings
  1
1055-PLUS-Color-Shaded-Final
  2
1055_PLUS_ColorFinalShaded.pc3
  4
User257
  6

 40
4.995333194732666
 41
8.297271728515625
 42
4.99530029296875
 43
8.29736328125
 44
901.6576538085937
 45
1155.657592773437
 46
0.0
 47
0.0
 48
180360.0524337165
 49
80033.77936194791
140
180369.1574725906
141
80037.61796031875
142
1.0
143
30.0
 70
  1696
 72
     0
 73
     1
 74
     0
  7
1055ColorFullFinalShaded.ctb
 75
     0
147
0.0333333333333333
148
0.9506237099442845
149
8.593888772447144
  0
PLOTSETTINGS
  5
3C1
102
{ACAD_REACTORS
330
18
102
}
330
18
100
AcDbPlotSettings
  1
2200 Color Inkjet
  2
HP  2200 Color Inkjet.pc3
  4
Letter
  6
PS1
 40
7.143749713897705
 41
12.47775650024414
 42
7.14373779296875
 43
3.17498779296875
 44
215.8999938964843
 45
279.3999938964843
 46
0.0
 47
0.0
 48
180377.877572
 49
80019.819395
140
180380.8390819999
141
80022.26069
142
1.0
143
0.3486331030131726
 70
   688
 72
     0
 73
     1
 74
     3
  7
Color.ctb
 75
     0
147
2.868344948764708
148
-4581603.303200401
149
-2032962.095032944
  0
PLOTSETTINGS
  5
3C2
102
{ACAD_REACTORS
330
18
102
}
330
18
100
AcDbPlotSettings
  1
2200-Color-Inkjet
  2
HP  2200 Color Inkjet.pc3
  4
Letter
  6

 40
7.143749713897705
 41
12.47775650024414
 42
7.14373779296875
 43
3.17498779296875
 44
215.8999938964843
 45
279.3999938964843
 46
0.0
 47
0.0
 48
180360.0524337165
 49
80033.77936194791
140
180369.1574725906
141
80037.61796031875
142
1.0
143
0.069393053089765
 70
  1712
 72
     0
 73
     1
 74
     1
  7
Color.ctb
 75
     0
147
14.41066440334347
148
-190.0773302744904
149
-129.2444057835751
  0
PLOTSETTINGS
  5
3C3
102
{ACAD_REACTORS
330
18
102
}
330
18
100
AcDbPlotSettings
  1
24x36 PDF
  2
Bluebeam PDF Printer.pc3
  4
User128
  6
PS1
 40
3.174999952316284
 41
3.174999952316284
 42
3.17498779296875
 43
3.17498779296875
 44
609.5999755859375
 45
914.3999633789062
 46
270.5099999999999
 47
416.3059999999999
 48
180377.877572
 49
80019.819395
140
180380.8390819999
141
80022.26069
142
1.0
143
1.0
 70
   692
 72
     0
 73
     1
 74
     4
  7
1055B&WFullDraftShaded.ctb
 75
    16
147
1.0
148
-4581598.0903288
149
-2032503.412632999
  0
PLOTSETTINGS
  5
3C4
102
{ACAD_REACTORS
330
18
102
}
330
18
100
AcDbPlotSettings
  1
8500 B&W Shaded 11x17
  2
8500B&WShaded.pc3
  4
11x17
  6
PS1
 40
5.027083396911621
 41
5.027085304260253
 42
5.027099609375
 43
5.027069091796875
 44
279.3999938964843
 45
431.7999877929687
 46
0.0
 47
92.964
 48
180377.877572
 49
80019.819395
140
180380.8390819999
141
80022.26069
142
1.0
143
0.0116192543742624
 70
   692
 72
     0
 73
     1
 74
     3
  7
8500B&WShaded.ctb
 75
     0
147
86.06404230335863
148
-4581651.879813895
149
-2032998.63613423
  0
PLOTSETTINGS
  5
3C5
102
{ACAD_REACTORS
330
18
102
}
330
18
100
AcDbPlotSettings
  1
8500 B&W Shaded 8.5x11
  2
8500B&WShaded.pc3
  4
Letter
  6
PS1
 40
5.027083396911621
 41
5.027085304260253
 42
5.027084350585937
 43
5.027069091796875
 44
215.8999938964843
 45
279.3999938964843
 46
0.0
 47
44.44999999999999
 48
180377.877572
 49
80019.819395
140
180380.8390819999
141
80022.26069
142
1.0
143
0.0152035994604527
 70
   692
 72
     0
 73
     1
 74
     3
  7
8500B&WShaded.ctb
 75
     0
147
65.77389799048455
148
-4581651.879813895
149
-2032998.63613423
  0
PLOTSETTINGS
  5
3C6
102
{ACAD_REACTORS
330
18
102
}
330
18
100
AcDbPlotSettings
  1
8500 Color Shaded 11x17
  2
8500ColorShaded.pc3
  4
11x17
  6
PS1
 40
5.027083396911621
 41
5.027085304260253
 42
5.027099609375
 43
5.027069091796875
 44
279.3999938964843
 45
431.7999877929687
 46
0.0
 47
92.964
 48
180377.877572
 49
80019.819395
140
180380.8390819999
141
80022.26069
142
1.0
143
0.0116192543742624
 70
   692
 72
     0
 73
     1
 74
     3
  7
8500ColorShaded.ctb
 75
     0
147
86.06404230335863
148
-4581651.879813895
149
-2032998.63613423
  0
PLOTSETTINGS
  5
3C7
102
{ACAD_REACTORS
330
18
102
}
330
18
100
AcDbPlotSettings
  1
8500 Color Shaded 8.5x11
  2
8500ColorShaded.pc3
  4
Letter
  6
PS1
 40
5.027083396911621
 41
5.027085304260253
 42
5.027084350585937
 43
5.027069091796875
 44
215.8999938964843
 45
279.3999938964843
 46
0.0
 47
44.44999999999999
 48
180377.877572
 49
80019.819395
140
180380.8390819999
141
80022.26069
142
1.0
143
0.0152035994604527
 70
   692
 72
     0
 73
     1
 74
     3
  7
8500ColorShaded.ctb
 75
     0
147
65.77389799048455
148
-4581651.879813895
149
-2032998.63613423
  0
PLOTSETTINGS
  5
3C8
102
{ACAD_REACTORS
330
18
102
}
330
18
100
AcDbPlotSettings
  1
8500-B&W-Shaded-11x17
  2
8500B&WShaded.pc3
  4
11x17
  6

 40
5.027083396911621
 41
5.027085304260253
 42
5.027099609375
 43
5.027069091796875
 44
279.3999938964843
 45
431.7999877929687
 46
0.0
 47
0.0
 48
180360.0524337165
 49
80033.77936194791
140
180369.1574725906
141
80037.61796031875
142
1.0
143
0.0519425466957002
 70
  1712
 72
     0
 73
     1
 74
     1
  7
8500B&WShaded.ctb
 75
     0
147
19.252040256293
148
-190.0773302744904
149
-129.2444057835751
  0
PLOTSETTINGS
  5
3C9
102
{ACAD_REACTORS
330
18
102
}
330
18
100
AcDbPlotSettings
  1
8500-B&W-Shaded-8.5x11
  2
8500B&WShaded.pc3
  4
Letter
  6

 40
5.027083396911621
 41
5.027085304260253
 42
5.027084350585937
 43
5.027069091796875
 44
215.8999938964843
 45
279.3999938964843
 46
0.0
 47
0.0
 48
180360.0524337165
 49
80033.77936194791
140
180369.1574725906
141
80037.61796031875
142
1.0
143
0.0679659511256221
 70
  1712
 72
     0
 73
     1
 74
     1
  7
8500B&WShaded.ctb
 75
     0
147
14.71324955273106
148
-190.0773302744904
149
-129.2444057835751
  0
PLOTSETTINGS
  5
3CA
102
{ACAD_REACTORS
330
18
102
}
330
18
100
AcDbPlotSettings
  1
8500-Color-Shaded-11x17
  2
8500ColorShaded.pc3
  4
11x17
  6

 40
5.027083396911621
 41
5.027085304260253
 42
5.027099609375
 43
5.027069091796875
 44
279.3999938964843
 45
431.7999877929687
 46
0.0
 47
0.0
 48
180360.0524337165
 49
80033.77936194791
140
180369.1574725906
141
80037.61796031875
142
1.0
143
0.0519425466957002
 70
  1712
 72
     0
 73
     1
 74
     1
  7
8500ColorShaded.ctb
 75
     0
147
19.252040256293
148
-190.0773302744904
149
-129.2444057835751
  0
PLOTSETTINGS
  5
3CB
102
{ACAD_REACTORS
330
18
102
}
330
18
100
AcDbPlotSettings
  1
8500-Color-Shaded-8.5x11
  2
8500ColorShaded.pc3
  4
Letter
  6

 40
5.027083396911621
 41
5.027085304260253
 42
5.027084350585937
 43
5.027069091796875
 44
215.8999938964843
 45
279.3999938964843
 46
0.0
 47
0.0
 48
180360.0524337165
 49
80033.77936194791
140
180369.1574725906
141
80037.61796031875
142
1.0
143
0.0679659511256221
 70
  1712
 72
     0
 73
     1
 74
     1
  7
8500ColorShaded.ctb
 75
     0
147
14.71324955273106
148
-190.0773302744904
149
-129.2444057835751
  0
PLOTSETTINGS
  5
3CC
102
{ACAD_REACTORS
330
18
102
}
330
18
100
AcDbPlotSettings
  1
Laser Jet 5 Shaded 11x17
  2
LaserJet5Shaded.pc3
  4
11x17
  6
PS1
 40
7.143749713897705
 41
5.873736858367919
 42
7.143768310546875
 43
7.14373779296875
 44
279.3999938964843
 45
431.7999877929687
 46
0.0
 47
29.71799999999999
 48
180377.877572
 49
80019.819395
140
180380.8390819999
141
80022.26069
142
1.0
143
0.2557442899420743
 70
   692
 72
     0
 73
     1
 74
     3
  7
LaserJet5Shaded.ctb
 75
     0
147
3.910155727138614
148
-4581603.303200401
149
-2032962.095032944
  0
PLOTSETTINGS
  5
3CD
102
{ACAD_REACTORS
330
18
102
}
330
18
100
AcDbPlotSettings
  1
Laser Jet 5 Shaded 8.5x11
  2
LaserJet5Shaded.pc3
  4
Letter
  6
PS1
 40
7.143749713897705
 41
6.974400997161865
 42
7.14373779296875
 43
6.297088623046875
 44
215.8999938964843
 45
279.3999938964843
 46
2.794
 47
0.0
 48
180377.877572
 49
80019.819395
140
180380.8390819999
141
80022.26069
142
1.0
143
0.345513616778612
 70
   692
 72
     0
 73
     1
 74
     3
  7
LaserJet5Shaded.ctb
 75
     0
147
2.894241938489939
148
-4581603.303200401
149
-2032962.095032944
  0
PLOTSETTINGS
  5
3CE
102
{ACAD_REACTORS
330
18
102
}
330
18
100
AcDbPlotSettings
  1
LaserJet5-Shaded-11x17
  2
LaserJet5Shaded.pc3
  4
11x17
  6

 40
7.143749713897705
 41
5.873736858367919
 42
7.143768310546875
 43
7.14373779296875
 44
279.3999938964843
 45
431.7999877929687
 46
0.0
 47
0.0
 48
180360.0524337165
 49
80033.77936194791
140
180369.1574725906
141
80037.61796031875
142
1.0
143
0.0527719690046124
 70
  1712
 72
     0
 73
     1
 74
     1
  7
LaserJet5Shaded.ctb
 75
     0
147
18.9494540162524
148
-190.0773302744904
149
-129.2444057835751
  0
PLOTSETTINGS
  5
3CF
102
{ACAD_REACTORS
330
18
102
}
330
18
100
AcDbPlotSettings
  1
LaserJet5-Shaded-8.5x11
  2
LaserJet5Shaded.pc3
  4
Letter
  6

 40
7.143749713897705
 41
6.974400997161865
 42
7.14373779296875
 43
6.297088623046875
 44
215.8999938964843
 45
279.3999938964843
 46
0.0
 47
0.0
 48
180360.0524337165
 49
80033.77936194791
140
180369.1574725906
141
80037.61796031875
142
1.0
143
0.069393053089765
 70
  1712
 72
     0
 73
     1
 74
     1
  7
LaserJet5Shaded.ctb
 75
     0
147
14.41066440334347
148
-190.0773302744904
149
-129.2444057835751
  0
PLOTSETTINGS
  5
3D0
102
{ACAD_REACTORS
330
18
102
}
330
18
100
AcDbPlotSettings
  1
Oki Doki B&W Shaded 11x17
  2
OKI DOKI Color Laser.pc3
  4
Tabloid
  6
PS1
 40
5.027083396911621
 41
5.027085304260253
 42
5.027099609375
 43
5.027069091796875
 44
279.3999938964843
 45
431.7999877929687
 46
0.0
 47
47.49799999999999
 48
180377.877572
 49
80019.819395
140
180380.8390819999
141
80022.26069
142
1.0
143
0.2302203728173071
 70
   692
 72
     0
 73
     1
 74
     4
  7
OKIB&WShaded.ctb
 75
     0
147
4.343664236846477
148
-4581598.0903288
149
-2032503.412632999
  0
PLOTSETTINGS
  5
3D1
102
{ACAD_REACTORS
330
18
102
}
330
18
100
AcDbPlotSettings
  1
Oki Doki B&W Shaded 8.5x11
  2
OKI DOKI Color Laser.pc3
  4
Letter
  6
PS1
 40
5.027083396911621
 41
5.027085304260253
 42
5.027084350585937
 43
5.027069091796875
 44
215.8999938964843
 45
279.3999938964843
 46
0.0
 47
9.906
 48
180377.877572
 49
80019.819395
140
180380.8390819999
141
80022.26069
142
1.0
143
0.3012394963745367
 70
   692
 72
     0
 73
     1
 74
     4
  7
OKIB&WShaded.ctb
 75
     0
147
3.319617819161008
148
-4581598.0903288
149
-2032503.412632999
  0
PLOTSETTINGS
  5
3D2
102
{ACAD_REACTORS
330
18
102
}
330
18
100
AcDbPlotSettings
  1
Oki Doki Color Laser
  2
OKI DOKI Color Laser.pc3
  4
Letter
  6
PS1
 40
5.027083396911621
 41
5.027085304260253
 42
5.027084350585937
 43
5.027069091796875
 44
215.8999938964843
 45
279.3999938964843
 46
71.88199999999999
 47
97.02799999999999
 48
180377.877572
 49
80019.819395
140
180380.8390819999
141
80022.26069
142
1.0
143
1.0
 70
   692
 72
     0
 73
     1
 74
     4
  7
Color.ctb
 75
    16
147
1.0
148
-4581598.0903288
149
-2032503.412632999
  0
PLOTSETTINGS
  5
3D3
102
{ACAD_REACTORS
330
18
102
}
330
18
100
AcDbPlotSettings
  1
Oki Doki Color Shaded 11x17
  2
OKI DOKI Color Laser.pc3
  4
Tabloid
  6
PS1
 40
5.027083396911621
 41
5.027085304260253
 42
5.027099609375
 43
5.027069091796875
 44
279.3999938964843
 45
431.7999877929687
 46
0.0
 47
47.49799999999999
 48
180377.877572
 49
80019.819395
140
180380.8390819999
141
80022.26069
142
1.0
143
0.2302203728173071
 70
   692
 72
     0
 73
     1
 74
     4
  7
OKIColorShaded.ctb
 75
     0
147
4.343664236846477
148
-4581598.0903288
149
-2032503.412632999
  0
PLOTSETTINGS
  5
3D4
102
{ACAD_REACTORS
330
18
102
}
330
18
100
AcDbPlotSettings
  1
Oki Doki Color Shaded 8.5x11
  2
OKI DOKI Color Laser.pc3
  4
Letter
  6
PS1
 40
5.027083396911621
 41
5.027085304260253
 42
5.027084350585937
 43
5.027069091796875
 44
215.8999938964843
 45
279.3999938964843
 46
0.0
 47
9.906
 48
180377.877572
 49
80019.819395
140
180380.8390819999
141
80022.26069
142
1.0
143
0.3012394963745367
 70
   692
 72
     0
 73
     1
 74
     4
  7
OKIColorShaded.ctb
 75
     0
147
3.319617819161008
148
-4581598.0903288
149
-2032503.412632999
  0
PLOTSETTINGS
  5
3D5
102
{ACAD_REACTORS
330
18
102
}
330
18
100
AcDbPlotSettings
  1
Oki-Doki-B&W-Shaded-11x17
  2
OKI DOKI Color Laser.pc3
  4
Tabloid
  6

 40
5.027083396911621
 41
5.027085304260253
 42
5.027099609375
 43
5.027069091796875
 44
279.3999938964843
 45
431.7999877929687
 46
45.72
 47
0.0
 48
180360.0524337165
 49
80033.77936194791
140
180369.1574725906
141
80037.61796031875
142
1.0
143
0.5483586774064594
 70
  1716
 72
     0
 73
     1
 74
     4
  7
OKIB&WShaded.ctb
 75
     0
147
1.823623918435361
148
-4581145.331816398
149
-2032857.995793476
  0
PLOTSETTINGS
  5
3D6
102
{ACAD_REACTORS
330
18
102
}
330
18
100
AcDbPlotSettings
  1
Oki-Doki-B&W-Shaded-8.5x11
  2
OKI DOKI Color Laser.pc3
  4
Letter
  6

 40
5.027083396911621
 41
5.027085304260253
 42
5.027084350585937
 43
5.027069091796875
 44
215.8999938964843
 45
279.3999938964843
 46
46.228
 47
0.0
 48
180360.0524337165
 49
80033.77936194791
140
180369.1574725906
141
80037.61796031875
142
1.0
143
0.8586284006917006
 70
  1716
 72
     0
 73
     1
 74
     4
  7
OKIB&WShaded.ctb
 75
     0
147
1.16464817515285
148
-4581145.331816398
149
-2032857.995793476
  0
PLOTSETTINGS
  5
3D7
102
{ACAD_REACTORS
330
18
102
}
330
18
100
AcDbPlotSettings
  1
Oki-Doki-Color-Laser
  2
OKI DOKI Color Laser.pc3
  4
Letter
  6

 40
5.027083396911621
 41
5.027085304260253
 42
5.027084350585937
 43
5.027069091796875
 44
215.8999938964843
 45
279.3999938964843
 46
17.018
 47
0.0
 48
180360.0524337165
 49
80033.77936194791
140
180369.1574725906
141
80037.61796031875
142
1.0
143
1.429088128819241
 70
  1716
 72
     0
 73
     1
 74
     0
  7
Color.ctb
 75
     0
147
0.6997469084193093
148
0.9506237099442977
149
8.593888772447144
  0
PLOTSETTINGS
  5
3D8
102
{ACAD_REACTORS
330
18
102
}
330
18
100
AcDbPlotSettings
  1
Oki-Doki-Color-Shaded-11x17
  2
OKI DOKI Color Laser.pc3
  4
Tabloid
  6

 40
5.027083396911621
 41
5.027085304260253
 42
5.027099609375
 43
5.027069091796875
 44
279.3999938964843
 45
431.7999877929687
 46
45.72
 47
0.0
 48
180360.0524337165
 49
80033.77936194791
140
180369.1574725906
141
80037.61796031875
142
1.0
143
0.5483586774064594
 70
  1716
 72
     0
 73
     1
 74
     4
  7
OKIColorShaded.ctb
 75
     0
147
1.823623918435361
148
-4581145.331816398
149
-2032857.995793476
  0
PLOTSETTINGS
  5
3D9
102
{ACAD_REACTORS
330
18
102
}
330
18
100
AcDbPlotSettings
  1
Oki-Doki-Color-Shaded-8.5x11
  2
OKI DOKI Color Laser.pc3
  4
Letter
  6

 40
5.027083396911621
 41
5.027085304260253
 42
5.027084350585937
 43
5.027069091796875
 44
215.8999938964843
 45
279.3999938964843
 46
46.228
 47
0.0
 48
180360.0524337165
 49
80033.77936194791
140
180369.1574725906
141
80037.61796031875
142
1.0
143
0.8586284006917006
 70
  1716
 72
     0
 73
     1
 74
     4
  7
OKIColorShaded.ctb
 75
     0
147
1.16464817515285
148
-4581145.331816398
149
-2032857.995793476
  0
ACDBPLACEHOLDER
  5
F
102
{ACAD_REACTORS
330
E
102
}
330
E
  0
DICTIONARYVAR
  5
344
102
{ACAD_REACTORS
330
341
102
}
330
341
100
DictionaryVariables
280
     0
  1
1
  0
DICTIONARYVAR
  5
343
102
{ACAD_REACTORS
330
341
102
}
330
341
100
DictionaryVariables
280
     0
  1
1
  0
DICTIONARYVAR
  5
342
102
{ACAD_REACTORS
330
341
102
}
330
341
100
DictionaryVariables
280
     0
  1
1
  0
ENDSEC
  0
EOF
