  0
SECTION
  2
HEADER
  9
$ACADVER
  1
AC1015
  9
$ACADMAINTVER
 70
    13
  9
$DWGCODEPAGE
  3
ANSI_1252
  9
$INSBASE
 10
0.0
 20
0.0
 30
0.0
  9
$EXTMIN
 10
0.0
 20
0.0
 30
0.0
  9
$EXTMAX
 10
16.49
 20
10.44
 30
0.055511053975511
  9
$LIMMIN
 10
0.0
 20
0.0
  9
$LIMMAX
 10
11.00555555555599
 20
8.505555555555599
  9
$ORTHOMODE
 70
     0
  9
$REGENMODE
 70
     1
  9
$FILLMODE
 70
     1
  9
$QTEXTMODE
 70
     0
  9
$MIRRTEXT
 70
     0
  9
$LTSCALE
 40
1.0
  9
$ATTMODE
 70
     1
  9
$TEXTSIZE
 40
0.125
  9
$TRACEWID
 40
0.05
  9
$TEXTSTYLE
  7
ROMANS
  9
$CLAYER
  8
IMAGE
  9
$CELTYPE
  6
BYLAYER
  9
$CECOLOR
 62
   256
  9
$CELTSCALE
 40
1.0
  9
$DISPSILH
 70
     0
  9
$DIMSCALE
 40
1.0
  9
$DIMASZ
 40
0.18
  9
$DIMEXO
 40
0.0625
  9
$DIMDLI
 40
0.38
  9
$DIMRND
 40
0.0
  9
$DIMDLE
 40
0.0
  9
$DIMEXE
 40
0.18
  9
$DIMTP
 40
0.0
  9
$DIMTM
 40
0.0
  9
$DIMTXT
 40
0.18
  9
$DIMCEN
 40
0.09
  9
$DIMTSZ
 40
0.0
  9
$DIMTOL
 70
     0
  9
$DIMLIM
 70
     0
  9
$DIMTIH
 70
     1
  9
$DIMTOH
 70
     1
  9
$DIMSE1
 70
     0
  9
$DIMSE2
 70
     0
  9
$DIMTAD
 70
     0
  9
$DIMZIN
 70
     0
  9
$DIMBLK
  1

  9
$DIMASO
 70
     1
  9
$DIMSHO
 70
     1
  9
$DIMPOST
  1

  9
$DIMAPOST
  1

  9
$DIMALT
 70
     0
  9
$DIMALTD
 70
     2
  9
$DIMALTF
 40
25.4
  9
$DIMLFAC
 40
1.0
  9
$DIMTOFL
 70
     0
  9
$DIMTVP
 40
0.0
  9
$DIMTIX
 70
     0
  9
$DIMSOXD
 70
     0
  9
$DIMSAH
 70
     0
  9
$DIMBLK1
  1

  9
$DIMBLK2
  1

  9
$DIMSTYLE
  2
STANDARD
  9
$DIMCLRD
 70
     0
  9
$DIMCLRE
 70
     0
  9
$DIMCLRT
 70
     0
  9
$DIMTFAC
 40
1.0
  9
$DIMGAP
 40
0.09
  9
$DIMJUST
 70
     0
  9
$DIMSD1
 70
     0
  9
$DIMSD2
 70
     0
  9
$DIMTOLJ
 70
     1
  9
$DIMTZIN
 70
     0
  9
$DIMALTZ
 70
     0
  9
$DIMALTTZ
 70
     0
  9
$DIMUPT
 70
     0
  9
$DIMDEC
 70
     4
  9
$DIMTDEC
 70
     4
  9
$DIMALTU
 70
     2
  9
$DIMALTTD
 70
     2
  9
$DIMTXSTY
  7
STANDARD
  9
$DIMAUNIT
 70
     0
  9
$DIMADEC
 70
     0
  9
$DIMALTRND
 40
0.0
  9
$DIMAZIN
 70
     0
  9
$DIMDSEP
 70
    46
  9
$DIMATFIT
 70
     3
  9
$DIMFRAC
 70
     0
  9
$DIMLDRBLK
  1

  9
$DIMLUNIT
 70
     2
  9
$DIMLWD
 70
    -2
  9
$DIMLWE
 70
    -2
  9
$DIMTMOVE
 70
     0
  9
$LUNITS
 70
     2
  9
$LUPREC
 70
     2
  9
$SKETCHINC
 40
0.1
  9
$FILLETRAD
 40
0.0
  9
$AUNITS
 70
     0
  9
$AUPREC
 70
     2
  9
$MENU
  1
.
  9
$ELEVATION
 40
0.0
  9
$PELEVATION
 40
0.0
  9
$THICKNESS
 40
0.0
  9
$LIMCHECK
 70
     0
  9
$CHAMFERA
 40
0.25
  9
$CHAMFERB
 40
0.25
  9
$CHAMFERC
 40
0.0
  9
$CHAMFERD
 40
0.0
  9
$SKPOLY
 70
     0
  9
$TDCREATE
 40
2444971.708333333
  9
$TDUCREATE
 40
2444972.000000000
  9
$TDUPDATE
 40
2453031.564608055
  9
$TDUUPDATE
 40
2453031.856274722
  9
$TDINDWG
 40
0.3411020602
  9
$TDUSRTIMER
 40
0.3411020602
  9
$USRTIMER
 70
     1
  9
$ANGBASE
 50
0.0
  9
$ANGDIR
 70
     0
  9
$PDMODE
 70
     0
  9
$PDSIZE
 40
0.0
  9
$PLINEWID
 40
0.0
  9
$SPLFRAME
 70
     0
  9
$SPLINETYPE
 70
     6
  9
$SPLINESEGS
 70
     8
  9
$HANDSEED
  5
1BDB
  9
$SURFTAB1
 70
     6
  9
$SURFTAB2
 70
     6
  9
$SURFTYPE
 70
     6
  9
$SURFU
 70
     6
  9
$SURFV
 70
     6
  9
$UCSBASE
  2

  9
$UCSNAME
  2

  9
$UCSORG
 10
0.0
 20
0.0
 30
0.0
  9
$UCSXDIR
 10
1.0
 20
0.0
 30
0.0
  9
$UCSYDIR
 10
0.0
 20
1.0
 30
0.0
  9
$UCSORTHOREF
  2

  9
$UCSORTHOVIEW
 70
     0
  9
$UCSORGTOP
 10
0.0
 20
0.0
 30
0.0
  9
$UCSORGBOTTOM
 10
0.0
 20
0.0
 30
0.0
  9
$UCSORGLEFT
 10
0.0
 20
0.0
 30
0.0
  9
$UCSORGRIGHT
 10
0.0
 20
0.0
 30
0.0
  9
$UCSORGFRONT
 10
0.0
 20
0.0
 30
0.0
  9
$UCSORGBACK
 10
0.0
 20
0.0
 30
0.0
  9
$PUCSBASE
  2

  9
$PUCSNAME
  2

  9
$PUCSORG
 10
0.0
 20
0.0
 30
0.0
  9
$PUCSXDIR
 10
1.0
 20
0.0
 30
0.0
  9
$PUCSYDIR
 10
0.0
 20
1.0
 30
0.0
  9
$PUCSORTHOREF
  2

  9
$PUCSORTHOVIEW
 70
     0
  9
$PUCSORGTOP
 10
0.0
 20
0.0
 30
0.0
  9
$PUCSORGBOTTOM
 10
0.0
 20
0.0
 30
0.0
  9
$PUCSORGLEFT
 10
0.0
 20
0.0
 30
0.0
  9
$PUCSORGRIGHT
 10
0.0
 20
0.0
 30
0.0
  9
$PUCSORGFRONT
 10
0.0
 20
0.0
 30
0.0
  9
$PUCSORGBACK
 10
0.0
 20
0.0
 30
0.0
  9
$USERI1
 70
     0
  9
$USERI2
 70
     0
  9
$USERI3
 70
     0
  9
$USERI4
 70
     0
  9
$USERI5
 70
     0
  9
$USERR1
 40
0.0
  9
$USERR2
 40
0.0
  9
$USERR3
 40
0.0
  9
$USERR4
 40
0.0
  9
$USERR5
 40
0.0
  9
$WORLDVIEW
 70
     1
  9
$SHADEDGE
 70
     3
  9
$SHADEDIF
 70
    70
  9
$TILEMODE
 70
     1
  9
$MAXACTVP
 70
    48
  9
$PINSBASE
 10
0.0
 20
0.0
 30
0.0
  9
$PLIMCHECK
 70
     0
  9
$PEXTMIN
 10
1.000000000000000E+20
 20
1.000000000000000E+20
 30
1.000000000000000E+20
  9
$PEXTMAX
 10
-1.000000000000000E+20
 20
-1.000000000000000E+20
 30
-1.000000000000000E+20
  9
$PLIMMIN
 10
0.0
 20
0.0
  9
$PLIMMAX
 10
12.0
 20
9.0
  9
$UNITMODE
 70
     0
  9
$VISRETAIN
 70
     1
  9
$PLINEGEN
 70
     1
  9
$PSLTSCALE
 70
     1
  9
$TREEDEPTH
 70
  3020
  9
$CMLSTYLE
  2
STANDARD
  9
$CMLJUST
 70
     0
  9
$CMLSCALE
 40
1.0
  9
$PROXYGRAPHICS
 70
     1
  9
$MEASUREMENT
 70
     0
  9
$CELWEIGHT
370
    -1
  9
$ENDCAPS
280
     0
  9
$JOINSTYLE
280
     0
  9
$LWDISPLAY
290
     0
  9
$INSUNITS
 70
     0
  9
$HYPERLINKBASE
  1

  9
$STYLESHEET
  1
8500ColorShaded.ctb
  9
$XEDIT
290
     1
  9
$CEPSNTYPE
380
     0
  9
$PSTYLEMODE
290
     1
  9
$FINGERPRINTGUID
  2
{C7079D1A-D880-49B6-8A81-00BAA10C845B}
  9
$VERSIONGUID
  2
{DE103E05-E18D-477F-978E-1F362FED4B66}
  9
$EXTNAMES
290
     1
  9
$PSVPSCALE
 40
0.0
  9
$OLESTARTUP
290
     0
  0
ENDSEC
  0
SECTION
  2
CLASSES
  0
CLASS
  1
ACDBDICTIONARYWDFLT
  2
AcDbDictionaryWithDefault
  3
AutoCAD 2000
 90
        0
280
     0
281
     0
  0
CLASS
  1
ACDBPLACEHOLDER
  2
AcDbPlaceHolder
  3
AutoCAD 2000
 90
        0
280
     0
281
     0
  0
CLASS
  1
LAYOUT
  2
AcDbLayout
  3
AutoCAD 2000
 90
        0
280
     0
281
     0
  0
CLASS
  1
DICTIONARYVAR
  2
AcDbDictionaryVar
  3
AutoCAD 2000
 90
        0
280
     0
281
     0
  0
CLASS
  1
PLOTSETTINGS
  2
AcDbPlotSettings
  3
AutoCAD 2000
 90
        0
280
     0
281
     0
  0
ENDSEC
  0
SECTION
  2
TABLES
  0
TABLE
  2
VPORT
  5
8
330
0
100
AcDbSymbolTable
 70
     2
  0
VPORT
  5
1BDA
330
8
100
AcDbSymbolTableRecord
100
AcDbViewportTableRecord
  2
*Active
 70
     0
 10
0.0
 20
0.0
 11
1.0
 21
1.0
 12
8.24500003839377
 22
5.220000024307517
 13
0.0
 23
0.0
 14
1.0
 24
1.0
 15
0.0
 25
0.0
 16
0.0
 26
0.0
 36
1.0
 17
0.0
 27
0.0
 37
0.0
 40
11.0072450655855
 41
1.505548705302096
 42
50.0
 43
0.0
 44
0.0
 50
0.0
 51
0.0
 71
     0
 72
 10000
 73
     1
 74
     1
 75
     0
 76
     0
 77
     0
 78
     0
281
     0
 65
     1
110
0.0
120
0.0
130
0.0
111
1.0
121
0.0
131
0.0
112
0.0
122
1.0
132
0.0
 79
     0
146
0.0
  0
ENDTAB
  0
TABLE
  2
LTYPE
  5
5
330
0
100
AcDbSymbolTable
 70
     3
  0
LTYPE
  5
12
330
5
100
AcDbSymbolTableRecord
100
AcDbLinetypeTableRecord
  2
BYBLOCK
 70
     0
  3

 72
    65
 73
     0
 40
0.0
  0
LTYPE
  5
13
330
5
100
AcDbSymbolTableRecord
100
AcDbLinetypeTableRecord
  2
BYLAYER
 70
     0
  3

 72
    65
 73
     0
 40
0.0
  0
LTYPE
  5
14
330
5
100
AcDbSymbolTableRecord
100
AcDbLinetypeTableRecord
  2
CONTINUOUS
 70
     0
  3
___________________________
 72
    65
 73
     0
 40
0.0
  0
LTYPE
  5
1F
330
5
100
AcDbSymbolTableRecord
100
AcDbLinetypeTableRecord
  2
HIDDEN
 70
     0
  3
_ _ _ _ _ _ _ _ _ _ _ _ _ _ 
 72
    65
 73
     2
 40
0.375
 49
0.25
 74
     0
 49
-0.125
 74
     0
  0
LTYPE
  5
41
330
5
100
AcDbSymbolTableRecord
100
AcDbLinetypeTableRecord
  2
HIDDEN2
 70
     0
  3
 
 72
    65
 73
     2
 40
0.1875
 49
0.125
 74
     0
 49
-0.0625
 74
     0
  0
ENDTAB
  0
TABLE
  2
LAYER
  5
2
330
0
100
AcDbSymbolTable
 70
     4
  0
LAYER
  5
E
330
2
100
AcDbSymbolTableRecord
100
AcDbLayerTableRecord
  2
0
 70
     0
 62
     7
  6
CONTINUOUS
370
    -3
390
13FF
  0
LAYER
  5
16CB
330
2
100
AcDbSymbolTableRecord
100
AcDbLayerTableRecord
  2
IMAGE
 70
     0
 62
     7
  6
CONTINUOUS
370
    -3
390
13FF
  0
LAYER
  5
17C8
330
2
100
AcDbSymbolTableRecord
100
AcDbLayerTableRecord
  2
TITLE
 70
     0
 62
     4
  6
CONTINUOUS
370
    -3
390
13FF
  0
LAYER
  5
17C9
330
2
100
AcDbSymbolTableRecord
100
AcDbLayerTableRecord
  2
TEXT_BUBBLES
 70
     0
 62
     6
  6
CONTINUOUS
370
    -3
390
13FF
1001
RAK
1000
{EFB-CP-BUBBLES
1070
     0
1070
     6
1000
CONTINUOUS
1000
EFB-CP-BUBBLES}
1000
{EFB-CP-LEADERS
1070
     0
1070
    -6
1000
CONTINUOUS
1000
EFB-CP-LEADERS}
1000
{EFB-CP-BSP-BUBBLES
1070
     0
1070
     6
1000
CONTINUOUS
1000
EFB-CP-BSP-BUBBLES}
1000
{EFB-CP-BSP-LEADERS
1070
     0
1070
    -6
1000
CONTINUOUS
1000
EFB-CP-BSP-LEADERS}
1000
{EFB-CP-NP-BUBBLES
1070
     0
1070
     6
1000
CONTINUOUS
1000
EFB-CP-NP-BUBBLES}
1000
{EFB-CP-NP-LEADERS
1070
     0
1070
    -6
1000
CONTINUOUS
1000
EFB-CP-NP-LEADERS}
1000
{EFB-CP-PRS-BUBBLES
1070
     0
1070
     6
1000
CONTINUOUS
1000
EFB-CP-PRS-BUBBLES}
1000
{EFB-CP-PRS-LEADERS
1070
     0
1070
    -6
1000
CONTINUOUS
1000
EFB-CP-PRS-LEADERS}
1000
{EFB-CP-PRS-BSP-BUBBLES
1070
     0
1070
     6
1000
CONTINUOUS
1000
EFB-CP-PRS-BSP-BUBBLES}
1000
{EFB-CP-PRS-BSP-LEADERS
1070
     0
1070
    -6
1000
CONTINUOUS
1000
EFB-CP-PRS-BSP-LEADERS}
1000
{EFB-CP-PRS-NP-BUBBLES
1070
     0
1070
     6
1000
CONTINUOUS
1000
EFB-CP-PRS-NP-BUBBLES}
1000
{EFB-CP-PRS-NP-LEADERS
1070
     0
1070
    -6
1000
CONTINUOUS
1000
EFB-CP-PRS-NP-LEADERS}
  0
ENDTAB
  0
TABLE
  2
STYLE
  5
3
330
0
100
AcDbSymbolTable
 70
     5
  0
STYLE
  5
F
330
3
100
AcDbSymbolTableRecord
100
AcDbTextStyleTableRecord
  2
STANDARD
 70
     0
 40
0.0
 41
0.0
 50
0.0
 71
     0
 42
0.0
  3
TXT
  4

  0
STYLE
  5
1558
330
3
100
AcDbSymbolTableRecord
100
AcDbTextStyleTableRecord
  2
L200
 70
     0
 40
0.2
 41
1.0
 50
0.0
 71
     0
 42
0.081
  3
ARIAL.TTF
  4

1001
ACAD
1000
Arial
1071
       34
  0
STYLE
  5
1559
330
3
100
AcDbSymbolTableRecord
100
AcDbTextStyleTableRecord
  2
ROMANS
 70
     0
 40
0.0
 41
1.0
 50
0.0
 71
     0
 42
0.125
  3
ROMANS.SHX
  4

  0
STYLE
  5
17CA
330
3
100
AcDbSymbolTableRecord
100
AcDbTextStyleTableRecord
  2
L100
 70
     0
 40
0.1
 41
1.0
 50
0.0
 71
     0
 42
0.1
  3
SIMPLEX
  4

  0
STYLE
  5
17CB
330
3
100
AcDbSymbolTableRecord
100
AcDbTextStyleTableRecord
  2
L80
 70
     0
 40
0.08
 41
1.0
 50
0.0
 71
     0
 42
0.08
  3
ROMANS
  4

  0
ENDTAB
  0
TABLE
  2
VIEW
  5
6
330
0
100
AcDbSymbolTable
 70
     1
  0
VIEW
  5
19D9
330
6
100
AcDbSymbolTableRecord
100
AcDbViewTableRecord
  2
PS1
 70
     0
 40
10.44
 10
8.244999999999999
 20
5.219999999999999
 41
16.49
 11
0.0
 21
0.0
 31
1.0
 12
0.0
 22
0.0
 32
0.0
 42
50.0
 43
0.0
 44
0.0
 50
0.0
 71
     0
281
     0
 72
     1
110
0.0
120
0.0
130
0.0
111
1.0
121
0.0
131
0.0
112
0.0
122
1.0
132
0.0
 79
     0
146
0.0
  0
ENDTAB
  0
TABLE
  2
UCS
  5
7
330
0
100
AcDbSymbolTable
 70
     0
  0
ENDTAB
  0
TABLE
  2
APPID
  5
9
330
0
100
AcDbSymbolTable
 70
    28
  0
APPID
  5
10
330
9
100
AcDbSymbolTableRecord
100
AcDbRegAppTableRecord
  2
ACAD
 70
     0
  0
APPID
  5
155A
330
9
100
AcDbSymbolTableRecord
100
AcDbRegAppTableRecord
  2
RAK
 70
     0
  0
APPID
  5
17CC
330
9
100
AcDbSymbolTableRecord
100
AcDbRegAppTableRecord
  2
CLSI_CADWRITER
 70
     0
  0
APPID
  5
17CD
330
9
100
AcDbSymbolTableRecord
100
AcDbRegAppTableRecord
  2
WID_Sprinkler
 70
     0
  0
APPID
  5
17CE
330
9
100
AcDbSymbolTableRecord
100
AcDbRegAppTableRecord
  2
WID_Valve
 70
     0
  0
APPID
  5
17CF
330
9
100
AcDbSymbolTableRecord
100
AcDbRegAppTableRecord
  2
WID_Fitting
 70
     0
  0
APPID
  5
17D0
330
9
100
AcDbSymbolTableRecord
100
AcDbRegAppTableRecord
  2
WID_HPNode
 70
     0
  0
APPID
  5
17D1
330
9
100
AcDbSymbolTableRecord
100
AcDbRegAppTableRecord
  2
WID_Node
 70
     0
  0
APPID
  5
17D2
330
9
100
AcDbSymbolTableRecord
100
AcDbRegAppTableRecord
  2
WID_Conduit
 70
     0
  0
APPID
  5
17D3
330
9
100
AcDbSymbolTableRecord
100
AcDbRegAppTableRecord
  2
WID_SprinklerSection
 70
     0
  0
APPID
  5
17D4
330
9
100
AcDbSymbolTableRecord
100
AcDbRegAppTableRecord
  2
WID_MainLineSection
 70
     0
  0
APPID
  5
17D5
330
9
100
AcDbSymbolTableRecord
100
AcDbRegAppTableRecord
  2
WID_ManifoldSection
 70
     0
  0
APPID
  5
17D6
330
9
100
AcDbSymbolTableRecord
100
AcDbRegAppTableRecord
  2
WID_DripSection
 70
     0
  0
APPID
  5
17D7
330
9
100
AcDbSymbolTableRecord
100
AcDbRegAppTableRecord
  2
WID_HPSection
 70
     0
  0
APPID
  5
17D8
330
9
100
AcDbSymbolTableRecord
100
AcDbRegAppTableRecord
  2
WID_Sleeve
 70
     0
  0
APPID
  5
17D9
330
9
100
AcDbSymbolTableRecord
100
AcDbRegAppTableRecord
  2
WID_Layout
 70
     0
  0
APPID
  5
17DA
330
9
100
AcDbSymbolTableRecord
100
AcDbRegAppTableRecord
  2
WID_Island
 70
     0
  0
APPID
  5
17DB
330
9
100
AcDbSymbolTableRecord
100
AcDbRegAppTableRecord
  2
WID_Controller
 70
     0
  0
APPID
  5
17DC
330
9
100
AcDbSymbolTableRecord
100
AcDbRegAppTableRecord
  2
WID_SprinklerLateral
 70
     0
  0
APPID
  5
17DD
330
9
100
AcDbSymbolTableRecord
100
AcDbRegAppTableRecord
  2
WID_HPDripLateral
 70
     0
  0
APPID
  5
17DE
330
9
100
AcDbSymbolTableRecord
100
AcDbRegAppTableRecord
  2
WID_LabelPipeSize
 70
     0
  0
APPID
  5
17DF
330
9
100
AcDbSymbolTableRecord
100
AcDbRegAppTableRecord
  2
WID_LabelPipeSegment
 70
     0
  0
APPID
  5
17E0
330
9
100
AcDbSymbolTableRecord
100
AcDbRegAppTableRecord
  2
WID_LabelValveDesignator
 70
     0
  0
APPID
  5
17E1
330
9
100
AcDbSymbolTableRecord
100
AcDbRegAppTableRecord
  2
WID_CheckArc
 70
     0
  0
APPID
  5
17E2
330
9
100
AcDbSymbolTableRecord
100
AcDbRegAppTableRecord
  2
WID_ObjectType
 70
     0
  0
APPID
  5
17E3
330
9
100
AcDbSymbolTableRecord
100
AcDbRegAppTableRecord
  2
WID_DripLateral
 70
     0
  0
APPID
  5
17E4
330
9
100
AcDbSymbolTableRecord
100
AcDbRegAppTableRecord
  2
ABNSLEADERTOOLS
 70
     0
  0
APPID
  5
17E5
330
9
100
AcDbSymbolTableRecord
100
AcDbRegAppTableRecord
  2
DCO15
 70
     0
  0
ENDTAB
  0
TABLE
  2
DIMSTYLE
  5
A
330
0
100
AcDbSymbolTable
 70
     1
100
AcDbDimStyleTable
 71
     0
  0
DIMSTYLE
105
13FB
102
{ACAD_REACTORS
330
1BC4
330
1BC6
102
}
330
A
100
AcDbSymbolTableRecord
100
AcDbDimStyleTableRecord
  2
STANDARD
 70
     0
340
F
  0
ENDTAB
  0
TABLE
  2
BLOCK_RECORD
  5
1
330
0
100
AcDbSymbolTable
 70
     5
  0
BLOCK_RECORD
  5
18
330
1
100
AcDbSymbolTableRecord
100
AcDbBlockTableRecord
  2
*MODEL_SPACE
340
1402
  0
BLOCK_RECORD
  5
15
330
1
100
AcDbSymbolTableRecord
100
AcDbBlockTableRecord
  2
*PAPER_SPACE
340
1403
  0
BLOCK_RECORD
  5
16CD
330
1
100
AcDbSymbolTableRecord
100
AcDbBlockTableRecord
  2
TITLBLK
340
0
102
{BLKREFS
331
18F9
102
}
  0
BLOCK_RECORD
  5
16EE
330
1
100
AcDbSymbolTableRecord
100
AcDbBlockTableRecord
  2
bubble
340
0
310
2800000020000000200000000100080000000000000400000000000000000000000000000000000000000000000080000080000000808000800000008000800080800000C0C0C000C0DCC000F0CAA6000020400000206000002080000020A0000020C0000020E00000400000004020000040400000406000004080000040A0
310
000040C0000040E00000600000006020000060400000606000006080000060A0000060C0000060E00000800000008020000080400000806000008080000080A0000080C0000080E00000A0000000A0200000A0400000A0600000A0800000A0A00000A0C00000A0E00000C0000000C0200000C0400000C0600000C0800000C0
310
A00000C0C00000C0E00000E0000000E0200000E0400000E0600000E0800000E0A00000E0C00000E0E00040000000400020004000400040006000400080004000A0004000C0004000E00040200000402020004020400040206000402080004020A0004020C0004020E000404000004040200040404000404060004040800040
310
40A0004040C0004040E00040600000406020004060400040606000406080004060A0004060C0004060E00040800000408020004080400040806000408080004080A0004080C0004080E00040A0000040A0200040A0400040A0600040A0800040A0A00040A0C00040A0E00040C0000040C0200040C0400040C0600040C08000
310
40C0A00040C0C00040C0E00040E0000040E0200040E0400040E0600040E0800040E0A00040E0C00040E0E00080000000800020008000400080006000800080008000A0008000C0008000E00080200000802020008020400080206000802080008020A0008020C0008020E00080400000804020008040400080406000804080
310
008040A0008040C0008040E00080600000806020008060400080606000806080008060A0008060C0008060E00080800000808020008080400080806000808080008080A0008080C0008080E00080A0000080A0200080A0400080A0600080A0800080A0A00080A0C00080A0E00080C0000080C0200080C0400080C0600080C0
310
800080C0A00080C0C00080C0E00080E0000080E0200080E0400080E0600080E0800080E0A00080E0C00080E0E000C0000000C0002000C0004000C0006000C0008000C000A000C000C000C000E000C0200000C0202000C0204000C0206000C0208000C020A000C020C000C020E000C0400000C0402000C0404000C0406000C0
310
408000C040A000C040C000C040E000C0600000C0602000C0604000C0606000C0608000C060A000C060C000C060E000C0800000C0802000C0804000C0806000C0808000C080A000C080C000C080E000C0A00000C0A02000C0A04000C0A06000C0A08000C0A0A000C0A0C000C0A0E000C0C00000C0C02000C0C04000C0C06000
310
C0C08000C0C0A000F0FBFF00A4A0A000808080000000FF0000FF000000FFFF00FF000000FF00FF00FFFF0000FFFFFF0008080808080808080808080808080808080808080808080808080808080808080808080808080808080808080808080808080808080808080808080808080808080808080808080808080808FDFDFD
310
08080808080808080808080808080808080808080808080808080808FD080808FDFDFDFDFDFD0808080808080808080808080808080808080808FDFD08080808080808080808FDFDFDFD080808080808080808080808080808FD08080808080808080808080808080808FD08080808080808080808080808FD080808080808
310
0808080808080808080808FD0808080808080808080808FDFD08080808080808080808080808080808080808FD080808080808080808FD080808080808080808080808080808080808080808FD0808080808080808FD08FD0808080808080808FD0808FD0808080808080808FDFD08080808080808FD0808FD080808080808
310
FD08080808FD080808080808FD08FD08080808080808FD0808FD080808080808FD08080808FD080808080808FD0808FD080808080808FD080808FD08080808FD080808080808FD08080808FD080808FD080808080808FD08080808FD0808FD0808080808080808FD0808FD0808080808FD0808080808FD08080808FD0808FD
310
0808080808080808FD0808FD0808080808FD0808080808FD0808080808FDFD08080808080808080808FDFD08080808080808FD08080808FD0808080808FDFD08080808080808080808FDFD08080808080808FD08080808FD08080808FD0808FD0808080808080808FD0808FD0808080808FD0808080808FD08080808FD0808
310
FD0808080808080808FD0808FD0808080808FD0808080808FD080808FD08080808FD080808080808FD08080808FD080808FD080808080808FD0808FD080808080808FD08080808FD080808080808FD0808FD080808080808FD0808FD080808080808FD08080808FD080808080808FD08FD08080808080808FD08FD08080808
310
08080808FD0808FD0808080808080808FDFD0808080808080808FD080808080808080808080808080808080808080808FD08080808080808080808FDFD08080808080808080808080808080808080808FD080808080808080808080808FD0808080808080808080808080808080808FD0808080808080808080808080808FD
310
08080808080808080808080808080808FD080808080808080808080808080808FDFD0808080808080808080808FDFDFD080808080808080808080808080808080808FD08080808FDFDFDFDFDFD08080808080808080808080808080808080808080808FDFDFDFD080808080808080808080808080808080808080808080808
310
0808080808080808080808080808080808080808080808080808080808080808080808080808080808080808080808080808080808080808
102
{BLKREFS
331
1904
331
1909
331
190F
331
1912
331
1915
331
1918
331
191B
331
191E
331
1921
331
1924
331
1927
331
192A
331
192D
331
1930
331
1933
331
194C
331
1951
331
1956
331
195B
331
1960
331
1965
331
196A
331
1974
331
197D
331
1988
331
1985
331
198C
331
19A6
331
19A9
331
19AC
331
1A95
331
1AF0
102
}
  0
BLOCK_RECORD
  5
16F3
330
1
100
AcDbSymbolTableRecord
100
AcDbBlockTableRecord
  2
PlotLayout2002
340
0
102
{BLKREFS
331
16F7
331
19D4
102
}
  0
BLOCK_RECORD
  5
16F6
330
1
100
AcDbSymbolTableRecord
100
AcDbBlockTableRecord
  2
wid
340
0
102
{BLKREFS
331
1868
331
1869
102
}
  0
BLOCK_RECORD
  5
19D3
330
1
100
AcDbSymbolTableRecord
100
AcDbBlockTableRecord
  2
pagesetups
340
0
102
{BLKREFS
331
19D8
102
}
  0
ENDTAB
  0
ENDSEC
  0
SECTION
  2
BLOCKS
  0
BLOCK
  5
19
330
18
100
AcDbEntity
  8
0
100
AcDbBlockBegin
  2
*MODEL_SPACE
 70
     0
 10
0.0
 20
0.0
 30
0.0
  3
*MODEL_SPACE
  1

  0
ENDBLK
  5
1A
330
18
100
AcDbEntity
  8
0
100
AcDbBlockEnd
  0
BLOCK
  5
16
330
15
100
AcDbEntity
 67
     1
  8
0
100
AcDbBlockBegin
  2
*PAPER_SPACE
 70
     0
 10
0.0
 20
0.0
 30
0.0
  3
*PAPER_SPACE
  1

  0
ENDBLK
  5
17
330
15
100
AcDbEntity
 67
     1
  8
0
100
AcDbBlockEnd
  0
BLOCK
  5
16D8
330
16CD
100
AcDbEntity
  8
0
100
AcDbBlockBegin
  2
TITLBLK
 70
     2
 10
0.0
 20
0.0
 30
0.0
  3
TITLBLK
  1

  0
LWPOLYLINE
  5
16CE
330
16CD
100
AcDbEntity
  8
TITLE
 62
     3
100
AcDbPolyline
 90
        2
 70
     0
 43
0.04
 39
0.03
 10
0.3424999999999994
 20
-0.0000000000000003
 10
7.654581983261419
 20
-0.0000000000000003
  0
ATTDEF
  5
16CF
330
16CD
100
AcDbEntity
  8
TITLE
100
AcDbText
 10
0.625
 20
0.0999999999999998
 30
0.0
 40
0.2
  1
TITLE
  7
L200
100
AcDbAttributeDefinition
  3
DETAIL TITLE TOP 2ND LINE
  2
TITLE2
 70
     0
  0
LWPOLYLINE
  5
16D0
330
16CD
100
AcDbEntity
  8
TITLE
 62
     3
100
AcDbPolyline
 90
        2
 70
     1
 43
0.03
 10
0.0
 20
-0.3425000000000002
 42
0.9999999999999998
 10
0.0
 20
0.3425000000000002
 42
0.9999999999999998
  0
ATTDEF
  5
16D1
330
16CD
100
AcDbEntity
  8
TITLE
100
AcDbText
 10
-0.0776944065484311
 20
-0.1000000000000003
 30
0.0
 40
0.2
  1
#
  7
L200
 72
     4
 11
0.0
 21
-0.0000000000000003
 31
0.0
100
AcDbAttributeDefinition
  3
#
  2
#
 70
     0
  0
ATTDEF
  5
16D2
330
16CD
100
AcDbEntity
  8
TITLE
 62
     7
100
AcDbText
 10
0.625
 20
-0.1836633170828782
 30
0.0
 40
0.1
  1
N.T.S.
  7
L100
100
AcDbAttributeDefinition
  3
SCALE
  2
SCALE
 70
     0
  0
ATTDEF
  5
16D3
330
16CD
100
AcDbEntity
  8
TITLE
100
AcDbText
 10
2.107203380653828
 20
-0.2914343300200487
 30
0.0
 40
0.2
  1
TITLE2
  7
L200
100
AcDbAttributeDefinition
  3
DETAIL TITLE BOTTOM 1
  2
TITLE3
 70
     0
  0
ATTDEF
  5
16D4
330
16CD
100
AcDbEntity
  8
TITLE
 62
     7
100
AcDbText
 10
7.570772459451895
 20
-0.1618486459795794
 30
0.0
 40
0.08
  1
-
  7
L80
 72
     2
 11
7.654581983261419
 21
-0.1618486459795794
 31
0.0
100
AcDbAttributeDefinition
  3
DWG-NAME
  2
DWG-NAME
 70
     0
  0
ATTDEF
  5
16D5
330
16CD
100
AcDbEntity
  8
TITLE
 62
     7
100
AcDbText
 10
7.570772459451895
 20
0.0853756950662722
 30
0.0
 40
0.08
  1
-
  7
L80
 72
     2
 11
7.654581983261419
 21
0.0853756950662722
 31
0.0
100
AcDbAttributeDefinition
  3
REVISION DATE
  2
REVISED
 70
     0
  0
ATTDEF
  5
16D6
330
16CD
100
AcDbEntity
  8
TITLE
100
AcDbText
 10
0.625
 20
0.459485206268383
 30
0.0
 40
0.2
  1
TITLE
  7
L200
100
AcDbAttributeDefinition
  3
DETAIL TITLE TOP LINE
  2
TITLE1
 70
     0
  0
ATTDEF
  5
16D7
330
16CD
100
AcDbEntity
  8
TITLE
100
AcDbText
 10
2.107203380653828
 20
-0.6149710156615936
 30
0.0
 40
0.2
  1
TITLE2
  7
L200
100
AcDbAttributeDefinition
  3
DETAIL TITLE BOTTOM 2
  2
TITLE4
 70
     0
  0
ENDBLK
  5
16D9
330
16CD
100
AcDbEntity
  8
0
100
AcDbBlockEnd
  0
BLOCK
  5
16F1
330
16EE
100
AcDbEntity
  8
0
100
AcDbBlockBegin
  2
bubble
 70
     2
 10
0.0
 20
0.0
 30
0.0
  3
bubble
  1

  0
CIRCLE
  5
16EF
330
16EE
100
AcDbEntity
  8
TEXT_BUBBLES
100
AcDbCircle
 10
0.0
 20
0.0
 30
0.0
 40
0.1398891854377198
  0
ATTDEF
  5
16F0
330
16EE
100
AcDbEntity
  8
TEXT_BUBBLES
100
AcDbText
 10
0.0
 20
0.0
 30
0.0
 40
0.125
  1

  7
ROMANS
 72
     4
 11
0.0
 21
0.0
 31
0.0
100
AcDbAttributeDefinition
  3
Number
  2
XX
 70
     0
  0
ENDBLK
  5
16F2
330
16EE
100
AcDbEntity
  8
0
100
AcDbBlockEnd
  0
BLOCK
  5
16F4
330
16F3
100
AcDbEntity
  8
0
100
AcDbBlockBegin
  2
PlotLayout2002
 70
     0
 10
0.0
 20
0.0
 30
0.0
  3
PlotLayout2002
  1

  0
ENDBLK
  5
16F5
330
16F3
100
AcDbEntity
  8
0
100
AcDbBlockEnd
  0
BLOCK
  5
16F8
330
16F6
100
AcDbEntity
  8
0
 62
    40
100
AcDbBlockBegin
  2
wid
 70
     0
 10
0.0
 20
0.0
 30
0.0
  3
wid
  1

  0
INSERT
  5
16F7
330
16F6
100
AcDbEntity
  8
0
100
AcDbBlockReference
  2
PlotLayout2002
 10
0.0
 20
0.0
 30
0.0
  0
ENDBLK
  5
16F9
330
16F6
100
AcDbEntity
  8
0
 62
    40
100
AcDbBlockEnd
  0
BLOCK
  5
19D5
330
19D3
100
AcDbEntity
  8
0
100
AcDbBlockBegin
  2
pagesetups
 70
     0
 10
0.0
 20
0.0
 30
0.0
  3
pagesetups
  1

  0
INSERT
  5
19D4
330
19D3
100
AcDbEntity
  8
0
100
AcDbBlockReference
  2
PlotLayout2002
 10
0.0
 20
0.0
 30
0.0
  0
ENDBLK
  5
19D6
330
19D3
100
AcDbEntity
  8
0
100
AcDbBlockEnd
  0
ENDSEC
  0
SECTION
  2
ENTITIES
  0
LWPOLYLINE
  5
93
330
18
100
AcDbEntity
  8
IMAGE
  6
Continuous
 62
     7
100
AcDbPolyline
 90
        4
 70
     1
 43
0.0
 10
5.2926060840309
 20
8.776498906305398
 10
7.165947621776702
 20
8.776498906305398
 10
7.165947621776702
 20
5.1689767803081
 10
5.2926060840309
 20
5.1689767803081
  0
LWPOLYLINE
  5
99
330
18
100
AcDbEntity
  8
IMAGE
  6
Continuous
 62
     7
100
AcDbPolyline
 90
        4
 70
     1
 43
0.0
 10
3.079813051480101
 20
8.590689337223899
 10
4.306405725004101
 20
8.590689337223899
 10
4.306405725004101
 20
7.453303403592601
 10
3.079813051480101
 20
7.453303403592601
  0
LWPOLYLINE
  5
9F
330
18
100
AcDbEntity
  8
IMAGE
  6
Continuous
 62
     7
100
AcDbPolyline
 90
        4
 70
     1
 43
0.0
 10
4.427782783735999
 20
7.4070259914432
 10
4.830916472493001
 20
7.4070259914432
 10
4.830916472493001
 20
6.4923893427578
 10
4.427782783735999
 20
6.4923893427578
  0
LWPOLYLINE
  5
A5
330
18
100
AcDbEntity
  8
IMAGE
  6
HIDDEN2
 62
     7
100
AcDbPolyline
 90
        4
 70
     1
 43
0.0
 10
2.963694187142198
 20
8.671665018886699
 10
5.187632760002799
 20
8.671665018886699
 10
5.187632760002799
 20
5.270257197502001
 10
2.963694187142198
 20
5.270257197502001
  0
LWPOLYLINE
  5
AB
330
18
100
AcDbEntity
  8
IMAGE
  6
Continuous
 62
     7
100
AcDbPolyline
 90
        4
 70
     1
 43
0.0
 10
2.865231702700498
 20
8.775893200173699
 10
5.2836450345753
 20
8.775893200173699
 10
5.2836450345753
 20
5.1717947130603
 10
2.865231702700498
 20
5.1717947130603
  0
LWPOLYLINE
  5
B1
330
18
100
AcDbEntity
  8
IMAGE
  6
Continuous
 62
     7
100
AcDbPolyline
 90
        4
 70
     1
 43
0.0
 10
2.868995488092899
 20
5.1724774354172
 10
5.284702895978398
 20
5.1724774354172
 10
5.284702895978398
 20
4.150421625053
 10
2.868995488092899
 20
4.150421625053
  0
LWPOLYLINE
  5
BD
330
18
100
AcDbEntity
  8
IMAGE
  6
Continuous
 62
     7
100
AcDbPolyline
 90
        4
 70
     1
 43
0.0
 10
2.448751593520199
 20
4.140575376608801
 10
5.648782337877399
 20
4.140575376608801
 10
5.648782337877399
 20
3.3430292526306
 10
2.448751593520199
 20
3.3430292526306
  0
LWPOLYLINE
  5
11F
330
18
100
AcDbEntity
  8
IMAGE
  6
Continuous
 62
     7
100
AcDbPolyline
 90
        4
 70
     1
 43
0.0
 10
4.430253189651381
 20
5.345013267178144
 10
4.521265460361281
 20
5.345013267178144
 10
4.521265460361281
 20
5.1732015130912
 10
4.430253189651381
 20
5.1732015130912
  0
LWPOLYLINE
  5
125
330
18
100
AcDbEntity
  8
IMAGE
  6
Continuous
 62
     7
100
AcDbPolyline
 90
        4
 70
     1
 43
0.0
 10
4.640043850449437
 20
5.345013267178144
 10
4.795908468551736
 20
5.345013267178144
 10
4.795908468551736
 20
5.1732015130912
 10
4.640043850449437
 20
5.1732015130912
  0
LWPOLYLINE
  5
12B
330
18
100
AcDbEntity
  8
IMAGE
  6
Continuous
 62
     7
100
AcDbPolyline
 90
        4
 70
     1
 43
0.0
 10
4.970217088416443
 20
5.343899948477443
 10
5.061229359126443
 20
5.343899948477443
 10
5.061229359126443
 20
5.172088194390401
 10
4.970217088416443
 20
5.172088194390401
  0
LWPOLYLINE
  5
13D8
330
18
100
AcDbEntity
  8
IMAGE
  6
Continuous
 62
     7
100
AcDbPolyline
 90
        4
 70
     1
 43
0.0
 10
4.420938956880199
 20
8.3909185853934
 10
4.824072645637301
 20
8.3909185853934
 10
4.824072645637301
 20
7.476281936708002
 10
4.420938956880199
 20
7.476281936708002
  0
LWPOLYLINE
  5
13DE
330
18
100
AcDbEntity
  8
IMAGE
  6
Continuous
 62
     7
100
AcDbPolyline
 90
        4
 70
     1
 43
0.0
 10
3.079020235249199
 20
7.389311615647001
 10
4.305612908773198
 20
7.389311615647001
 10
4.305612908773198
 20
6.251925682015599
 10
3.079020235249199
 20
6.251925682015599
  0
LINE
  5
13F6
330
18
100
AcDbEntity
  8
IMAGE
  6
Continuous
 62
     7
100
AcDbLine
 10
3.263264294027372
 20
6.084783851624239
 30
0.0
 11
3.263264294027298
 21
6.252551900713399
 31
0.0
  0
LINE
  5
13F7
330
18
100
AcDbEntity
  8
IMAGE
  6
Continuous
 62
     7
100
AcDbLine
 10
3.312401805135298
 20
6.252551900713399
 30
0.0
 11
3.312401805135298
 21
6.126220169232371
 31
0.0
  0
LINE
  5
13F8
330
18
100
AcDbEntity
  8
IMAGE
  6
Continuous
 62
     7
100
AcDbLine
 10
2.9635157824734
 20
6.073369618939
 30
0.0
 11
2.9619576756754
 21
6.174646560811501
 31
0.0
  0
LINE
  5
1408
330
18
100
AcDbEntity
  8
IMAGE
  6
Continuous
100
AcDbLine
 10
7.803058620893651
 20
3.979594083969542
 30
0.0
 11
5.648782337877399
 21
3.979594083969542
 31
0.0
  0
LWPOLYLINE
  5
140B
330
18
100
AcDbEntity
  8
IMAGE
  6
Continuous
 62
     7
100
AcDbPolyline
 90
        2
 70
     0
 43
0.013
 10
4.475759325006329
 20
6.4923893427578
 10
4.475759325006329
 20
5.345718907501444
  0
LWPOLYLINE
  5
140C
330
18
100
AcDbEntity
  8
IMAGE
  6
Continuous
 62
     7
100
AcDbPolyline
 90
        3
 70
     0
 43
0.013
 10
5.096822923412798
 20
6.352148239982073
 10
5.096496288276425
 20
6.334600121959727
 10
5.015723223771445
 20
5.343899948477443
  0
LWPOLYLINE
  5
1412
330
18
100
AcDbEntity
  8
IMAGE
  6
Continuous
 62
     7
100
AcDbPolyline
 90
        4
 70
     0
 43
0.0
 10
3.333339184936299
 20
5.352312870487581
 10
3.333339184936299
 20
5.1732015130912
 10
3.242326914226399
 20
5.1732015130912
 10
3.242326914226399
 20
5.362896573326731
  0
LWPOLYLINE
  5
1417
330
18
100
AcDbEntity
  8
IMAGE
  6
Continuous
100
AcDbPolyline
 90
       13
 70
     1
 10
3.146144665112643
 20
5.473372877392334
 40
0.0
 41
0.0
 42
0.5205670505517463
 10
3.146144665112643
 20
5.473372877392334
 40
0.0
 41
0.025
 42
0.5205670505517463
 10
3.400652456567598
 20
5.37965822985726
 40
0.0
 41
0.025
 42
0.5205670505517463
 10
3.65069521008759
 20
5.384120838722015
 40
0.0
 41
0.025
 42
0.5205670505517463
 10
3.896272894214515
 20
5.468910268527578
 40
0.0
 41
0.025
 42
0.5205670505517463
 10
4.097200104617503
 20
5.629563969819815
 40
0.0
 41
0.025
 42
0.5205670505517463
 10
4.132920471013409
 20
5.883932298843586
 40
0.0
 41
0.025
 42
0.5205670505517463
 10
4.007899125711521
 20
6.107062425224691
 40
0.0
 41
0.025
 42
0.5205670505517463
 10
3.748926264863495
 20
6.133838038806141
 40
0.0
 41
0.025
 42
0.5205670505517463
 10
3.49888354280161
 20
6.093674618433967
 40
0.0
 41
0.025
 42
0.5205670505517463
 10
3.248840789281615
 20
6.062436415791302
 40
0.0
 41
0.025
 42
0.5205670505517463
 10
3.088099014667605
 20
5.861619294126891
 40
0.0
 41
0.025
 42
0.5205670505517463
 10
3.146144665112643
 20
5.473372877392334
 40
0.025
 41
0.025
  0
POLYLINE
  5
1495
330
18
100
AcDbEntity
  8
IMAGE
  6
Continuous
100
AcDb2dPolyline
 66
     1
 10
0.0
 20
0.0
 30
0.0
  0
VERTEX
  5
1496
330
1495
100
AcDbEntity
  8
IMAGE
  6
Continuous
100
AcDbVertex
100
AcDb2dVertex
 10
3.251265588963889
 20
3.140520425933577
 30
0.0
  0
VERTEX
  5
1497
330
1495
100
AcDbEntity
  8
IMAGE
  6
Continuous
100
AcDbVertex
100
AcDb2dVertex
 10
3.251907213255108
 20
3.14185989647394
 30
0.0
  0
VERTEX
  5
1498
330
1495
100
AcDbEntity
  8
IMAGE
  6
Continuous
100
AcDbVertex
100
AcDb2dVertex
 10
3.253187034597502
 20
3.143462837161903
 30
0.0
  0
VERTEX
  5
1499
330
1495
100
AcDbEntity
  8
IMAGE
  6
Continuous
100
AcDbVertex
100
AcDb2dVertex
 10
3.255110392791326
 20
3.145133313082885
 30
0.0
  0
VERTEX
  5
149A
330
1495
100
AcDbEntity
  8
IMAGE
  6
Continuous
100
AcDbVertex
100
AcDb2dVertex
 10
3.257682627636842
 20
3.1466753893223
 30
0.0
  0
VERTEX
  5
149B
330
1495
100
AcDbEntity
  8
IMAGE
  6
Continuous
100
AcDbVertex
100
AcDb2dVertex
 10
3.260909078934304
 20
3.147893130965566
 30
0.0
  0
VERTEX
  5
149C
330
1495
100
AcDbEntity
  8
IMAGE
  6
Continuous
100
AcDbVertex
100
AcDb2dVertex
 10
3.264795086483971
 20
3.148590603098099
 30
0.0
  0
VERTEX
  5
149D
330
1495
100
AcDbEntity
  8
IMAGE
  6
Continuous
100
AcDbVertex
100
AcDb2dVertex
 10
3.269345990086097
 20
3.148571870805314
 30
0.0
  0
VERTEX
  5
149E
330
1495
100
AcDbEntity
  8
IMAGE
  6
Continuous
100
AcDbVertex
100
AcDb2dVertex
 10
3.27456712954094
 20
3.147640999172629
 30
0.0
  0
VERTEX
  5
149F
330
1495
100
AcDbEntity
  8
IMAGE
  6
Continuous
100
AcDbVertex
100
AcDb2dVertex
 10
3.280427033636829
 20
3.145716005094352
 30
0.0
  0
VERTEX
  5
14A0
330
1495
100
AcDbEntity
  8
IMAGE
  6
Continuous
100
AcDbVertex
100
AcDb2dVertex
 10
3.286746987114366
 20
3.143170712700361
 30
0.0
  0
VERTEX
  5
14A1
330
1495
100
AcDbEntity
  8
IMAGE
  6
Continuous
100
AcDbVertex
100
AcDb2dVertex
 10
3.293311463702224
 20
3.140492897929424
 30
0.0
  0
VERTEX
  5
14A2
330
1495
100
AcDbEntity
  8
IMAGE
  6
Continuous
100
AcDbVertex
100
AcDb2dVertex
 10
3.299904937129078
 20
3.13817033672031
 30
0.0
  0
VERTEX
  5
14A3
330
1495
100
AcDbEntity
  8
IMAGE
  6
Continuous
100
AcDbVertex
100
AcDb2dVertex
 10
3.306311881123605
 20
3.13669080501179
 30
0.0
  0
VERTEX
  5
14A4
330
1495
100
AcDbEntity
  8
IMAGE
  6
Continuous
100
AcDbVertex
100
AcDb2dVertex
 10
3.312316769414472
 20
3.136542078742632
 30
0.0
  0
VERTEX
  5
14A5
330
1495
100
AcDbEntity
  8
IMAGE
  6
Continuous
100
AcDbVertex
100
AcDb2dVertex
 10
3.317704075730361
 20
3.138211933851605
 30
0.0
  0
VERTEX
  5
14A6
330
1495
100
AcDbEntity
  8
IMAGE
  6
Continuous
100
AcDbVertex
100
AcDb2dVertex
 10
3.322258273799938
 20
3.142188146277479
 30
0.0
  0
SEQEND
  5
14A7
330
1495
100
AcDbEntity
  8
IMAGE
  6
Continuous
  0
LINE
  5
14A8
330
18
100
AcDbEntity
  8
IMAGE
  6
HIDDEN
 62
     7
100
AcDbLine
 10
4.43097879237148
 20
5.171589925880999
 30
0.0
 11
4.521991063081379
 21
5.171589925880999
 31
0.0
  0
LINE
  5
14A9
330
18
100
AcDbEntity
  8
IMAGE
  6
HIDDEN
 62
     7
100
AcDbLine
 10
4.521991063081379
 20
5.171589925880999
 30
0.0
 11
4.521991063081379
 21
3.1549789041253
 31
0.0
  0
LINE
  5
14AB
330
18
100
AcDbEntity
  8
IMAGE
  6
HIDDEN
 62
     7
100
AcDbLine
 10
4.43097879237148
 20
3.1549789041253
 30
0.0
 11
4.43097879237148
 21
5.171589925880999
 31
0.0
  0
LINE
  5
14AC
330
18
100
AcDbEntity
  8
IMAGE
  6
HIDDEN
 62
     7
100
AcDbLine
 10
4.971188320389643
 20
5.172088194390401
 30
0.0
 11
5.062200591099642
 21
5.172088194390401
 31
0.0
  0
LINE
  5
14AD
330
18
100
AcDbEntity
  8
IMAGE
  6
HIDDEN
 62
     7
100
AcDbLine
 10
5.062200591099642
 20
5.172088194390401
 30
0.0
 11
5.062200591099642
 21
3.1723581803659
 31
0.0
  0
LINE
  5
14AF
330
18
100
AcDbEntity
  8
IMAGE
  6
HIDDEN
 62
     7
100
AcDbLine
 10
4.971188320389643
 20
3.1723581803659
 30
0.0
 11
4.971188320389643
 21
5.172088194390401
 31
0.0
  0
LINE
  5
14B0
330
18
100
AcDbEntity
  8
IMAGE
  6
HIDDEN
 62
     7
100
AcDbLine
 10
4.640255912507637
 20
5.172088194390401
 30
0.0
 11
4.795388489061238
 21
5.172088194390401
 31
0.0
  0
LINE
  5
14B1
330
18
100
AcDbEntity
  8
IMAGE
  6
HIDDEN
 62
     7
100
AcDbLine
 10
4.795388489061238
 20
5.172088194390401
 30
0.0
 11
4.795388489061238
 21
3.159968011633401
 31
0.0
  0
LINE
  5
14B3
330
18
100
AcDbEntity
  8
IMAGE
  6
HIDDEN
 62
     7
100
AcDbLine
 10
4.640255912507637
 20
3.159968011633401
 30
0.0
 11
4.640255912507637
 21
5.172088194390401
 31
0.0
  0
POLYLINE
  5
14B4
330
18
100
AcDbEntity
  8
IMAGE
  6
Continuous
100
AcDb2dPolyline
 66
     1
 10
0.0
 20
0.0
 30
0.0
  0
VERTEX
  5
14B5
330
14B4
100
AcDbEntity
  8
IMAGE
  6
Continuous
100
AcDbVertex
100
AcDb2dVertex
 10
4.43097879237148
 20
3.139057135403973
 30
0.0
  0
VERTEX
  5
14B6
330
14B4
100
AcDbEntity
  8
IMAGE
  6
Continuous
100
AcDbVertex
100
AcDb2dVertex
 10
4.431801124668456
 20
3.140773856390483
 30
0.0
  0
VERTEX
  5
14B7
330
14B4
100
AcDbEntity
  8
IMAGE
  6
Continuous
100
AcDbVertex
100
AcDb2dVertex
 10
4.433441396769456
 20
3.142828251643113
 30
0.0
  0
VERTEX
  5
14B8
330
14B4
100
AcDbEntity
  8
IMAGE
  6
Continuous
100
AcDbVertex
100
AcDb2dVertex
 10
4.43590645238391
 20
3.144969202850768
 30
0.0
  0
VERTEX
  5
14B9
330
14B4
100
AcDbEntity
  8
IMAGE
  6
Continuous
100
AcDbVertex
100
AcDb2dVertex
 10
4.439203135221248
 20
3.146945591702356
 30
0.0
  0
VERTEX
  5
14BA
330
14B4
100
AcDbEntity
  8
IMAGE
  6
Continuous
100
AcDbVertex
100
AcDb2dVertex
 10
4.44333828899089
 20
3.148506299886782
 30
0.0
  0
VERTEX
  5
14BB
330
14B4
100
AcDbEntity
  8
IMAGE
  6
Continuous
100
AcDbVertex
100
AcDb2dVertex
 10
4.448318757402269
 20
3.149400209092952
 30
0.0
  0
VERTEX
  5
14BC
330
14B4
100
AcDbEntity
  8
IMAGE
  6
Continuous
100
AcDbVertex
100
AcDb2dVertex
 10
4.454151384164809
 20
3.149376201009774
 30
0.0
  0
VERTEX
  5
14BD
330
14B4
100
AcDbEntity
  8
IMAGE
  6
Continuous
100
AcDbVertex
100
AcDb2dVertex
 10
4.460843012987943
 20
3.148183157326152
 30
0.0
  0
VERTEX
  5
14BE
330
14B4
100
AcDbEntity
  8
IMAGE
  6
Continuous
100
AcDbVertex
100
AcDb2dVertex
 10
4.468353309061811
 20
3.145716005094352
 30
0.0
  0
VERTEX
  5
14BF
330
14B4
100
AcDbEntity
  8
IMAGE
  6
Continuous
100
AcDbVertex
100
AcDb2dVertex
 10
4.476453223499433
 20
3.142453852820077
 30
0.0
  0
VERTEX
  5
14C0
330
14B4
100
AcDbEntity
  8
IMAGE
  6
Continuous
100
AcDbVertex
100
AcDb2dVertex
 10
4.484866528894549
 20
3.139021854372384
 30
0.0
  0
VERTEX
  5
14C1
330
14B4
100
AcDbEntity
  8
IMAGE
  6
Continuous
100
AcDbVertex
100
AcDb2dVertex
 10
4.493316997840892
 20
3.136045163620336
 30
0.0
  0
VERTEX
  5
14C2
330
14B4
100
AcDbEntity
  8
IMAGE
  6
Continuous
100
AcDbVertex
100
AcDb2dVertex
 10
4.501528402932205
 20
3.134148934432991
 30
0.0
  0
VERTEX
  5
14C3
330
14B4
100
AcDbEntity
  8
IMAGE
  6
Continuous
100
AcDbVertex
100
AcDb2dVertex
 10
4.50922451676222
 20
3.13395832067941
 30
0.0
  0
VERTEX
  5
14C4
330
14B4
100
AcDbEntity
  8
IMAGE
  6
Continuous
100
AcDbVertex
100
AcDb2dVertex
 10
4.516129111924676
 20
3.136098476228654
 30
0.0
  0
VERTEX
  5
14C5
330
14B4
100
AcDbEntity
  8
IMAGE
  6
Continuous
100
AcDbVertex
100
AcDb2dVertex
 10
4.521965961013314
 20
3.141194554949782
 30
0.0
  0
SEQEND
  5
14C6
330
14B4
100
AcDbEntity
  8
IMAGE
  6
Continuous
  0
POLYLINE
  5
14C7
330
18
100
AcDbEntity
  8
IMAGE
  6
Continuous
100
AcDb2dPolyline
 66
     1
 10
0.0
 20
0.0
 30
0.0
  0
VERTEX
  5
14C8
330
14C7
100
AcDbEntity
  8
IMAGE
  6
Continuous
100
AcDbVertex
100
AcDb2dVertex
 10
4.971188320389643
 20
3.156436411644573
 30
0.0
  0
VERTEX
  5
14C9
330
14C7
100
AcDbEntity
  8
IMAGE
  6
Continuous
100
AcDbVertex
100
AcDb2dVertex
 10
4.97201065268662
 20
3.158153132631083
 30
0.0
  0
VERTEX
  5
14CA
330
14C7
100
AcDbEntity
  8
IMAGE
  6
Continuous
100
AcDbVertex
100
AcDb2dVertex
 10
4.973650924787619
 20
3.160207527883713
 30
0.0
  0
VERTEX
  5
14CB
330
14C7
100
AcDbEntity
  8
IMAGE
  6
Continuous
100
AcDbVertex
100
AcDb2dVertex
 10
4.976115980402074
 20
3.162348479091368
 30
0.0
  0
VERTEX
  5
14CC
330
14C7
100
AcDbEntity
  8
IMAGE
  6
Continuous
100
AcDbVertex
100
AcDb2dVertex
 10
4.979412663239408
 20
3.164324867942956
 30
0.0
  0
VERTEX
  5
14CD
330
14C7
100
AcDbEntity
  8
IMAGE
  6
Continuous
100
AcDbVertex
100
AcDb2dVertex
 10
4.983547817009053
 20
3.165885576127382
 30
0.0
  0
VERTEX
  5
14CE
330
14C7
100
AcDbEntity
  8
IMAGE
  6
Continuous
100
AcDbVertex
100
AcDb2dVertex
 10
4.988528285420429
 20
3.166779485333552
 30
0.0
  0
VERTEX
  5
14CF
330
14C7
100
AcDbEntity
  8
IMAGE
  6
Continuous
100
AcDbVertex
100
AcDb2dVertex
 10
4.994360912182973
 20
3.166755477250374
 30
0.0
  0
VERTEX
  5
14D0
330
14C7
100
AcDbEntity
  8
IMAGE
  6
Continuous
100
AcDbVertex
100
AcDb2dVertex
 10
5.001052541006103
 20
3.165562433566752
 30
0.0
  0
VERTEX
  5
14D1
330
14C7
100
AcDbEntity
  8
IMAGE
  6
Continuous
100
AcDbVertex
100
AcDb2dVertex
 10
5.008562837079971
 20
3.163095281334952
 30
0.0
  0
VERTEX
  5
14D2
330
14C7
100
AcDbEntity
  8
IMAGE
  6
Continuous
100
AcDbVertex
100
AcDb2dVertex
 10
5.016662751517596
 20
3.159833129060677
 30
0.0
  0
VERTEX
  5
14D3
330
14C7
100
AcDbEntity
  8
IMAGE
  6
Continuous
100
AcDbVertex
100
AcDb2dVertex
 10
5.025076056912709
 20
3.156401130612985
 30
0.0
  0
VERTEX
  5
14D4
330
14C7
100
AcDbEntity
  8
IMAGE
  6
Continuous
100
AcDbVertex
100
AcDb2dVertex
 10
5.033526525859056
 20
3.153424439860936
 30
0.0
  0
VERTEX
  5
14D5
330
14C7
100
AcDbEntity
  8
IMAGE
  6
Continuous
100
AcDbVertex
100
AcDb2dVertex
 10
5.041737930950368
 20
3.151528210673591
 30
0.0
  0
VERTEX
  5
14D6
330
14C7
100
AcDbEntity
  8
IMAGE
  6
Continuous
100
AcDbVertex
100
AcDb2dVertex
 10
5.049434044780383
 20
3.151337596920011
 30
0.0
  0
VERTEX
  5
14D7
330
14C7
100
AcDbEntity
  8
IMAGE
  6
Continuous
100
AcDbVertex
100
AcDb2dVertex
 10
5.05633863994284
 20
3.153477752469254
 30
0.0
  0
VERTEX
  5
14D8
330
14C7
100
AcDbEntity
  8
IMAGE
  6
Continuous
100
AcDbVertex
100
AcDb2dVertex
 10
5.062175489031474
 20
3.158573831190382
 30
0.0
  0
SEQEND
  5
14D9
330
14C7
100
AcDbEntity
  8
IMAGE
  6
Continuous
  0
POLYLINE
  5
14DA
330
18
100
AcDbEntity
  8
IMAGE
  6
Continuous
100
AcDb2dPolyline
 66
     1
 10
0.0
 20
0.0
 30
0.0
  0
VERTEX
  5
14DB
330
14DA
100
AcDbEntity
  8
IMAGE
  6
Continuous
100
AcDbVertex
100
AcDb2dVertex
 10
4.640288329145111
 20
3.139057135403973
 30
0.0
  0
VERTEX
  5
14DC
330
14DA
100
AcDbEntity
  8
IMAGE
  6
Continuous
100
AcDbVertex
100
AcDb2dVertex
 10
4.641785605843747
 20
3.142182886807164
 30
0.0
  0
VERTEX
  5
14DD
330
14DA
100
AcDbEntity
  8
IMAGE
  6
Continuous
100
AcDbVertex
100
AcDb2dVertex
 10
4.644772161528457
 20
3.145923464859206
 30
0.0
  0
VERTEX
  5
14DE
330
14DA
100
AcDbEntity
  8
IMAGE
  6
Continuous
100
AcDbVertex
100
AcDb2dVertex
 10
4.649260457009418
 20
3.14982164126299
 30
0.0
  0
VERTEX
  5
14DF
330
14DA
100
AcDbEntity
  8
IMAGE
  6
Continuous
100
AcDbVertex
100
AcDb2dVertex
 10
4.655262953096816
 20
3.153420187721411
 30
0.0
  0
VERTEX
  5
14E0
330
14DA
100
AcDbEntity
  8
IMAGE
  6
Continuous
100
AcDbVertex
100
AcDb2dVertex
 10
4.662792110600825
 20
3.156261875937362
 30
0.0
  0
VERTEX
  5
14E1
330
14DA
100
AcDbEntity
  8
IMAGE
  6
Continuous
100
AcDbVertex
100
AcDb2dVertex
 10
4.671860390331634
 20
3.157889477613738
 30
0.0
  0
VERTEX
  5
14E2
330
14DA
100
AcDbEntity
  8
IMAGE
  6
Continuous
100
AcDbVertex
100
AcDb2dVertex
 10
4.682480253099413
 20
3.157845764453433
 30
0.0
  0
VERTEX
  5
14E3
330
14DA
100
AcDbEntity
  8
IMAGE
  6
Continuous
100
AcDbVertex
100
AcDb2dVertex
 10
4.694664159714353
 20
3.155673508159339
 30
0.0
  0
VERTEX
  5
14E4
330
14DA
100
AcDbEntity
  8
IMAGE
  6
Continuous
100
AcDbVertex
100
AcDb2dVertex
 10
4.708338669827384
 20
3.15118139522367
 30
0.0
  0
VERTEX
  5
14E5
330
14DA
100
AcDbEntity
  8
IMAGE
  6
Continuous
100
AcDbVertex
100
AcDb2dVertex
 10
4.723086738452444
 20
3.145241771295921
 30
0.0
  0
VERTEX
  5
14E6
330
14DA
100
AcDbEntity
  8
IMAGE
  6
Continuous
100
AcDbVertex
100
AcDb2dVertex
 10
4.738405419444237
 20
3.138992896814906
 30
0.0
  0
VERTEX
  5
14E7
330
14DA
100
AcDbEntity
  8
IMAGE
  6
Continuous
100
AcDbVertex
100
AcDb2dVertex
 10
4.753791766657457
 20
3.133573032219437
 30
0.0
  0
VERTEX
  5
14E8
330
14DA
100
AcDbEntity
  8
IMAGE
  6
Continuous
100
AcDbVertex
100
AcDb2dVertex
 10
4.768742833946802
 20
3.130120437948329
 30
0.0
  0
VERTEX
  5
14E9
330
14DA
100
AcDbEntity
  8
IMAGE
  6
Continuous
100
AcDbVertex
100
AcDb2dVertex
 10
4.782755675166974
 20
3.129773374440395
 30
0.0
  0
VERTEX
  5
14EA
330
14DA
100
AcDbEntity
  8
IMAGE
  6
Continuous
100
AcDbVertex
100
AcDb2dVertex
 10
4.795327344172658
 20
3.133670102134449
 30
0.0
  0
VERTEX
  5
14EB
330
14DA
100
AcDbEntity
  8
IMAGE
  6
Continuous
100
AcDbVertex
100
AcDb2dVertex
 10
4.805954894818562
 20
3.142948881469306
 30
0.0
  0
SEQEND
  5
14EC
330
14DA
100
AcDbEntity
  8
IMAGE
  6
Continuous
  0
LINE
  5
14ED
330
18
100
AcDbEntity
  8
IMAGE
  6
HIDDEN
 62
     7
100
AcDbLine
 10
3.2530525169465
 20
3.1549789041253
 30
0.0
 11
3.2530525169465
 21
5.171589925881
 31
0.0
  0
LINE
  5
14EE
330
18
100
AcDbEntity
  8
IMAGE
  6
HIDDEN
 62
     7
100
AcDbLine
 10
3.243052516946498
 20
5.171589925881
 30
0.0
 11
3.334064787656398
 21
5.171589925881
 31
0.0
  0
LINE
  5
14EF
330
18
100
AcDbEntity
  8
IMAGE
  6
HIDDEN
 62
     7
100
AcDbLine
 10
3.3240647876564
 20
5.171589925881
 30
0.0
 11
3.3240647876564
 21
3.1549789041253
 31
0.0
  0
INSERT
  5
1868
330
18
100
AcDbEntity
  8
TEXT_BUBBLES
 62
    42
100
AcDbBlockReference
  2
wid
 10
12.9672186490239
 20
0.3207475386921246
 30
0.0
  0
INSERT
  5
1869
330
18
100
AcDbEntity
  8
TEXT_BUBBLES
 62
    42
100
AcDbBlockReference
  2
wid
 10
12.9672186490239
 20
0.3207475386921246
 30
0.0
  0
INSERT
  5
18F9
330
18
100
AcDbEntity
  8
TEXT_BUBBLES
 62
    42
100
AcDbBlockReference
 66
     1
  2
TITLBLK
 10
0.6064423705144844
 20
0.8842270964783676
 30
0.0
  0
ATTRIB
  5
18FA
330
18F9
100
AcDbEntity
  8
TITLE
100
AcDbText
 10
1.231442370514484
 20
0.9842270964783672
 30
0.0
 40
0.2
  1
ENCLOSURE ASSEMBLY
  7
L200
100
AcDbAttribute
  2
TITLE2
 70
     0
  0
ATTRIB
  5
18FB
330
18F9
100
AcDbEntity
  8
TITLE
100
AcDbText
 10
0.373359150869191
 20
0.7855231401345745
 30
0.0
 40
0.2
  1
106
  7
L200
 72
     4
 11
0.6064423705144844
 21
0.8842270964783672
 31
0.0
100
AcDbAttribute
  2
#
 70
     0
  0
ATTRIB
  5
18FC
330
18F9
100
AcDbEntity
  8
TITLE
 62
     7
100
AcDbText
 10
1.231442370514484
 20
0.7005637793954893
 30
0.0
 40
0.1
  1
N.T.S.
  7
L100
100
AcDbAttribute
  2
SCALE
 70
     0
  0
ATTRIB
  5
18FD
330
18F9
100
AcDbEntity
  8
TITLE
100
AcDbText
 10
2.713645751168312
 20
0.5927927664583188
 30
0.0
 40
0.2
  1
TWO-WIRE COMMUNICATION
  7
L200
100
AcDbAttribute
  2
TITLE3
 70
     0
  0
ATTRIB
  5
18FE
330
18F9
100
AcDbEntity
  8
TITLE
 62
     7
100
AcDbText
 10
0.2370631595605626
 20
0.041823938233705
 30
0.0
 40
0.08
  1
106-MCM ENCL-2-SAT.DWG
  7
L80
 72
     2
 11
1.966586969084371
 21
0.041823938233705
 31
0.0
100
AcDbAttribute
  2
DWG-NAME
 70
     0
  0
ATTRIB
  5
18FF
330
18F9
100
AcDbEntity
  8
TITLE
 62
     7
100
AcDbText
 10
7.68959578234733
 20
0.9696027915446396
 30
0.0
 40
0.08
  1
1-14-04
  7
L80
 72
     2
 11
8.261024353775901
 21
0.9696027915446396
 31
0.0
100
AcDbAttribute
  2
REVISED
 70
     0
  0
ATTRIB
  5
1900
330
18F9
100
AcDbEntity
  8
TITLE
100
AcDbText
 10
1.231442370514484
 20
1.34371230274675
 30
0.0
 40
0.2
  1
MAXICOM SATELLITE CONTROLLER
  7
L200
100
AcDbAttribute
  2
TITLE1
 70
     0
  0
ATTRIB
  5
1901
330
18F9
100
AcDbEntity
  8
TITLE
100
AcDbText
 10
2.713645751168312
 20
0.2692560808167741
 30
0.0
 40
0.2
  1
WIRING DIAGRAM
  7
L200
100
AcDbAttribute
  2
TITLE4
 70
     0
  0
SEQEND
  5
1902
330
18F9
100
AcDbEntity
  8
TEXT_BUBBLES
 62
    40
  0
LWPOLYLINE
  5
1903
330
18
100
AcDbEntity
  8
IMAGE
100
AcDbPolyline
 90
        4
 70
     1
 43
0.0
 10
0.0
 20
0.0
 10
16.49
 20
0.0
 10
16.49
 20
10.44
 10
0.0
 20
10.44
  0
INSERT
  5
1904
330
18
100
AcDbEntity
  8
TEXT_BUBBLES
100
AcDbBlockReference
 66
     1
  2
bubble
 10
5.89375174391413
 20
4.672730095956695
 30
0.0
  0
ATTRIB
  5
1905
330
1904
100
AcDbEntity
  8
TEXT_BUBBLES
100
AcDbText
 10
5.762799362961748
 20
4.610230095956695
 30
0.0
 40
0.125
  1
14
  7
ROMANS
 72
     4
 11
5.89375174391413
 21
4.672730095956695
 31
0.0
100
AcDbAttribute
  2
XX
 70
     0
  0
SEQEND
  5
1906
330
1904
100
AcDbEntity
  8
TEXT_BUBBLES
  0
INSERT
  5
1909
330
18
100
AcDbEntity
  8
TEXT_BUBBLES
100
AcDbBlockReference
 66
     1
  2
bubble
 10
9.053680299812986
 20
4.674380254253117
 30
0.0
  0
ATTRIB
  5
190A
330
1909
100
AcDbEntity
  8
TEXT_BUBBLES
100
AcDbText
 10
8.925704109336797
 20
4.611880254253117
 30
0.0
 40
0.125
  1
10
  7
ROMANS
 72
     4
 11
9.053680299812986
 21
4.674380254253117
 31
0.0
100
AcDbAttribute
  2
XX
 70
     0
  0
SEQEND
  5
190B
330
1909
100
AcDbEntity
  8
TEXT_BUBBLES
  0
INSERT
  5
190F
330
18
100
AcDbEntity
  8
TEXT_BUBBLES
100
AcDbBlockReference
 66
     1
  2
bubble
 10
9.053680299812986
 20
2.746266234063748
 30
0.0
  0
ATTRIB
  5
1910
330
190F
100
AcDbEntity
  8
TEXT_BUBBLES
100
AcDbText
 10
8.922727918860605
 20
2.683766234063748
 30
0.0
 40
0.125
  1
14
  7
ROMANS
 72
     4
 11
9.053680299812986
 21
2.746266234063748
 31
0.0
100
AcDbAttribute
  2
XX
 70
     0
  0
SEQEND
  5
1911
330
190F
100
AcDbEntity
  8
TEXT_BUBBLES
  0
INSERT
  5
1912
330
18
100
AcDbEntity
  8
TEXT_BUBBLES
100
AcDbBlockReference
 66
     1
  2
bubble
 10
9.053680299812986
 20
3.613091349985632
 30
0.0
  0
ATTRIB
  5
1913
330
1912
100
AcDbEntity
  8
TEXT_BUBBLES
100
AcDbText
 10
8.925704109336797
 20
3.550591349985632
 30
0.0
 40
0.125
  1
12
  7
ROMANS
 72
     4
 11
9.053680299812986
 21
3.613091349985632
 31
0.0
100
AcDbAttribute
  2
XX
 70
     0
  0
SEQEND
  5
1914
330
1912
100
AcDbEntity
  8
TEXT_BUBBLES
  0
INSERT
  5
1915
330
18
100
AcDbEntity
  8
TEXT_BUBBLES
100
AcDbBlockReference
 66
     1
  2
bubble
 10
9.053680299812986
 20
3.171584125347063
 30
0.0
  0
ATTRIB
  5
1916
330
1915
100
AcDbEntity
  8
TEXT_BUBBLES
100
AcDbText
 10
8.925704109336797
 20
3.109084125347063
 30
0.0
 40
0.125
  1
13
  7
ROMANS
 72
     4
 11
9.053680299812986
 21
3.171584125347063
 31
0.0
100
AcDbAttribute
  2
XX
 70
     0
  0
SEQEND
  5
1917
330
1915
100
AcDbEntity
  8
TEXT_BUBBLES
  0
INSERT
  5
1918
330
18
100
AcDbEntity
  8
TEXT_BUBBLES
100
AcDbBlockReference
 66
     1
  2
bubble
 10
9.053680299812986
 20
4.045057790708211
 30
0.0
  0
ATTRIB
  5
1919
330
1918
100
AcDbEntity
  8
TEXT_BUBBLES
100
AcDbText
 10
8.943561252193939
 20
3.982557790708211
 30
0.0
 40
0.125
  1
11
  7
ROMANS
 72
     4
 11
9.053680299812986
 21
4.045057790708211
 31
0.0
100
AcDbAttribute
  2
XX
 70
     0
  0
SEQEND
  5
191A
330
1918
100
AcDbEntity
  8
TEXT_BUBBLES
  0
INSERT
  5
191B
330
18
100
AcDbEntity
  8
TEXT_BUBBLES
100
AcDbBlockReference
 66
     1
  2
bubble
 10
9.053680299812986
 20
5.9258230934394
 30
0.0
  0
ATTRIB
  5
191C
330
191B
100
AcDbEntity
  8
TEXT_BUBBLES
100
AcDbText
 10
8.994156490289176
 20
5.8633230934394
 30
0.0
 40
0.125
  1
7
  7
ROMANS
 72
     4
 11
9.053680299812986
 21
5.9258230934394
 31
0.0
100
AcDbAttribute
  2
XX
 70
     0
  0
SEQEND
  5
191D
330
191B
100
AcDbEntity
  8
TEXT_BUBBLES
  0
INSERT
  5
191E
330
18
100
AcDbEntity
  8
TEXT_BUBBLES
100
AcDbBlockReference
 66
     1
  2
bubble
 10
9.053680299812986
 20
5.095421813974094
 30
0.0
  0
ATTRIB
  5
191F
330
191E
100
AcDbEntity
  8
TEXT_BUBBLES
100
AcDbText
 10
8.997132680765368
 20
5.032921813974094
 30
0.0
 40
0.125
  1
9
  7
ROMANS
 72
     4
 11
9.053680299812986
 21
5.095421813974094
 31
0.0
100
AcDbAttribute
  2
XX
 70
     0
  0
SEQEND
  5
1920
330
191E
100
AcDbEntity
  8
TEXT_BUBBLES
  0
INSERT
  5
1921
330
18
100
AcDbEntity
  8
TEXT_BUBBLES
100
AcDbBlockReference
 66
     1
  2
bubble
 10
9.053680299812986
 20
5.509888829456016
 30
0.0
  0
ATTRIB
  5
1922
330
1921
100
AcDbEntity
  8
TEXT_BUBBLES
100
AcDbText
 10
8.994156490289176
 20
5.447388829456016
 30
0.0
 40
0.125
  1
8
  7
ROMANS
 72
     4
 11
9.053680299812986
 21
5.509888829456016
 31
0.0
100
AcDbAttribute
  2
XX
 70
     0
  0
SEQEND
  5
1923
330
1921
100
AcDbEntity
  8
TEXT_BUBBLES
  0
INSERT
  5
1924
330
18
100
AcDbEntity
  8
TEXT_BUBBLES
100
AcDbBlockReference
 66
     1
  2
bubble
 10
9.053680299812986
 20
6.572958952827015
 30
0.0
  0
ATTRIB
  5
1925
330
1924
100
AcDbEntity
  8
TEXT_BUBBLES
100
AcDbText
 10
8.991180299812986
 20
6.510458952827015
 30
0.0
 40
0.125
  1
6
  7
ROMANS
 72
     4
 11
9.053680299812986
 21
6.572958952827015
 31
0.0
100
AcDbAttribute
  2
XX
 70
     0
  0
SEQEND
  5
1926
330
1924
100
AcDbEntity
  8
TEXT_BUBBLES
  0
INSERT
  5
1927
330
18
100
AcDbEntity
  8
TEXT_BUBBLES
100
AcDbBlockReference
 66
     1
  2
bubble
 10
9.053680299812986
 20
6.98952244533158
 30
0.0
  0
ATTRIB
  5
1928
330
1927
100
AcDbEntity
  8
TEXT_BUBBLES
100
AcDbText
 10
8.994156490289176
 20
6.92702244533158
 30
0.0
 40
0.125
  1
5
  7
ROMANS
 72
     4
 11
9.053680299812986
 21
6.98952244533158
 31
0.0
100
AcDbAttribute
  2
XX
 70
     0
  0
SEQEND
  5
1929
330
1927
100
AcDbEntity
  8
TEXT_BUBBLES
  0
INSERT
  5
192A
330
18
100
AcDbEntity
  8
TEXT_BUBBLES
100
AcDbBlockReference
 66
     1
  2
bubble
 10
9.053680299812986
 20
7.404226289946862
 30
0.0
  0
ATTRIB
  5
192B
330
192A
100
AcDbEntity
  8
TEXT_BUBBLES
100
AcDbText
 10
8.991180299812986
 20
7.341726289946862
 30
0.0
 40
0.125
  1
4
  7
ROMANS
 72
     4
 11
9.053680299812986
 21
7.404226289946862
 31
0.0
100
AcDbAttribute
  2
XX
 70
     0
  0
SEQEND
  5
192C
330
192A
100
AcDbEntity
  8
TEXT_BUBBLES
  0
INSERT
  5
192D
330
18
100
AcDbEntity
  8
TEXT_BUBBLES
100
AcDbBlockReference
 66
     1
  2
bubble
 10
9.053680299812986
 20
8.235995415804936
 30
0.0
  0
ATTRIB
  5
192E
330
192D
100
AcDbEntity
  8
TEXT_BUBBLES
100
AcDbText
 10
8.994156490289176
 20
8.173495415804936
 30
0.0
 40
0.125
  1
2
  7
ROMANS
 72
     4
 11
9.053680299812986
 21
8.235995415804936
 31
0.0
100
AcDbAttribute
  2
XX
 70
     0
  0
SEQEND
  5
192F
330
192D
100
AcDbEntity
  8
TEXT_BUBBLES
  0
INSERT
  5
1930
330
18
100
AcDbEntity
  8
TEXT_BUBBLES
100
AcDbBlockReference
 66
     1
  2
bubble
 10
9.053680299812986
 20
7.818930084568355
 30
0.0
  0
ATTRIB
  5
1931
330
1930
100
AcDbEntity
  8
TEXT_BUBBLES
100
AcDbText
 10
8.994156490289176
 20
7.756430084568355
 30
0.0
 40
0.125
  1
3
  7
ROMANS
 72
     4
 11
9.053680299812986
 21
7.818930084568355
 31
0.0
100
AcDbAttribute
  2
XX
 70
     0
  0
SEQEND
  5
1932
330
1930
100
AcDbEntity
  8
TEXT_BUBBLES
  0
INSERT
  5
1933
330
18
100
AcDbEntity
  8
TEXT_BUBBLES
100
AcDbBlockReference
 66
     1
  2
bubble
 10
9.053680299812986
 20
8.655823796220531
 30
0.0
  0
ATTRIB
  5
1934
330
1933
100
AcDbEntity
  8
TEXT_BUBBLES
100
AcDbText
 10
9.003085061717749
 20
8.593323796220531
 30
0.0
 40
0.125
  1
1
  7
ROMANS
 72
     4
 11
9.053680299812986
 21
8.655823796220531
 31
0.0
100
AcDbAttribute
  2
XX
 70
     0
  0
SEQEND
  5
1935
330
1933
100
AcDbEntity
  8
TEXT_BUBBLES
  0
MTEXT
  5
193C
330
18
100
AcDbEntity
  8
TEXT_BUBBLES
100
AcDbMText
 10
9.396803508265856
 20
8.716801433586788
 30
0.0
 40
0.124999999875
 41
6.619840614623426
 71
     1
 72
     5
  3
STAINLESS STEEL CONTROLLER ENCLOSURE \P\PRAIN BIRD MAXICOM SATELLITE CONTROLLER OR CCU \P\PTERMINAL STRIP\P\PENCLOSURE DOOR \P\PGROUNDING BUSS BAR\P\P#10 COPPER GROUND WIRE FROM GROUNDING BUSS BAR TO GROUNDING GRID (SEE GROUNDING GRID MAXICOM DETAIL 
  3
305)\P\PCOMMON AND CONTROL WIRES FOR VALVES\P\PTWO-WIRE PATH\P\PREFER TO LOCAL ELECTRIC CODE FOR CONNECTIONS\P\PRAIN BIRD WARRANTY REQUIRES PROPER SURGE PROTECTION. USE INTERMATIC AG2401 OR TRIPPLITE ISOBAR\P\P120 VAC ELECTRICAL SERVICE\P\PPE-CABLE T
  1
O CCU/OTHER SATELLITES\P\PGROUND WIRE TO GROUNDING ROD GRID (SEE MAXICOM DETAIL 305)\P\PSTAINLESS STEEL CONTROLLER PEDESTAL\P\PCONCRETE SLAB 
  7
L100
 73
     1
 44
1.0
  0
INSERT
  5
194C
330
18
100
AcDbEntity
  8
TEXT_BUBBLES
100
AcDbBlockReference
 66
     1
  2
bubble
 10
2.161449321248799
 20
8.467630301303618
 30
0.0
  0
ATTRIB
  5
194D
330
194C
100
AcDbEntity
  8
TEXT_BUBBLES
100
AcDbText
 10
2.110854083153561
 20
8.405130301303618
 30
0.0
 40
0.125
  1
1
  7
ROMANS
 72
     4
 11
2.161449321248799
 21
8.467630301303618
 31
0.0
100
AcDbAttribute
  2
XX
 70
     0
  0
SEQEND
  5
194E
330
194C
100
AcDbEntity
  8
TEXT_BUBBLES
  0
INSERT
  5
1951
330
18
100
AcDbEntity
  8
TEXT_BUBBLES
100
AcDbBlockReference
 66
     1
  2
bubble
 10
2.335025603625039
 20
7.307475123766341
 30
0.0
  0
ATTRIB
  5
1952
330
1951
100
AcDbEntity
  8
TEXT_BUBBLES
100
AcDbText
 10
2.27550179410123
 20
7.244975123766341
 30
0.0
 40
0.125
  1
2
  7
ROMANS
 72
     4
 11
2.335025603625039
 21
7.307475123766341
 31
0.0
100
AcDbAttribute
  2
XX
 70
     0
  0
SEQEND
  5
1953
330
1951
100
AcDbEntity
  8
TEXT_BUBBLES
  0
INSERT
  5
1956
330
18
100
AcDbEntity
  8
TEXT_BUBBLES
100
AcDbBlockReference
 66
     1
  2
bubble
 10
4.62406248269314
 20
7.827918558371148
 30
0.0
  0
ATTRIB
  5
1957
330
1956
100
AcDbEntity
  8
TEXT_BUBBLES
100
AcDbText
 10
4.564538673169331
 20
7.765418558371148
 30
0.0
 40
0.125
  1
3
  7
ROMANS
 72
     4
 11
4.62406248269314
 21
7.827918558371148
 31
0.0
100
AcDbAttribute
  2
XX
 70
     0
  0
SEQEND
  5
1958
330
1956
100
AcDbEntity
  8
TEXT_BUBBLES
  0
INSERT
  5
195B
330
18
100
AcDbEntity
  8
TEXT_BUBBLES
100
AcDbBlockReference
 66
     1
  2
bubble
 10
4.63491106929537
 20
7.014725653585824
 30
0.0
  0
ATTRIB
  5
195C
330
195B
100
AcDbEntity
  8
TEXT_BUBBLES
100
AcDbText
 10
4.57538725977156
 20
6.952225653585824
 30
0.0
 40
0.125
  1
3
  7
ROMANS
 72
     4
 11
4.63491106929537
 21
7.014725653585824
 31
0.0
100
AcDbAttribute
  2
XX
 70
     0
  0
SEQEND
  5
195D
330
195B
100
AcDbEntity
  8
TEXT_BUBBLES
  0
INSERT
  5
1960
330
18
100
AcDbEntity
  8
TEXT_BUBBLES
100
AcDbBlockReference
 66
     1
  2
bubble
 10
7.650798522458142
 20
7.123151411589951
 30
0.0
  0
ATTRIB
  5
1961
330
1960
100
AcDbEntity
  8
TEXT_BUBBLES
100
AcDbText
 10
7.588298522458142
 20
7.060651411589951
 30
0.0
 40
0.125
  1
4
  7
ROMANS
 72
     4
 11
7.650798522458142
 21
7.123151411589951
 31
0.0
100
AcDbAttribute
  2
XX
 70
     0
  0
SEQEND
  5
1962
330
1960
100
AcDbEntity
  8
TEXT_BUBBLES
  0
INSERT
  5
1965
330
18
100
AcDbEntity
  8
TEXT_BUBBLES
100
AcDbBlockReference
 66
     1
  2
bubble
 10
5.706471511282535
 20
6.386817082268306
 30
0.0
  0
ATTRIB
  5
1966
330
1965
100
AcDbEntity
  8
TEXT_BUBBLES
100
AcDbText
 10
5.646947701758726
 20
6.324317082268306
 30
0.0
 40
0.125
  1
5
  7
ROMANS
 72
     4
 11
5.706471511282535
 21
6.386817082268306
 31
0.0
100
AcDbAttribute
  2
XX
 70
     0
  0
SEQEND
  5
1967
330
1965
100
AcDbEntity
  8
TEXT_BUBBLES
  0
INSERT
  5
196A
330
18
100
AcDbEntity
  8
TEXT_BUBBLES
100
AcDbBlockReference
 66
     1
  2
bubble
 10
5.71147695116331
 20
6.010438215352123
 30
0.0
  0
ATTRIB
  5
196B
330
196A
100
AcDbEntity
  8
TEXT_BUBBLES
100
AcDbText
 10
5.64897695116331
 20
5.947938215352123
 30
0.0
 40
0.125
  1
6
  7
ROMANS
 72
     4
 11
5.71147695116331
 21
6.010438215352123
 31
0.0
100
AcDbAttribute
  2
XX
 70
     0
  0
SEQEND
  5
196C
330
196A
100
AcDbEntity
  8
TEXT_BUBBLES
  0
INSERT
  5
1974
330
18
100
AcDbEntity
  8
TEXT_BUBBLES
100
AcDbBlockReference
 66
     1
  2
bubble
 10
3.27961548216734
 20
2.937918579335673
 30
0.0
  0
ATTRIB
  5
1975
330
1974
100
AcDbEntity
  8
TEXT_BUBBLES
100
AcDbText
 10
3.169496434548292
 20
2.875418579335673
 30
0.0
 40
0.125
  1
11
  7
ROMANS
 72
     4
 11
3.27961548216734
 21
2.937918579335673
 31
0.0
100
AcDbAttribute
  2
XX
 70
     0
  0
SEQEND
  5
1976
330
1974
100
AcDbEntity
  8
TEXT_BUBBLES
  0
INSERT
  5
197D
330
18
100
AcDbEntity
  8
TEXT_BUBBLES
100
AcDbBlockReference
 66
     1
  2
bubble
 10
9.053680299812986
 20
2.331905995610336
 30
0.0
  0
ATTRIB
  5
197E
330
197D
100
AcDbEntity
  8
TEXT_BUBBLES
100
AcDbText
 10
8.925704109336797
 20
2.269405995610336
 30
0.0
 40
0.125
  1
15
  7
ROMANS
 72
     4
 11
9.053680299812986
 21
2.331905995610336
 31
0.0
100
AcDbAttribute
  2
XX
 70
     0
  0
SEQEND
  5
197F
330
197D
100
AcDbEntity
  8
TEXT_BUBBLES
  0
INSERT
  5
1985
330
18
100
AcDbEntity
  8
TEXT_BUBBLES
100
AcDbBlockReference
 66
     1
  2
bubble
 10
3.338279998024741
 20
5.743122780264137
 30
0.0
  0
ATTRIB
  5
1986
330
1985
100
AcDbEntity
  8
TEXT_BUBBLES
100
AcDbText
 10
3.281732378977122
 20
5.680622780264137
 30
0.0
 40
0.125
  1
9
  7
ROMANS
 72
     4
 11
3.338279998024741
 21
5.743122780264137
 31
0.0
100
AcDbAttribute
  2
XX
 70
     0
  0
SEQEND
  5
1987
330
1985
100
AcDbEntity
  8
TEXT_BUBBLES
  0
INSERT
  5
1988
330
18
100
AcDbEntity
  8
TEXT_BUBBLES
100
AcDbBlockReference
 66
     1
  2
bubble
 10
3.795205212370348
 20
5.770659530985779
 30
0.0
  0
ATTRIB
  5
1989
330
1988
100
AcDbEntity
  8
TEXT_BUBBLES
100
AcDbText
 10
3.667229021894157
 20
5.708159530985779
 30
0.0
 40
0.125
  1
10
  7
ROMANS
 72
     4
 11
3.795205212370348
 21
5.770659530985779
 31
0.0
100
AcDbAttribute
  2
XX
 70
     0
  0
SEQEND
  5
198A
330
1988
100
AcDbEntity
  8
TEXT_BUBBLES
  0
INSERT
  5
198C
330
18
100
AcDbEntity
  8
TEXT_BUBBLES
100
AcDbBlockReference
 66
     1
  2
bubble
 10
6.257831185813131
 20
4.131810701315923
 30
0.0
  0
ATTRIB
  5
198D
330
198C
100
AcDbEntity
  8
TEXT_BUBBLES
100
AcDbText
 10
6.12985499533694
 20
4.069310701315923
 30
0.0
 40
0.125
  1
15
  7
ROMANS
 72
     4
 11
6.257831185813131
 21
4.131810701315923
 31
0.0
100
AcDbAttribute
  2
XX
 70
     0
  0
SEQEND
  5
198E
330
198C
100
AcDbEntity
  8
TEXT_BUBBLES
  0
LINE
  5
19A4
330
18
100
AcDbEntity
  8
IMAGE
  6
Continuous
100
AcDbLine
 10
2.448751593520199
 20
3.979594083969542
 30
0.0
 11
1.267632475073178
 21
3.979594083969542
 31
0.0
  0
INSERT
  5
19A6
330
18
100
AcDbEntity
  8
TEXT_BUBBLES
100
AcDbBlockReference
 66
     1
  2
bubble
 10
4.390106989774601
 20
2.937918579335673
 30
0.0
  0
ATTRIB
  5
19A7
330
19A6
100
AcDbEntity
  8
TEXT_BUBBLES
100
AcDbText
 10
4.26213079929841
 20
2.875418579335673
 30
0.0
 40
0.125
  1
12
  7
ROMANS
 72
     4
 11
4.390106989774601
 21
2.937918579335673
 31
0.0
100
AcDbAttribute
  2
XX
 70
     0
  0
SEQEND
  5
19A8
330
19A6
100
AcDbEntity
  8
TEXT_BUBBLES
  0
INSERT
  5
19A9
330
18
100
AcDbEntity
  8
TEXT_BUBBLES
100
AcDbBlockReference
 66
     1
  2
bubble
 10
4.729305393800711
 20
2.937918579335673
 30
0.0
  0
ATTRIB
  5
19AA
330
19A9
100
AcDbEntity
  8
TEXT_BUBBLES
100
AcDbText
 10
4.669781584276901
 20
2.875418579335673
 30
0.0
 40
0.125
  1
7
  7
ROMANS
 72
     4
 11
4.729305393800711
 21
2.937918579335673
 31
0.0
100
AcDbAttribute
  2
XX
 70
     0
  0
SEQEND
  5
19AB
330
19A9
100
AcDbEntity
  8
TEXT_BUBBLES
  0
INSERT
  5
19AC
330
18
100
AcDbEntity
  8
TEXT_BUBBLES
100
AcDbBlockReference
 66
     1
  2
bubble
 10
5.064350477928329
 20
2.937918579335673
 30
0.0
  0
ATTRIB
  5
19AD
330
19AC
100
AcDbEntity
  8
TEXT_BUBBLES
100
AcDbText
 10
4.936374287452138
 20
2.875418579335673
 30
0.0
 40
0.125
  1
13
  7
ROMANS
 72
     4
 11
5.064350477928329
 21
2.937918579335673
 31
0.0
100
AcDbAttribute
  2
XX
 70
     0
  0
SEQEND
  5
19AE
330
19AC
100
AcDbEntity
  8
TEXT_BUBBLES
  0
INSERT
  5
19D8
330
18
100
AcDbEntity
  8
0
  6
Continuous
100
AcDbBlockReference
  2
pagesetups
 10
0.0
 20
0.0
 30
0.0
  0
LINE
  5
1A61
330
18
100
AcDbEntity
  8
IMAGE
 62
     7
100
AcDbLine
 39
0.055511053975511
 10
4.824451421536647
 20
6.456439553903869
 30
0.0
 11
5.167321738231383
 21
6.456439553903869
 31
0.0
  0
LINE
  5
1A65
330
18
100
AcDbEntity
  8
IMAGE
 62
     7
100
AcDbLine
 39
0.055511053975511
 10
5.167321738231382
 20
6.329602019343552
 30
0.0
 11
4.824451421536647
 21
6.329602019343552
 31
0.0
  0
CIRCLE
  5
1A69
330
18
100
AcDbEntity
  8
IMAGE
 62
     7
100
AcDbCircle
 39
0.055511053975511
 10
4.978840640842811
 20
6.395476561608735
 30
0.0
 40
0.0433680109183689
  0
CIRCLE
  5
1A6A
330
18
100
AcDbEntity
  8
IMAGE
 62
     7
100
AcDbCircle
 39
0.055511053975511
 10
5.098677894041241
 20
6.395476561608735
 30
0.0
 40
0.0433680109183689
  0
LINE
  5
1A6B
330
18
100
AcDbEntity
  8
IMAGE
 62
     7
100
AcDbLine
 39
0.055511053975511
 10
5.167321738231382
 20
6.329602019343552
 30
0.0
 11
5.167321738231382
 21
6.456439553903869
 31
0.0
  0
CIRCLE
  5
1A6D
330
18
100
AcDbEntity
  8
IMAGE
 62
     7
100
AcDbCircle
 39
0.055511053975511
 10
4.877652672101172
 20
6.395476561608735
 30
0.0
 40
0.0310774642686003
  0
LINE
  5
1A7E
330
18
100
AcDbEntity
  8
IMAGE
 62
     7
100
AcDbLine
 10
5.074639764284629
 20
6.359380125651425
 30
0.0
 11
5.133734421347734
 21
6.421007410874373
 31
0.0
  0
LINE
  5
1A7F
330
18
100
AcDbEntity
  8
IMAGE
 62
     7
100
AcDbLine
 10
4.943784113536315
 20
6.369945712343099
 30
0.0
 11
5.002878770599427
 21
6.43157299756604
 31
0.0
  0
LINE
  5
1A80
330
18
100
AcDbEntity
  8
IMAGE
 62
     7
100
AcDbLine
 10
4.954802511086199
 20
6.359380125651425
 30
0.0
 11
5.013897168149304
 21
6.421007410874373
 31
0.0
  0
LWPOLYLINE
  5
1A81
330
18
100
AcDbEntity
  8
IMAGE
  6
Continuous
 62
     7
100
AcDbPolyline
 90
        2
 70
     0
 43
0.013
 10
5.098783058553135
 20
6.456439553903869
 10
5.098436649123825
 20
6.43884390153068
  0
LINE
  5
1A83
330
18
100
AcDbEntity
  8
IMAGE
 62
     7
100
AcDbLine
 10
5.063621366734745
 20
6.369945712343099
 30
0.0
 11
5.122716023797857
 21
6.43157299756604
 31
0.0
  0
LINE
  5
1A88
330
18
100
AcDbEntity
  8
IMAGE
  6
Continuous
100
AcDbLine
 10
4.824451421536647
 20
6.456439553903869
 30
0.0
 11
4.824451421536647
 21
6.329602019343552
 31
0.0
  0
LWPOLYLINE
  5
1A89
330
18
100
AcDbEntity
  8
IMAGE
  6
Continuous
 62
     7
100
AcDbPolyline
 90
        2
 70
     0
 43
0.013
 10
4.69773903484722
 20
6.491683702434499
 10
4.69773903484722
 20
5.345013267178144
  0
LWPOLYLINE
  5
1A8A
330
18
100
AcDbEntity
  8
IMAGE
  6
Continuous
 62
     7
100
AcDbPolyline
 90
        2
 70
     0
 43
0.013
 10
4.748618375127812
 20
6.491683702434499
 10
4.748618375127812
 20
5.345013267178144
  0
INSERT
  5
1A95
330
18
100
AcDbEntity
  8
TEXT_BUBBLES
100
AcDbBlockReference
 66
     1
  2
bubble
 10
4.238206310964063
 20
5.457385344640866
 30
0.0
 50
180.0
  0
ATTRIB
  5
1A96
330
1A95
100
AcDbEntity
  8
TEXT_BUBBLES
100
AcDbText
 10
4.178682501440253
 20
5.394885344640866
 30
0.0
 40
0.125
  1
8
  7
ROMANS
 72
     4
 11
4.238206310964063
 21
5.457385344640866
 31
0.0
100
AcDbAttribute
  2
XX
 70
     0
  0
SEQEND
  5
1A97
330
1A95
100
AcDbEntity
  8
TEXT_BUBBLES
  0
INSERT
  5
1AF0
330
18
100
AcDbEntity
  8
TEXT_BUBBLES
100
AcDbBlockReference
 66
     1
  2
bubble
 10
5.71147695116331
 20
5.607677690162584
 30
0.0
  0
ATTRIB
  5
1AF1
330
1AF0
100
AcDbEntity
  8
TEXT_BUBBLES
100
AcDbText
 10
5.651953141639501
 20
5.545177690162584
 30
0.0
 40
0.125
  1
7
  7
ROMANS
 72
     4
 11
5.71147695116331
 21
5.607677690162584
 31
0.0
100
AcDbAttribute
  2
XX
 70
     0
  0
SEQEND
  5
1AF2
330
1AF0
100
AcDbEntity
  8
TEXT_BUBBLES
  0
HATCH
  5
1B53
330
18
100
AcDbEntity
  8
IMAGE
  6
Continuous
100
AcDbHatch
 10
0.0
 20
0.0
 30
0.0
210
0.0
220
0.0
230
1.0
  2
AR-CONC
 70
     0
 71
     0
 91
        5
 92
        7
 72
     0
 73
     1
 93
        4
 10
3.2530525169465
 20
4.140575376608801
 10
2.448751593520199
 20
4.140575376608801
 10
2.448751593520199
 20
3.3430292526306
 10
3.2530525169465
 20
3.3430292526306
 97
        0
 92
        7
 72
     0
 73
     1
 93
        4
 10
4.43097879237148
 20
4.140575376608801
 10
3.3240647876564
 20
4.140575376608801
 10
3.3240647876564
 20
3.3430292526306
 10
4.43097879237148
 20
3.3430292526306
 97
        0
 92
        7
 72
     0
 73
     1
 93
        4
 10
4.640255912507637
 20
4.140575376608801
 10
4.521991063081379
 20
4.140575376608801
 10
4.521991063081379
 20
3.3430292526306
 10
4.640255912507637
 20
3.3430292526306
 97
        0
 92
        7
 72
     0
 73
     1
 93
        4
 10
4.971188320389643
 20
4.140575376608801
 10
4.795388489061238
 20
4.140575376608801
 10
4.795388489061238
 20
3.3430292526306
 10
4.971188320389643
 20
3.3430292526306
 97
        0
 92
        7
 72
     0
 73
     1
 93
        4
 10
5.648782337877399
 20
4.140575376608801
 10
5.062200591099642
 20
4.140575376608801
 10
5.062200591099642
 20
3.3430292526306
 10
5.648782337877399
 20
3.3430292526306
 97
        0
 75
     0
 76
     1
 52
0.0
 41
0.075
 77
     0
 78
    13
 53
50.0
 43
0.0
 44
0.0
 45
0.5379451369505651
 46
-0.0470641012369463
 79
     2
 49
0.05625
 49
-0.61875
 53
355.0
 43
0.0
 44
0.0
 45
-0.10406350020975
 46
0.5641441002750089
 79
     2
 49
0.045
 49
-0.495
 53
100.4514
 43
0.04482876
 44
-0.003922005
 45
0.4338820362855162
 46
0.5170796565457153
 79
     2
 49
0.0478051425
 49
-0.525856584
 53
46.1842
 43
0.0
 44
0.15
 45
0.8004307864692332
 46
-0.1241392607467636
 79
     2
 49
0.084375
 49
-0.928125
 53
96.6356
 43
0.06670255875
 44
0.13965501975
 45
0.7009970291615275
 46
0.7305884031753313
 79
     2
 49
0.071707716
 49
-0.78878475
 53
351.1842
 43
0.0
 44
0.15
 45
0.7009964588502204
 46
0.7305889506939934
 79
     2
 49
0.0675
 49
-0.7425000000000001
 53
21.0
 43
0.075
 44
0.1125
 45
0.4476802890888462
 46
-0.301964167999004
 79
     2
 49
0.05625
 49
-0.61875
 53
326.0
 43
0.075
 44
0.1125
 45
0.1824864989411863
 46
0.5438625337851397
 79
     2
 49
0.045
 49
-0.495
 53
71.45140000000001
 43
0.11230667475
 44
0.0873362955
 45
0.6301669714361175
 46
0.2418978725324643
 79
     2
 49
0.0478051425
 49
-0.525856584
 53
37.5
 43
0.0
 44
0.0
 45
0.009119891487968
 46
0.2496703903734836
 79
     6
 49
0.0
 49
-0.489
 49
0.0
 49
-0.5025
 49
0.0
 49
-0.496875
 53
7.499999999999999
 43
0.0
 44
0.0
 45
0.1973021530816114
 46
0.2958087839117702
 79
     6
 49
0.0
 49
-0.2865
 49
0.0
 49
-0.47775
 49
0.0
 49
-0.189375
 53
327.4999999999999
 43
-0.16725
 44
0.0
 45
0.4003668271293068
 46
-0.0169161538007848
 79
     6
 49
0.0
 49
-0.1875
 49
0.0
 49
-0.585
 49
0.0
 49
-0.7762500000000001
 53
317.5
 43
-0.24225
 44
0.0
 45
0.4373896270067898
 46
0.0750787367492383
 79
     6
 49
0.0
 49
-0.24375
 49
0.0
 49
-0.3885
 49
0.0
 49
-0.55125
 47
0.0064114504918787
 98
        6
 10
3.131875820663114
 20
4.751680442919097
 10
2.894515407669186
 20
3.924603326597698
 10
3.574520924322425
 20
3.847665919845066
 10
4.588114020955229
 20
3.783551410038274
 10
4.831889569944531
 20
3.751494155134879
 10
5.274534673603841
 20
3.725848361243197
  0
HATCH
  5
1B78
330
18
100
AcDbEntity
  8
IMAGE
  6
Continuous
100
AcDbHatch
 10
0.0
 20
0.0
 30
0.0
210
0.0
220
0.0
230
1.0
  2
EARTH
 70
     0
 71
     0
 91
        1
 92
        7
 72
     0
 73
     1
 93
        4
 10
2.448751593520199
 20
3.979594083969542
 10
1.90782223457574
 20
3.979594083969542
 10
1.90782223457574
 20
3.578746401840761
 10
2.448751593520199
 20
3.578746401840761
 97
        0
 75
     0
 76
     1
 52
45.0
 41
1.0
 77
     0
 78
     6
 53
45.0
 43
0.0
 44
0.0
 45
0.0
 46
0.3535533905932737
 79
     2
 49
0.25
 49
-0.25
 53
45.0
 43
-0.0662912607362388
 44
0.0662912607362389
 45
0.0
 46
0.3535533905932737
 79
     2
 49
0.25
 49
-0.25
 53
45.0
 43
-0.1325825214724776
 44
0.1325825214724777
 45
0.0
 46
0.3535533905932737
 79
     2
 49
0.25
 49
-0.25
 53
135.0
 43
-0.1325825214724776
 44
0.1767766952966369
 45
-0.3535533905932737
 46
0.0
 79
     2
 49
0.25
 49
-0.25
 53
135.0
 43
-0.0662912607362388
 44
0.2430679560328757
 45
-0.3535533905932737
 46
0.0
 79
     2
 49
0.25
 49
-0.25
 53
135.0
 43
0.0
 44
0.3093592167691145
 45
-0.3535533905932737
 46
0.0
 79
     2
 49
0.25
 49
-0.25
 47
0.0073965785783504
 98
        1
 10
2.144649185810822
 20
3.748867704325657
  0
HATCH
  5
1B9D
330
18
100
AcDbEntity
  8
IMAGE
  6
Continuous
100
AcDbHatch
 10
0.0
 20
0.0
 30
0.0
210
0.0
220
0.0
230
1.0
  2
EARTH
 70
     0
 71
     0
 91
        1
 92
        7
 72
     0
 73
     1
 93
        4
 10
6.488943511648816
 20
3.979594083969542
 10
5.648782337877399
 20
3.979594083969542
 10
5.648782337877399
 20
3.541763507815558
 10
6.488943511648816
 20
3.541763507815558
 97
        0
 75
     0
 76
     1
 52
45.0
 41
1.0
 77
     0
 78
     6
 53
45.0
 43
0.0
 44
0.0
 45
0.0
 46
0.3535533905932737
 79
     2
 49
0.25
 49
-0.25
 53
45.0
 43
-0.0662912607362388
 44
0.0662912607362389
 45
0.0
 46
0.3535533905932737
 79
     2
 49
0.25
 49
-0.25
 53
45.0
 43
-0.1325825214724776
 44
0.1325825214724777
 45
0.0
 46
0.3535533905932737
 79
     2
 49
0.25
 49
-0.25
 53
135.0
 43
-0.1325825214724776
 44
0.1767766952966369
 45
-0.3535533905932737
 46
0.0
 79
     2
 49
0.25
 49
-0.25
 53
135.0
 43
-0.0662912607362388
 44
0.2430679560328757
 45
-0.3535533905932737
 46
0.0
 79
     2
 49
0.25
 49
-0.25
 53
135.0
 43
0.0
 44
0.3093592167691145
 45
-0.3535533905932737
 46
0.0
 79
     2
 49
0.25
 49
-0.25
 47
0.0073965785783504
 98
        1
 10
6.05969466782919
 20
3.726677952863984
  0
LEADER
  5
1BB7
330
18
100
AcDbEntity
  8
TEXT_BUBBLES
100
AcDbLeader
  3
STANDARD
 76
     2
 10
4.758106642881875
 20
5.609051248053444
 30
0.0
 10
5.571587765725591
 20
5.607677690162584
 30
0.0
  0
LEADER
  5
1BB8
330
18
100
AcDbEntity
  8
TEXT_BUBBLES
100
AcDbLeader
  3
STANDARD
 76
     2
 10
4.475759325006329
 20
5.940599941512302
 30
0.0
 10
4.238206310964063
 20
5.597274530078585
 30
0.0
  0
LEADER
  5
1BB9
330
18
100
AcDbEntity
  8
TEXT_BUBBLES
100
AcDbLeader
  3
STANDARD
 76
     2
 10
5.648782337877399
 20
4.133184259206783
 30
0.0
 10
6.114091200628063
 20
4.133184259206783
 30
0.0
  0
LEADER
  5
1BBB
330
18
100
AcDbEntity
  8
TEXT_BUBBLES
100
AcDbLeader
  3
STANDARD
 76
     2
 10
5.079652793258777
 20
6.011811773242983
 30
0.0
 10
5.571617972018573
 20
6.01334513038708
 30
0.0
  0
LEADER
  5
1BBC
330
18
100
AcDbEntity
  8
TEXT_BUBBLES
100
AcDbLeader
  3
STANDARD
 76
     2
 10
5.167321738231382
 20
6.388190640159164
 30
0.0
 10
5.56659185239491
 20
6.385184528468164
 30
0.0
  0
LEADER
  5
1BBD
330
18
100
AcDbEntity
  8
TEXT_BUBBLES
100
AcDbLeader
  3
STANDARD
 76
     2
 10
7.165947621776702
 20
6.916683011641667
 30
0.0
 10
7.507058537273074
 20
7.124524969480807
 30
0.0
  0
LEADER
  5
1BBF
330
18
100
AcDbEntity
  8
TEXT_BUBBLES
100
AcDbLeader
  3
STANDARD
 76
     2
 10
2.865231702700498
 20
8.059097684335819
 30
0.0
 10
2.272891925246081
 20
8.383075406609497
 30
0.0
  0
LEADER
  5
1BC0
330
18
100
AcDbEntity
  8
TEXT_BUBBLES
100
AcDbLeader
  3
STANDARD
 76
     2
 10
5.284702895978398
 20
4.674103653847555
 30
0.0
 10
5.750011758729062
 20
4.674103653847555
 30
0.0
  0
LEADER
  5
1BC4
330
18
100
AcDbEntity
  8
TEXT_BUBBLES
100
AcDbLeader
  3
STANDARD
 76
     2
 10
2.963694187142198
 20
7.555500977896004
 30
0.0
 10
2.47491478906276
 20
7.307475123766341
 30
0.0
  0
LEADER
  5
1BC6
330
18
100
AcDbEntity
  8
TEXT_BUBBLES
100
AcDbLeader
  3
STANDARD
 76
     2
 10
2.963694187142198
 20
7.025278910655857
 30
0.0
 10
2.47491478906276
 20
7.307475123766341
 30
0.0
  0
ENDSEC
  0
SECTION
  2
OBJECTS
  0
DICTIONARY
  5
C
330
0
100
AcDbDictionary
281
     1
  3
ACAD_GROUP
350
D
  3
ACAD_LAYOUT
350
1400
  3
ACAD_MLINESTYLE
350
1B
  3
ACAD_PLOTSETTINGS
350
1401
  3
ACAD_PLOTSTYLENAME
350
13FE
  3
AcadDim
350
1BC5
  3
AcDbVariableDictionary
350
140E
  3
BNS_VARIABLES
350
1436
  0
DICTIONARY
  5
D
102
{ACAD_REACTORS
330
C
102
}
330
C
100
AcDbDictionary
281
     1
  0
DICTIONARY
  5
1400
102
{ACAD_REACTORS
330
C
102
}
330
C
100
AcDbDictionary
281
     1
  3
Layout1
350
1403
  3
Model
350
1402
  0
DICTIONARY
  5
1B
102
{ACAD_REACTORS
330
C
102
}
330
C
100
AcDbDictionary
281
     1
  3
STANDARD
350
1C
  0
DICTIONARY
  5
1401
102
{ACAD_REACTORS
330
C
102
}
330
C
100
AcDbDictionary
281
     1
  3
1055 B&W Full Shaded Draft
350
19C1
  3
1055 B&W Full Shaded Final
350
19C2
  3
1055 B&W Half Shaded Draft
350
19C3
  3
1055 B&W Half Shaded Final
350
19C4
  3
1055 Color Full Shaded Draft
350
19C5
  3
1055 Color Full Shaded Final
350
19C6
  3
1055 Color Half Shaded Draft
350
19C7
  3
1055 Color Half Shaded Final
350
19C8
  3
1055-B&W-Shaded-Draft
350
19C9
  3
1055-B&W-Shaded-Final
350
19CA
  3
1055-Color-Shaded-Draft
350
19CB
  3
1055-Color-Shaded-Final
350
19CC
  3
1055cm B&W Shaded Draft
350
17E6
  3
1055cm B&W Shaded Final
350
17E7
  3
1055cm Color Draft
350
17E8
  3
1055cm Color Shaded Draft
350
17E9
  3
1055cm Color Shaded Final
350
17EA
  3
1055cmB&WShadedDraft
350
17EB
  3
1055cmColorShadedDraft
350
17EC
  3
8500 B&W Shaded 11x17
350
17ED
  3
8500 B&W Shaded 8.5x11
350
17EE
  3
8500 Color Shaded 11x17
350
17EF
  3
8500 Color Shaded 8.5x11
350
17F0
  3
8500-B&W-Shaded-11x17
350
19CD
  3
8500-B&W-Shaded-8.5x11
350
19CE
  3
8500-Color-Shaded-11x17
350
19CF
  3
8500-Color-Shaded-8.5x11
350
19D0
  3
8500B&WShaded11x17
350
17F1
  3
8500ColorShaded11x17
350
17F2
  3
Laser Jet 5 Shaded 11x17
350
17F3
  3
Laser Jet 5 Shaded 8.5x11
350
17F4
  3
LaserJet5-Shaded-11x17
350
19D1
  3
LaserJet5-Shaded-8.5x11
350
19D2
  3
LaserJet5Shaded 11x17
350
17F5
  0
ACDBDICTIONARYWDFLT
  5
13FE
102
{ACAD_REACTORS
330
C
102
}
330
C
100
AcDbDictionary
281
     1
  3
Normal
350
13FF
100
AcDbDictionaryWithDefault
340
13FF
  0
XRECORD
  5
1BC5
102
{ACAD_REACTORS
330
C
102
}
330
C
100
AcDbXrecord
280
     1
 90
   990106
  3

 60
     4
 61
     0
 62
     1
 63
     3
 64
     0
 65
     0
 66
     0
 67
     3
 68
     1
 69
     0
 70
     0
 71
     0
 72
     0
 40
0.0
170
     0
  0
DICTIONARY
  5
140E
102
{ACAD_REACTORS
330
C
102
}
330
C
100
AcDbDictionary
281
     1
  3
DIMASSOC
350
140F
  3
SORTENTS
350
1BA7
  0
DICTIONARY
  5
1436
102
{ACAD_REACTORS
330
C
102
}
330
C
100
AcDbDictionary
281
     1
  3
ACET.BREAKLINE-BLKSIZE
350
1462
  3
ACET.BREAKLINE-BLOCK
350
1437
  0
LAYOUT
  5
1403
102
{ACAD_REACTORS
330
1400
102
}
330
1400
100
AcDbPlotSettings
  1

  2
S:\AutoCAD 2002\Plotters\1055ColorDraftShaded.pc3
  4

  6

 40
0.0
 41
0.0
 42
0.0
 43
0.0
 44
0.0
 45
0.0
 46
0.0
 47
0.0
 48
0.0
 49
0.0
140
0.0
141
0.0
142
1.0
143
1.0
 70
   688
 72
     0
 73
     0
 74
     5
  7
Black&White.ctb
 75
    16
147
1.0
148
0.0
149
0.0
100
AcDbLayout
  1
Layout1
 70
     1
 71
     1
 10
0.0
 20
0.0
 11
12.0
 21
9.0
 12
0.0
 22
0.0
 32
0.0
 14
1.000000000000000E+20
 24
1.000000000000000E+20
 34
1.000000000000000E+20
 15
-1.000000000000000E+20
 25
-1.000000000000000E+20
 35
-1.000000000000000E+20
146
0.0
 13
0.0
 23
0.0
 33
0.0
 16
1.0
 26
0.0
 36
0.0
 17
0.0
 27
1.0
 37
0.0
 76
     0
330
15
  0
LAYOUT
  5
1402
102
{ACAD_REACTORS
330
1400
102
}
330
1400
100
AcDbPlotSettings
  1

  2
8500ColorShaded.pc3
  4
11x17
  6
PS1
 40
5.027083396911621
 41
5.027085304260253
 42
5.027099609375
 43
5.027069091796875
 44
279.3999938964843
 45
431.7999877929687
 46
2.032
 47
1.523999999999999
 48
13.12986105261772
 49
1.815871504257675
140
29.61986105261772
141
12.25587150425767
142
1.0
143
1.0
 70
 11956
 72
     0
 73
     1
 74
     3
  7
8500ColorShaded.ctb
 75
    16
147
1.0
148
-0.0000000000000042
149
0.0
100
AcDbLayout
  1
Model
 70
     1
 71
     0
 10
0.0
 20
0.0
 11
12.0
 21
9.0
 12
0.0
 22
0.0
 32
0.0
 14
0.0
 24
0.0
 34
0.0
 15
0.0
 25
0.0
 35
0.0
146
0.0
 13
0.0
 23
0.0
 33
0.0
 16
1.0
 26
0.0
 36
0.0
 17
0.0
 27
1.0
 37
0.0
 76
     0
330
18
  0
MLINESTYLE
  5
1C
102
{ACAD_REACTORS
330
1B
102
}
330
1B
100
AcDbMlineStyle
  2
STANDARD
 70
     0
  3

 62
   256
 51
90.0
 52
90.0
 71
     2
 49
0.5
 62
   256
  6
BYLAYER
 49
-0.5
 62
   256
  6
BYLAYER
  0
PLOTSETTINGS
  5
19C1
102
{ACAD_REACTORS
330
1401
102
}
330
1401
100
AcDbPlotSettings
  1
1055 B&W Full Shaded Draft
  2
1055B&WDraftShaded.pc3
  4
User607
  6
PS1
 40
0.0
 41
0.0
 42
0.0
 43
0.0
 44
901.7000122070312
 45
1155.700073242187
 46
0.0
 47
0.0
 48
180377.877572
 49
80019.819395
140
180380.8390819999
141
80022.26069
142
1.0
143
1.0
 70
   688
 72
     0
 73
     2
 74
     5
  7
1055B&WFullDraftShaded.ctb
 75
    16
147
1.0
148
-4581114.014650871
149
-2032337.537636779
  0
PLOTSETTINGS
  5
19C2
102
{ACAD_REACTORS
330
1401
102
}
330
1401
100
AcDbPlotSettings
  1
1055 B&W Full Shaded Final
  2
1055B&WFinalShaded.pc3
  4
User258
  6
PS1
 40
4.995333194732666
 41
8.297393798828125
 42
4.99530029296875
 43
8.29736328125
 44
761.9576416015624
 45
1066.757690429687
 46
0.0
 47
0.0
 48
180377.877572
 49
80019.819395
140
180380.8390819999
141
80022.26069
142
1.0
143
1.0
 70
   688
 72
     0
 73
     3
 74
     5
  7
1055B&WFullFinalShaded.ctb
 75
    16
147
1.0
148
-4581114.014650871
149
-2032337.537636779
  0
PLOTSETTINGS
  5
19C3
102
{ACAD_REACTORS
330
1401
102
}
330
1401
100
AcDbPlotSettings
  1
1055 B&W Half Shaded Draft
  2
1055B&WDraftShaded.pc3
  4
User607
  6
PS1
 40
0.0
 41
0.0
 42
0.0
 43
0.0
 44
901.7000122070312
 45
1155.700073242187
 46
0.0
 47
0.0
 48
180377.877572
 49
80019.819395
140
180380.8390819999
141
80022.26069
142
1.0
143
2.0
 70
   688
 72
     0
 73
     2
 74
     5
  7
1055B&WHalfDraftShaded.ctb
 75
    17
147
0.5
148
-4581114.014650871
149
-2032337.537636779
  0
PLOTSETTINGS
  5
19C4
102
{ACAD_REACTORS
330
1401
102
}
330
1401
100
AcDbPlotSettings
  1
1055 B&W Half Shaded Final
  2
1055B&WFinalShaded.pc3
  4
User258
  6
PS1
 40
4.995333194732666
 41
8.297393798828125
 42
4.99530029296875
 43
8.29736328125
 44
761.9576416015624
 45
1066.757690429687
 46
0.0
 47
0.0
 48
180377.877572
 49
80019.819395
140
180380.8390819999
141
80022.26069
142
1.0
143
2.0
 70
   688
 72
     0
 73
     3
 74
     5
  7
1055B&WHalfFinalShaded.ctb
 75
    17
147
0.5
148
-4581114.014650871
149
-2032337.537636779
  0
PLOTSETTINGS
  5
19C5
102
{ACAD_REACTORS
330
1401
102
}
330
1401
100
AcDbPlotSettings
  1
1055 Color Full Shaded Draft
  2
1055ColorDraftShaded.pc3
  4
User607
  6
PS1
 40
0.0
 41
0.0
 42
0.0
 43
0.0
 44
901.7000122070312
 45
1155.700073242187
 46
0.0
 47
0.0
 48
180377.877572
 49
80019.819395
140
180380.8390819999
141
80022.26069
142
1.0
143
1.0
 70
   688
 72
     0
 73
     2
 74
     5
  7
1055ColorFullDraftShaded.ctb
 75
    16
147
1.0
148
-4581114.014650871
149
-2032337.537636779
  0
PLOTSETTINGS
  5
19C6
102
{ACAD_REACTORS
330
1401
102
}
330
1401
100
AcDbPlotSettings
  1
1055 Color Full Shaded Final
  2
1055ColorFinalShaded.pc3
  4
User607
  6
PS1
 40
0.0
 41
0.0
 42
0.0
 43
0.0
 44
901.7000122070312
 45
1155.700073242187
 46
0.0
 47
0.0
 48
180377.877572
 49
80019.819395
140
180380.8390819999
141
80022.26069
142
1.0
143
1.0
 70
   688
 72
     0
 73
     2
 74
     5
  7
1055ColorFullFinalShaded.ctb
 75
    16
147
1.0
148
-4581114.014650871
149
-2032337.537636779
  0
PLOTSETTINGS
  5
19C7
102
{ACAD_REACTORS
330
1401
102
}
330
1401
100
AcDbPlotSettings
  1
1055 Color Half Shaded Draft
  2
1055ColorDraftShaded.pc3
  4
User607
  6
PS1
 40
0.0
 41
0.0
 42
0.0
 43
0.0
 44
901.7000122070312
 45
1155.700073242187
 46
0.0
 47
0.0
 48
180377.877572
 49
80019.819395
140
180380.8390819999
141
80022.26069
142
1.0
143
1.0
 70
   688
 72
     0
 73
     2
 74
     5
  7
1055ColorHalfDraftShaded.ctb
 75
    16
147
1.0
148
-4581114.014650871
149
-2032337.537636779
  0
PLOTSETTINGS
  5
19C8
102
{ACAD_REACTORS
330
1401
102
}
330
1401
100
AcDbPlotSettings
  1
1055 Color Half Shaded Final
  2
1055ColorFinalShaded.pc3
  4
User607
  6
PS1
 40
0.0
 41
0.0
 42
0.0
 43
0.0
 44
901.7000122070312
 45
1155.700073242187
 46
0.0
 47
0.0
 48
180377.877572
 49
80019.819395
140
180380.8390819999
141
80022.26069
142
1.0
143
1.0
 70
   688
 72
     0
 73
     2
 74
     5
  7
1055ColorHalfFinalShaded.ctb
 75
    16
147
1.0
148
-4581114.014650871
149
-2032337.537636779
  0
PLOTSETTINGS
  5
19C9
102
{ACAD_REACTORS
330
1401
102
}
330
1401
100
AcDbPlotSettings
  1
1055-B&W-Shaded-Draft
  2
1055B&WDraftShaded.pc3
  4
User257
  6

 40
4.995333194732666
 41
8.297393798828125
 42
4.99530029296875
 43
8.29736328125
 44
901.6152954101562
 45
1155.615356445312
 46
0.0
 47
0.0
 48
180360.0524337165
 49
80033.77936194791
140
180369.1574725906
141
80037.61796031875
142
1.0
143
1.0
 70
  1712
 72
     0
 73
     1
 74
     4
  7
1055B&WFullDraftShaded.ctb
 75
    16
147
1.0
148
-4581145.331816398
149
-2032857.995793476
  0
PLOTSETTINGS
  5
19CA
102
{ACAD_REACTORS
330
1401
102
}
330
1401
100
AcDbPlotSettings
  1
1055-B&W-Shaded-Final
  2
1055B&WFinalShaded.pc3
  4
User607
  6

 40
0.0
 41
0.0
 42
0.0
 43
0.0
 44
901.7000122070312
 45
1155.700073242187
 46
0.0
 47
0.0
 48
180360.0524337165
 49
80033.77936194791
140
180369.1574725906
141
80037.61796031875
142
1.0
143
1.0
 70
  1712
 72
     0
 73
     1
 74
     4
  7
1055B&WFullFinalShaded.ctb
 75
    16
147
1.0
148
-4581145.331816398
149
-2032857.995793476
  0
PLOTSETTINGS
  5
19CB
102
{ACAD_REACTORS
330
1401
102
}
330
1401
100
AcDbPlotSettings
  1
1055-Color-Shaded-Draft
  2
1055ColorDraftShaded.pc3
  4
User257
  6

 40
4.995333194732666
 41
8.297393798828125
 42
4.99530029296875
 43
8.29736328125
 44
901.6152954101562
 45
1155.615356445312
 46
0.0
 47
0.0
 48
180360.0524337165
 49
80033.77936194791
140
180369.1574725906
141
80037.61796031875
142
1.0
143
1.0
 70
  1712
 72
     0
 73
     1
 74
     4
  7
1055ColorFullDraftShaded.ctb
 75
    16
147
1.0
148
-4581145.331816398
149
-2032857.995793476
  0
PLOTSETTINGS
  5
19CC
102
{ACAD_REACTORS
330
1401
102
}
330
1401
100
AcDbPlotSettings
  1
1055-Color-Shaded-Final
  2
1055ColorDraftShaded.pc3
  4
User257
  6

 40
4.995333194732666
 41
8.297393798828125
 42
4.99530029296875
 43
8.29736328125
 44
901.6152954101562
 45
1155.615356445312
 46
0.0
 47
0.0
 48
180360.0524337165
 49
80033.77936194791
140
180369.1574725906
141
80037.61796031875
142
1.0
143
1.0
 70
  1712
 72
     0
 73
     1
 74
     4
  7
1055ColorFullFinalShaded.ctb
 75
    16
147
1.0
148
-4581145.331816398
149
-2032857.995793476
  0
PLOTSETTINGS
  5
17E6
102
{ACAD_REACTORS
330
1401
102
}
330
1401
100
AcDbPlotSettings
  1
1055cm B&W Shaded Draft
  2
1055B&WDraftShaded.pc3
  4
User257
  6
PS1
 40
4.995333194732666
 41
8.297393798828125
 42
4.99530029296875
 43
8.29736328125
 44
901.6152954101562
 45
1155.615356445312
 46
0.0
 47
0.0
 48
180377.877572
 49
80019.819395
140
180380.8390819999
141
80022.26069
142
1.0
143
1.0
 70
   688
 72
     0
 73
     2
 74
     3
  7
1055B&WDraftShaded.ctb
 75
    16
147
1.0
148
-4581153.377679998
149
-2032365.335819999
  0
PLOTSETTINGS
  5
17E7
102
{ACAD_REACTORS
330
1401
102
}
330
1401
100
AcDbPlotSettings
  1
1055cm B&W Shaded Final
  2
1055B&WFinalShaded.pc3
  4
User257
  6
PS1
 40
4.995333194732666
 41
8.297271728515625
 42
4.99530029296875
 43
8.29736328125
 44
901.6576538085937
 45
1155.657592773437
 46
0.0
 47
0.0
 48
180377.877572
 49
80019.819395
140
180380.8390819999
141
80022.26069
142
1.0
143
1.0
 70
   672
 72
     0
 73
     2
 74
     3
  7
1055B&WFinalShaded.ctb
 75
     0
147
1.0
148
-4581153.377679998
149
-2032365.335819999
  0
PLOTSETTINGS
  5
17E8
102
{ACAD_REACTORS
330
1401
102
}
330
1401
100
AcDbPlotSettings
  1
1055cm Color Draft
  2
1055ColorDraftShaded.pc3
  4
User257
  6
PS1
 40
4.995333194732666
 41
8.297393798828125
 42
4.99530029296875
 43
8.29736328125
 44
901.6152954101562
 45
1155.615356445312
 46
0.0
 47
0.0
 48
180377.877572
 49
80019.819395
140
180380.8390819999
141
80022.26069
142
1.0
143
1.0
 70
   688
 72
     0
 73
     2
 74
     3
  7
Color.CTB
 75
    16
147
1.0
148
-4581153.377679998
149
-2032365.335819999
  0
PLOTSETTINGS
  5
17E9
102
{ACAD_REACTORS
330
1401
102
}
330
1401
100
AcDbPlotSettings
  1
1055cm Color Shaded Draft
  2
1055ColorDraftShaded.pc3
  4
User257
  6
PS1
 40
4.995333194732666
 41
8.297393798828125
 42
4.99530029296875
 43
8.29736328125
 44
901.6152954101562
 45
1155.615356445312
 46
0.0
 47
0.0
 48
180377.877572
 49
80019.819395
140
180380.8390819999
141
80022.26069
142
1.0
143
1.0
 70
   688
 72
     0
 73
     2
 74
     3
  7
1055ColorDraftShaded.CTB
 75
    16
147
1.0
148
-4581153.377679998
149
-2032365.335819999
  0
PLOTSETTINGS
  5
17EA
102
{ACAD_REACTORS
330
1401
102
}
330
1401
100
AcDbPlotSettings
  1
1055cm Color Shaded Final
  2
1055ColorFinalShaded.pc3
  4
User257
  6
PS1
 40
4.995333194732666
 41
8.297271728515625
 42
4.99530029296875
 43
8.29736328125
 44
901.6576538085937
 45
1155.657592773437
 46
0.0
 47
0.0
 48
180377.877572
 49
80019.819395
140
180380.8390819999
141
80022.26069
142
1.0
143
1.0
 70
   688
 72
     0
 73
     2
 74
     3
  7
1055ColorFinalShaded.ctb
 75
    16
147
1.0
148
-4581153.377679998
149
-2032365.335819999
  0
PLOTSETTINGS
  5
17EB
102
{ACAD_REACTORS
330
1401
102
}
330
1401
100
AcDbPlotSettings
  1
1055cmB&WShadedDraft
  2
1055B&WDraftShaded.pc3
  4
User257
  6

 40
4.995333194732666
 41
8.297393798828125
 42
4.99530029296875
 43
8.29736328125
 44
901.6152954101562
 45
1155.615356445312
 46
0.0
 47
0.0
 48
180360.0524337165
 49
80033.77936194791
140
180369.1574725906
141
80037.61796031875
142
1.0
143
30.0
 70
  1712
 72
     0
 73
     1
 74
     0
  7
1055B&WDraftShaded.ctb
 75
    23
147
0.0333333333333333
148
-4580581.320935756
149
-2032339.826086972
  0
PLOTSETTINGS
  5
17EC
102
{ACAD_REACTORS
330
1401
102
}
330
1401
100
AcDbPlotSettings
  1
1055cmColorShadedDraft
  2
1055ColorDraftShaded.pc3
  4
User257
  6

 40
4.995333194732666
 41
8.297393798828125
 42
4.99530029296875
 43
8.29736328125
 44
901.6152954101562
 45
1155.615356445312
 46
0.0
 47
0.0
 48
180360.0524337165
 49
80033.77936194791
140
180369.1574725906
141
80037.61796031875
142
1.0
143
30.0
 70
  1712
 72
     0
 73
     1
 74
     0
  7
1055ColorDraftShaded.ctb
 75
    23
147
0.0333333333333333
148
-4580581.320935756
149
-2032339.826086972
  0
PLOTSETTINGS
  5
17ED
102
{ACAD_REACTORS
330
1401
102
}
330
1401
100
AcDbPlotSettings
  1
8500 B&W Shaded 11x17
  2
8500B&WShaded.pc3
  4
11x17
  6
PS1
 40
5.027083396911621
 41
5.027085304260253
 42
5.027099609375
 43
5.027069091796875
 44
279.3999938964843
 45
431.7999877929687
 46
0.0
 47
0.762
 48
180377.877572
 49
80019.819395
140
180380.8390819999
141
80022.26069
142
1.0
143
1.980353799589804
 70
   692
 72
     0
 73
     1
 74
     3
  7
8500B&WShaded.ctb
 75
     0
147
0.5049602753846977
148
-4581153.377679998
149
-2032365.335819999
  0
PLOTSETTINGS
  5
17EE
102
{ACAD_REACTORS
330
1401
102
}
330
1401
100
AcDbPlotSettings
  1
8500 B&W Shaded 8.5x11
  2
8500B&WShaded.pc3
  4
Letter
  6
PS1
 40
5.027083396911621
 41
5.027085304260253
 42
5.027084350585937
 43
5.027069091796875
 44
215.8999938964843
 45
279.3999938964843
 46
16.50999999999999
 47
0.0
 48
180377.877572
 49
80019.819395
140
180380.8390819999
141
80022.26069
142
1.0
143
3.089030970531291
 70
   692
 72
     0
 73
     1
 74
     3
  7
8500B&WShaded.ctb
 75
     0
147
0.3237261165523398
148
-4581153.377679998
149
-2032365.335819999
  0
PLOTSETTINGS
  5
17EF
102
{ACAD_REACTORS
330
1401
102
}
330
1401
100
AcDbPlotSettings
  1
8500 Color Shaded 11x17
  2
8500ColorShaded.pc3
  4
11x17
  6
PS1
 40
5.027083396911621
 41
5.027085304260253
 42
5.027099609375
 43
5.027069091796875
 44
279.3999938964843
 45
431.7999877929687
 46
0.0
 47
0.762
 48
180377.877572
 49
80019.819395
140
180380.8390819999
141
80022.26069
142
1.0
143
1.980353799589804
 70
   692
 72
     0
 73
     1
 74
     3
  7
8500ColorShaded.ctb
 75
     0
147
0.5049602753846977
148
-4581153.377679998
149
-2032365.335819999
  0
PLOTSETTINGS
  5
17F0
102
{ACAD_REACTORS
330
1401
102
}
330
1401
100
AcDbPlotSettings
  1
8500 Color Shaded 8.5x11
  2
8500ColorShaded.pc3
  4
Letter
  6
PS1
 40
5.027083396911621
 41
5.027085304260253
 42
5.027084350585937
 43
5.027069091796875
 44
215.8999938964843
 45
279.3999938964843
 46
16.50999999999999
 47
0.0
 48
180377.877572
 49
80019.819395
140
180380.8390819999
141
80022.26069
142
1.0
143
3.089030970531291
 70
   692
 72
     0
 73
     1
 74
     3
  7
8500ColorShaded.ctb
 75
     0
147
0.3237261165523398
148
-4581153.377679998
149
-2032365.335819999
  0
PLOTSETTINGS
  5
19CD
102
{ACAD_REACTORS
330
1401
102
}
330
1401
100
AcDbPlotSettings
  1
8500-B&W-Shaded-11x17
  2
8500B&WShaded.pc3
  4
11x17
  6

 40
5.027083396911621
 41
5.027085304260253
 42
5.027099609375
 43
5.027069091796875
 44
279.3999938964843
 45
431.7999877929687
 46
0.0
 47
0.0
 48
180360.0524337165
 49
80033.77936194791
140
180369.1574725906
141
80037.61796031875
142
1.0
143
4.787622939151733
 70
  1712
 72
     0
 73
     1
 74
     0
  7
8500B&WShaded.ctb
 75
     0
147
0.2088719209322652
148
-4580581.320935756
149
-2032339.826086972
  0
PLOTSETTINGS
  5
19CE
102
{ACAD_REACTORS
330
1401
102
}
330
1401
100
AcDbPlotSettings
  1
8500-B&W-Shaded-8.5x11
  2
8500B&WShaded.pc3
  4
Letter
  6

 40
5.027083396911621
 41
5.027085304260253
 42
5.027084350585937
 43
5.027069091796875
 44
215.8999938964843
 45
279.3999938964843
 46
0.0
 47
0.0
 48
180360.0524337165
 49
80033.77936194791
140
180369.1574725906
141
80037.61796031875
142
1.0
143
1.400341199009821
 70
  1712
 72
     0
 73
     1
 74
     0
  7
8500B&WShaded.ctb
 75
     0
147
0.7141116755738516
148
0.0
149
0.0
  0
PLOTSETTINGS
  5
19CF
102
{ACAD_REACTORS
330
1401
102
}
330
1401
100
AcDbPlotSettings
  1
8500-Color-Shaded-11x17
  2
8500ColorShaded.pc3
  4
11x17
  6

 40
5.027083396911621
 41
5.027085304260253
 42
5.027099609375
 43
5.027069091796875
 44
279.3999938964843
 45
431.7999877929687
 46
0.0
 47
0.0
 48
180360.0524337165
 49
80033.77936194791
140
180369.1574725906
141
80037.61796031875
142
1.0
143
4.787622939151733
 70
  1712
 72
     0
 73
     1
 74
     0
  7
8500ColorShaded.ctb
 75
     0
147
0.2088719209322652
148
-4580581.320935756
149
-2032339.826086972
  0
PLOTSETTINGS
  5
19D0
102
{ACAD_REACTORS
330
1401
102
}
330
1401
100
AcDbPlotSettings
  1
8500-Color-Shaded-8.5x11
  2
8500ColorShaded.pc3
  4
Letter
  6

 40
5.027083396911621
 41
5.027085304260253
 42
5.027084350585937
 43
5.027069091796875
 44
215.8999938964843
 45
279.3999938964843
 46
0.0
 47
0.0
 48
180360.0524337165
 49
80033.77936194791
140
180369.1574725906
141
80037.61796031875
142
1.0
143
1.400341199009821
 70
  1712
 72
     0
 73
     1
 74
     0
  7
8500ColorShaded.ctb
 75
     0
147
0.7141116755738516
148
0.0
149
0.0
  0
PLOTSETTINGS
  5
17F1
102
{ACAD_REACTORS
330
1401
102
}
330
1401
100
AcDbPlotSettings
  1
8500B&WShaded11x17
  2
8500B&WShaded.pc3
  4
11x17
  6

 40
5.027083396911621
 41
5.027085304260253
 42
5.027099609375
 43
5.027069091796875
 44
279.3999938964843
 45
431.7999877929687
 46
0.0
 47
0.0
 48
180360.0524337165
 49
80033.77936194791
140
180369.1574725906
141
80037.61796031875
142
1.0
143
4.787622939151733
 70
  1712
 72
     0
 73
     1
 74
     0
  7
8500B&WShaded.ctb
 75
     0
147
0.2088719209322652
148
-4580581.320935756
149
-2032339.826086972
  0
PLOTSETTINGS
  5
17F2
102
{ACAD_REACTORS
330
1401
102
}
330
1401
100
AcDbPlotSettings
  1
8500ColorShaded11x17
  2
8500ColorShaded.pc3
  4
11x17
  6

 40
5.027083396911621
 41
5.027085304260253
 42
5.027099609375
 43
5.027069091796875
 44
279.3999938964843
 45
431.7999877929687
 46
0.0
 47
0.0
 48
180360.0524337165
 49
80033.77936194791
140
180369.1574725906
141
80037.61796031875
142
1.0
143
4.787622939151733
 70
  1712
 72
     0
 73
     1
 74
     0
  7
8500ColorShaded.ctb
 75
     0
147
0.2088719209322652
148
-4580581.320935756
149
-2032339.826086972
  0
PLOTSETTINGS
  5
17F3
102
{ACAD_REACTORS
330
1401
102
}
330
1401
100
AcDbPlotSettings
  1
Laser Jet 5 Shaded 11x17
  2
LaserJet5Shaded.pc3
  4
11x17
  6
PS1
 40
7.143749713897705
 41
5.873736858367919
 42
7.143768310546875
 43
7.14373779296875
 44
279.3999938964843
 45
431.7999877929687
 46
0.0
 47
2.54
 48
180377.877572
 49
80019.819395
140
180380.8390819999
141
80022.26069
142
1.0
143
2.011976231014692
 70
   692
 72
     0
 73
     1
 74
     3
  7
LaserJet5Shaded.ctb
 75
     0
147
0.4970237642895384
148
-4581153.377679998
149
-2032365.335819999
  0
PLOTSETTINGS
  5
17F4
102
{ACAD_REACTORS
330
1401
102
}
330
1401
100
AcDbPlotSettings
  1
Laser Jet 5 Shaded 8.5x11
  2
LaserJet5Shaded.pc3
  4
Letter
  6
PS1
 40
7.143749713897705
 41
6.974400997161865
 42
7.14373779296875
 43
6.297088623046875
 44
215.8999938964843
 45
279.3999938964843
 46
15.49399999999999
 47
0.0
 48
180377.877572
 49
80019.819395
140
180380.8390819999
141
80022.26069
142
1.0
143
3.126375516456624
 70
   692
 72
     0
 73
     1
 74
     3
  7
LaserJet5Shaded.ctb
 75
     0
147
0.3198592090861117
148
-4581153.377679998
149
-2032365.335819999
  0
PLOTSETTINGS
  5
19D1
102
{ACAD_REACTORS
330
1401
102
}
330
1401
100
AcDbPlotSettings
  1
LaserJet5-Shaded-11x17
  2
LaserJet5Shaded.pc3
  4
11x17
  6

 40
7.143749713897705
 41
5.873736858367919
 42
7.143768310546875
 43
7.14373779296875
 44
279.3999938964843
 45
431.7999877929687
 46
0.0
 47
0.0
 48
180360.0524337165
 49
80033.77936194791
140
180369.1574725906
141
80037.61796031875
142
1.0
143
4.864072045424008
 70
  1712
 72
     0
 73
     1
 74
     0
  7
LaserJet5Shaded.ctb
 75
     0
147
0.205589060084086
148
-4580581.320935756
149
-2032339.826086972
  0
PLOTSETTINGS
  5
19D2
102
{ACAD_REACTORS
330
1401
102
}
330
1401
100
AcDbPlotSettings
  1
LaserJet5-Shaded-8.5x11
  2
LaserJet5Shaded.pc3
  4
Letter
  6

 40
7.143749713897705
 41
6.974400997161865
 42
7.14373779296875
 43
6.297088623046875
 44
215.8999938964843
 45
279.3999938964843
 46
0.0
 47
0.0
 48
180360.0524337165
 49
80033.77936194791
140
180369.1574725906
141
80037.61796031875
142
1.0
143
1.417270490660323
 70
  1712
 72
     0
 73
     1
 74
     0
  7
LaserJet5Shaded.ctb
 75
     0
147
0.7055816138061886
148
0.0
149
0.0
  0
PLOTSETTINGS
  5
17F5
102
{ACAD_REACTORS
330
1401
102
}
330
1401
100
AcDbPlotSettings
  1
LaserJet5Shaded 11x17
  2
LaserJet5Shaded.pc3
  4
11x17
  6

 40
7.143749713897705
 41
5.873736858367919
 42
7.143768310546875
 43
7.14373779296875
 44
279.3999938964843
 45
431.7999877929687
 46
0.0
 47
0.0
 48
180360.0524337165
 49
80033.77936194791
140
180369.1574725906
141
80037.61796031875
142
1.0
143
4.864072045424008
 70
  1712
 72
     0
 73
     1
 74
     0
  7
LaserJet5Shaded.ctb
 75
     0
147
0.205589060084086
148
-4580581.320935756
149
-2032339.826086972
  0
ACDBPLACEHOLDER
  5
13FF
102
{ACAD_REACTORS
330
13FE
102
}
330
13FE
  0
DICTIONARYVAR
  5
140F
102
{ACAD_REACTORS
330
140E
102
}
330
140E
100
DictionaryVariables
280
     0
  1
1
  0
DICTIONARYVAR
  5
1BA7
102
{ACAD_REACTORS
330
140E
102
}
330
140E
100
DictionaryVariables
280
     0
  1
1
  0
XRECORD
  5
1462
102
{ACAD_REACTORS
330
1436
102
}
330
1436
100
AcDbXrecord
280
     1
 40
0.125
  0
XRECORD
  5
1437
102
{ACAD_REACTORS
330
1436
102
}
330
1436
100
AcDbXrecord
280
     1
  1
BRKLINE.DWG
  0
ENDSEC
  0
EOF
