  0
SECTION
  2
HEADER
  9
$ACADVER
  1
AC1015
  9
$ACADMAINTVER
 70
    13
  9
$DWGCODEPAGE
  3
ANSI_1252
  9
$INSBASE
 10
0.0
 20
0.0
 30
0.0
  9
$EXTMIN
 10
-0.4736665948844271
 20
-0.6780787826663092
 30
0.0
  9
$EXTMAX
 10
16.01633340511556
 20
9.761921217333689
 30
0.03
  9
$LIMMIN
 10
0.0
 20
0.0
  9
$LIMMAX
 10
12.0
 20
9.0
  9
$ORTHOMODE
 70
     1
  9
$REGENMODE
 70
     1
  9
$FILLMODE
 70
     1
  9
$QTEXTMODE
 70
     0
  9
$MIRRTEXT
 70
     0
  9
$LTSCALE
 40
1.0
  9
$ATTMODE
 70
     1
  9
$TEXTSIZE
 40
0.1
  9
$TRACEWID
 40
0.05
  9
$TEXTSTYLE
  7
ROMANS
  9
$CLAYER
  8
IMAGE
  9
$CELTYPE
  6
BYLAYER
  9
$CECOLOR
 62
   256
  9
$CELTSCALE
 40
1.0
  9
$DISPSILH
 70
     0
  9
$DIMSCALE
 40
1.0
  9
$DIMASZ
 40
0.18
  9
$DIMEXO
 40
0.0625
  9
$DIMDLI
 40
0.38
  9
$DIMRND
 40
0.0
  9
$DIMDLE
 40
0.0
  9
$DIMEXE
 40
0.18
  9
$DIMTP
 40
0.0
  9
$DIMTM
 40
0.0
  9
$DIMTXT
 40
0.1
  9
$DIMCEN
 40
0.09
  9
$DIMTSZ
 40
0.0
  9
$DIMTOL
 70
     0
  9
$DIMLIM
 70
     0
  9
$DIMTIH
 70
     1
  9
$DIMTOH
 70
     1
  9
$DIMSE1
 70
     0
  9
$DIMSE2
 70
     0
  9
$DIMTAD
 70
     0
  9
$DIMZIN
 70
     0
  9
$DIMBLK
  1

  9
$DIMASO
 70
     1
  9
$DIMSHO
 70
     1
  9
$DIMPOST
  1

  9
$DIMAPOST
  1

  9
$DIMALT
 70
     0
  9
$DIMALTD
 70
     2
  9
$DIMALTF
 40
25.4
  9
$DIMLFAC
 40
1.0
  9
$DIMTOFL
 70
     0
  9
$DIMTVP
 40
0.0
  9
$DIMTIX
 70
     0
  9
$DIMSOXD
 70
     0
  9
$DIMSAH
 70
     0
  9
$DIMBLK1
  1

  9
$DIMBLK2
  1

  9
$DIMSTYLE
  2
STANDARD
  9
$DIMCLRD
 70
     0
  9
$DIMCLRE
 70
     0
  9
$DIMCLRT
 70
     0
  9
$DIMTFAC
 40
1.0
  9
$DIMGAP
 40
0.09
  9
$DIMJUST
 70
     0
  9
$DIMSD1
 70
     0
  9
$DIMSD2
 70
     0
  9
$DIMTOLJ
 70
     1
  9
$DIMTZIN
 70
     0
  9
$DIMALTZ
 70
     0
  9
$DIMALTTZ
 70
     0
  9
$DIMUPT
 70
     0
  9
$DIMDEC
 70
     4
  9
$DIMTDEC
 70
     4
  9
$DIMALTU
 70
     2
  9
$DIMALTTD
 70
     2
  9
$DIMTXSTY
  7
ROMANS
  9
$DIMAUNIT
 70
     0
  9
$DIMADEC
 70
     0
  9
$DIMALTRND
 40
0.0
  9
$DIMAZIN
 70
     0
  9
$DIMDSEP
 70
    46
  9
$DIMATFIT
 70
     3
  9
$DIMFRAC
 70
     0
  9
$DIMLDRBLK
  1

  9
$DIMLUNIT
 70
     2
  9
$DIMLWD
 70
    -2
  9
$DIMLWE
 70
    -2
  9
$DIMTMOVE
 70
     2
  9
$LUNITS
 70
     2
  9
$LUPREC
 70
     4
  9
$SKETCHINC
 40
0.1
  9
$FILLETRAD
 40
0.0
  9
$AUNITS
 70
     0
  9
$AUPREC
 70
     0
  9
$MENU
  1
ACAD
  9
$ELEVATION
 40
0.0
  9
$PELEVATION
 40
0.0
  9
$THICKNESS
 40
0.0
  9
$LIMCHECK
 70
     0
  9
$CHAMFERA
 40
0.0
  9
$CHAMFERB
 40
0.0
  9
$CHAMFERC
 40
0.0
  9
$CHAMFERD
 40
0.0
  9
$SKPOLY
 70
     0
  9
$TDCREATE
 40
2449670.394701273
  9
$TDUCREATE
 40
2449670.686367940
  9
$TDUPDATE
 40
2453045.365855509
  9
$TDUUPDATE
 40
2453045.657522176
  9
$TDINDWG
 40
0.4591026505
  9
$TDUSRTIMER
 40
0.4591026505
  9
$USRTIMER
 70
     1
  9
$ANGBASE
 50
0.0
  9
$ANGDIR
 70
     0
  9
$PDMODE
 70
     0
  9
$PDSIZE
 40
0.0
  9
$PLINEWID
 40
0.0
  9
$SPLFRAME
 70
     0
  9
$SPLINETYPE
 70
     6
  9
$SPLINESEGS
 70
     8
  9
$HANDSEED
  5
B09
  9
$SURFTAB1
 70
     6
  9
$SURFTAB2
 70
     6
  9
$SURFTYPE
 70
     6
  9
$SURFU
 70
     6
  9
$SURFV
 70
     6
  9
$UCSBASE
  2

  9
$UCSNAME
  2

  9
$UCSORG
 10
0.0
 20
0.0
 30
0.0
  9
$UCSXDIR
 10
1.0
 20
0.0
 30
0.0
  9
$UCSYDIR
 10
0.0
 20
1.0
 30
0.0
  9
$UCSORTHOREF
  2

  9
$UCSORTHOVIEW
 70
     0
  9
$UCSORGTOP
 10
0.0
 20
0.0
 30
0.0
  9
$UCSORGBOTTOM
 10
0.0
 20
0.0
 30
0.0
  9
$UCSORGLEFT
 10
0.0
 20
0.0
 30
0.0
  9
$UCSORGRIGHT
 10
0.0
 20
0.0
 30
0.0
  9
$UCSORGFRONT
 10
0.0
 20
0.0
 30
0.0
  9
$UCSORGBACK
 10
0.0
 20
0.0
 30
0.0
  9
$PUCSBASE
  2

  9
$PUCSNAME
  2

  9
$PUCSORG
 10
0.0
 20
0.0
 30
0.0
  9
$PUCSXDIR
 10
1.0
 20
0.0
 30
0.0
  9
$PUCSYDIR
 10
0.0
 20
1.0
 30
0.0
  9
$PUCSORTHOREF
  2

  9
$PUCSORTHOVIEW
 70
     0
  9
$PUCSORGTOP
 10
0.0
 20
0.0
 30
0.0
  9
$PUCSORGBOTTOM
 10
0.0
 20
0.0
 30
0.0
  9
$PUCSORGLEFT
 10
0.0
 20
0.0
 30
0.0
  9
$PUCSORGRIGHT
 10
0.0
 20
0.0
 30
0.0
  9
$PUCSORGFRONT
 10
0.0
 20
0.0
 30
0.0
  9
$PUCSORGBACK
 10
0.0
 20
0.0
 30
0.0
  9
$USERI1
 70
     0
  9
$USERI2
 70
     0
  9
$USERI3
 70
     0
  9
$USERI4
 70
     0
  9
$USERI5
 70
     0
  9
$USERR1
 40
0.0
  9
$USERR2
 40
0.0
  9
$USERR3
 40
0.0
  9
$USERR4
 40
0.0
  9
$USERR5
 40
0.0
  9
$WORLDVIEW
 70
     1
  9
$SHADEDGE
 70
     3
  9
$SHADEDIF
 70
    70
  9
$TILEMODE
 70
     1
  9
$MAXACTVP
 70
    16
  9
$PINSBASE
 10
0.0
 20
0.0
 30
0.0
  9
$PLIMCHECK
 70
     0
  9
$PEXTMIN
 10
1.000000000000000E+20
 20
1.000000000000000E+20
 30
1.000000000000000E+20
  9
$PEXTMAX
 10
-1.000000000000000E+20
 20
-1.000000000000000E+20
 30
-1.000000000000000E+20
  9
$PLIMMIN
 10
0.0
 20
0.0
  9
$PLIMMAX
 10
12.0
 20
9.0
  9
$UNITMODE
 70
     0
  9
$VISRETAIN
 70
     0
  9
$PLINEGEN
 70
     1
  9
$PSLTSCALE
 70
     1
  9
$TREEDEPTH
 70
  3020
  9
$CMLSTYLE
  2
STANDARD
  9
$CMLJUST
 70
     0
  9
$CMLSCALE
 40
1.0
  9
$PROXYGRAPHICS
 70
     1
  9
$MEASUREMENT
 70
     0
  9
$CELWEIGHT
370
    -1
  9
$ENDCAPS
280
     0
  9
$JOINSTYLE
280
     0
  9
$LWDISPLAY
290
     0
  9
$INSUNITS
 70
     0
  9
$HYPERLINKBASE
  1

  9
$STYLESHEET
  1
8500ColorShaded.ctb
  9
$XEDIT
290
     1
  9
$CEPSNTYPE
380
     0
  9
$PSTYLEMODE
290
     1
  9
$FINGERPRINTGUID
  2
{CFC9D8EB-7BF3-4B6A-A683-524317BB3D2A}
  9
$VERSIONGUID
  2
{9F795A8A-DA62-46B5-B7FE-F4290E44509C}
  9
$EXTNAMES
290
     1
  9
$PSVPSCALE
 40
0.0
  9
$OLESTARTUP
290
     0
  0
ENDSEC
  0
SECTION
  2
CLASSES
  0
CLASS
  1
DICTIONARYVAR
  2
AcDbDictionaryVar
  3
AutoCAD 2000
 90
        0
280
     0
281
     0
  0
CLASS
  1
LWPOLYLINE
  2
AcDbPolyline
  3
AutoCAD 2000
 90
    32768
280
     0
281
     1
  0
CLASS
  1
HATCH
  2
AcDbHatch
  3
AutoCAD 2000
 90
    32768
280
     0
281
     1
  0
CLASS
  1
XRECORD
  2
AcDbXrecord
  3
AutoCAD 2000
 90
    32768
280
     0
281
     0
  0
CLASS
  1
ACDBDICTIONARYWDFLT
  2
AcDbDictionaryWithDefault
  3
AutoCAD 2000
 90
        0
280
     0
281
     0
  0
CLASS
  1
ACDBPLACEHOLDER
  2
AcDbPlaceHolder
  3
AutoCAD 2000
 90
        0
280
     0
281
     0
  0
CLASS
  1
LAYOUT
  2
AcDbLayout
  3
AutoCAD 2000
 90
        0
280
     0
281
     0
  0
CLASS
  1
PLOTSETTINGS
  2
AcDbPlotSettings
  3
AutoCAD 2000
 90
        0
280
     0
281
     0
  0
ENDSEC
  0
SECTION
  2
TABLES
  0
TABLE
  2
VPORT
  5
8
330
0
100
AcDbSymbolTable
 70
     2
  0
VPORT
  5
B08
330
8
100
AcDbSymbolTableRecord
100
AcDbViewportTableRecord
  2
*Active
 70
     0
 10
0.0
 20
0.0
 11
1.0
 21
1.0
 12
7.77114837928776
 22
4.54188542129024
 13
0.0
 23
0.0
 14
0.14
 24
0.14
 15
0.0
 25
0.0
 16
0.0
 26
0.0
 36
1.0
 17
0.0
 27
0.0
 37
0.0
 40
10.52898046408713
 41
1.639044943820224
 42
50.0
 43
0.0
 44
0.0
 50
0.0
 51
0.0
 71
     0
 72
  5000
 73
     1
 74
     1
 75
     0
 76
     0
 77
     0
 78
     0
281
     0
 65
     1
110
0.0
120
0.0
130
0.0
111
1.0
121
0.0
131
0.0
112
0.0
122
1.0
132
0.0
 79
     0
146
0.0
  0
ENDTAB
  0
TABLE
  2
LTYPE
  5
5
330
0
100
AcDbSymbolTable
 70
     1
  0
LTYPE
  5
11
330
5
100
AcDbSymbolTableRecord
100
AcDbLinetypeTableRecord
  2
BYBLOCK
 70
     0
  3

 72
    65
 73
     0
 40
0.0
  0
LTYPE
  5
12
330
5
100
AcDbSymbolTableRecord
100
AcDbLinetypeTableRecord
  2
BYLAYER
 70
     0
  3

 72
    65
 73
     0
 40
0.0
  0
LTYPE
  5
13
330
5
100
AcDbSymbolTableRecord
100
AcDbLinetypeTableRecord
  2
CONTINUOUS
 70
     0
  3
Solid line
 72
    65
 73
     0
 40
0.0
  0
ENDTAB
  0
TABLE
  2
LAYER
  5
2
330
0
100
AcDbSymbolTable
 70
    10
  0
LAYER
  5
E
330
2
100
AcDbSymbolTableRecord
100
AcDbLayerTableRecord
  2
0
 70
     0
 62
     7
  6
CONTINUOUS
370
    -3
390
9DE
1001
RAK
1000
{100-ASVF-BUBBLES
1070
     0
1070
     7
1000
CONTINUOUS
1000
100-ASVF-BUBBLES}
1000
{075-ASVF-BUBBLES
1070
     0
1070
     7
1000
CONTINUOUS
1000
075-ASVF-BUBBLES}
1000
{075-ASVF-LEADERS
1070
     0
1070
     7
1000
CONTINUOUS
1000
075-ASVF-LEADERS}
1000
{100-ASVF-LEADERS
1070
     0
1070
     7
1000
CONTINUOUS
1000
100-ASVF-LEADERS}
  0
LAYER
  5
24
330
2
100
AcDbSymbolTableRecord
100
AcDbLayerTableRecord
  2
IMAGE
 70
     0
 62
     7
  6
CONTINUOUS
370
    -3
390
9DE
1001
RAK
1000
{100-ASVF-BUBBLES
1070
     0
1070
     7
1000
CONTINUOUS
1000
100-ASVF-BUBBLES}
1000
{075-ASVF-BUBBLES
1070
     0
1070
     7
1000
CONTINUOUS
1000
075-ASVF-BUBBLES}
1000
{075-ASVF-LEADERS
1070
     0
1070
     7
1000
CONTINUOUS
1000
075-ASVF-LEADERS}
1000
{100-ASVF-LEADERS
1070
     0
1070
     7
1000
CONTINUOUS
1000
100-ASVF-LEADERS}
  0
LAYER
  5
25
330
2
100
AcDbSymbolTableRecord
100
AcDbLayerTableRecord
  2
TEXT_BUBBLES
 70
     0
 62
    -6
  6
CONTINUOUS
370
    -3
390
9DE
1001
RAK
1000
{100-ASVF-BUBBLES
1070
     0
1070
     6
1000
CONTINUOUS
1000
100-ASVF-BUBBLES}
1000
{075-ASVF-BUBBLES
1070
     0
1070
     6
1000
CONTINUOUS
1000
075-ASVF-BUBBLES}
1000
{075-ASVF-LEADERS
1070
     0
1070
    -6
1000
CONTINUOUS
1000
075-ASVF-LEADERS}
1000
{100-ASVF-LEADERS
1070
     0
1070
    -6
1000
CONTINUOUS
1000
100-ASVF-LEADERS}
  0
LAYER
  5
28
330
2
100
AcDbSymbolTableRecord
100
AcDbLayerTableRecord
  2
TEXT_LEADERS
 70
     0
 62
     5
  6
CONTINUOUS
370
    -3
390
9DE
1001
RAK
1000
{100-ASVF-BUBBLES
1070
     0
1070
    -5
1000
CONTINUOUS
1000
100-ASVF-BUBBLES}
1000
{075-ASVF-BUBBLES
1070
     0
1070
    -5
1000
CONTINUOUS
1000
075-ASVF-BUBBLES}
1000
{075-ASVF-LEADERS
1070
     0
1070
     5
1000
CONTINUOUS
1000
075-ASVF-LEADERS}
1000
{100-ASVF-LEADERS
1070
     0
1070
     5
1000
CONTINUOUS
1000
100-ASVF-LEADERS}
  0
LAYER
  5
29
330
2
100
AcDbSymbolTableRecord
100
AcDbLayerTableRecord
  2
HATCH
 70
     0
 62
     7
  6
CONTINUOUS
370
    -3
390
9DE
1001
RAK
1000
{100-ASVF-BUBBLES
1070
     0
1070
     7
1000
CONTINUOUS
1070
     1
1000
100-ASVF-BUBBLES}
1000
{075-ASVF-BUBBLES
1070
     0
1070
     7
1000
CONTINUOUS
1070
     1
1000
075-ASVF-BUBBLES}
1000
{075-ASVF-LEADERS
1070
     0
1070
     7
1000
CONTINUOUS
1070
     1
1000
075-ASVF-LEADERS}
1000
{100-ASVF-LEADERS
1070
     0
1070
     7
1000
CONTINUOUS
1070
     1
1000
100-ASVF-LEADERS}
  0
LAYER
  5
2A
330
2
100
AcDbSymbolTableRecord
100
AcDbLayerTableRecord
  2
INSTRUCT-CALLOUT
 70
     0
 62
     4
  6
CONTINUOUS
370
    -3
390
9DE
1001
RAK
1000
{100-ASVF-BUBBLES
1070
     0
1070
    -4
1000
CONTINUOUS
1000
100-ASVF-BUBBLES}
1000
{075-ASVF-BUBBLES
1070
     0
1070
    -4
1000
CONTINUOUS
1000
075-ASVF-BUBBLES}
1000
{075-ASVF-LEADERS
1070
     0
1070
    -4
1000
CONTINUOUS
1000
075-ASVF-LEADERS}
1000
{100-ASVF-LEADERS
1070
     0
1070
    -4
1000
CONTINUOUS
1000
100-ASVF-LEADERS}
  0
LAYER
  5
9A9
330
2
100
AcDbSymbolTableRecord
100
AcDbLayerTableRecord
  2
INSTRUCT-OPTION
 70
     0
 62
     7
  6
CONTINUOUS
370
    -3
390
9DE
1001
RAK
1000
{100-ASVF-BUBBLES
1070
     0
1070
    -7
1000
CONTINUOUS
1000
100-ASVF-BUBBLES}
1000
{075-ASVF-BUBBLES
1070
     0
1070
    -7
1000
CONTINUOUS
1000
075-ASVF-BUBBLES}
1000
{075-ASVF-LEADERS
1070
     0
1070
    -7
1000
CONTINUOUS
1000
075-ASVF-LEADERS}
1000
{100-ASVF-LEADERS
1070
     0
1070
    -7
1000
CONTINUOUS
1000
100-ASVF-LEADERS}
  0
LAYER
  5
9C2
330
2
100
AcDbSymbolTableRecord
100
AcDbLayerTableRecord
  2
OPTION-075
 70
     0
 62
    -1
  6
CONTINUOUS
370
    -3
390
9DE
1001
RAK
1000
{100-ASVF-BUBBLES
1070
     0
1070
    -1
1000
CONTINUOUS
1000
100-ASVF-BUBBLES}
1000
{075-ASVF-BUBBLES
1070
     0
1070
     1
1000
CONTINUOUS
1000
075-ASVF-BUBBLES}
1000
{075-ASVF-LEADERS
1070
     0
1070
     1
1000
CONTINUOUS
1000
075-ASVF-LEADERS}
1000
{100-ASVF-LEADERS
1070
     0
1070
    -1
1000
CONTINUOUS
1000
100-ASVF-LEADERS}
  0
LAYER
  5
9C3
330
2
100
AcDbSymbolTableRecord
100
AcDbLayerTableRecord
  2
OPTION-100
 70
     0
 62
     1
  6
CONTINUOUS
370
    -3
390
9DE
1001
RAK
1000
{100-ASVF-BUBBLES
1070
     0
1070
     1
1000
CONTINUOUS
1000
100-ASVF-BUBBLES}
1000
{075-ASVF-BUBBLES
1070
     0
1070
    -1
1000
CONTINUOUS
1000
075-ASVF-BUBBLES}
1000
{075-ASVF-LEADERS
1070
     0
1070
    -1
1000
CONTINUOUS
1000
075-ASVF-LEADERS}
1000
{100-ASVF-LEADERS
1070
     0
1070
     1
1000
CONTINUOUS
1000
100-ASVF-LEADERS}
  0
LAYER
  5
A01
330
2
100
AcDbSymbolTableRecord
100
AcDbLayerTableRecord
  2
TITLE
 70
     0
 62
     4
  6
CONTINUOUS
370
    -3
390
9DE
  0
ENDTAB
  0
TABLE
  2
STYLE
  5
3
330
0
100
AcDbSymbolTable
 70
     5
  0
STYLE
  5
F
330
3
100
AcDbSymbolTableRecord
100
AcDbTextStyleTableRecord
  2
STANDARD
 70
     0
 40
0.0
 41
1.0
 50
0.0
 71
     0
 42
0.2
  3
txt
  4

  0
STYLE
  5
20
330
3
100
AcDbSymbolTableRecord
100
AcDbTextStyleTableRecord
  2
ROMANS
 70
     0
 40
0.0
 41
1.0
 50
0.0
 71
     0
 42
0.1
  3
ROMANS.SHX
  4

  0
STYLE
  5
A02
330
3
100
AcDbSymbolTableRecord
100
AcDbTextStyleTableRecord
  2
L100
 70
     0
 40
0.1
 41
1.0
 50
0.0
 71
     0
 42
0.1
  3
romans.shx
  4

  0
STYLE
  5
A03
330
3
100
AcDbSymbolTableRecord
100
AcDbTextStyleTableRecord
  2
L200
 70
     0
 40
0.2
 41
1.0
 50
0.0
 71
     0
 42
0.081
  3
ARIAL.TTF
  4

1001
ACAD
1000
Arial
1071
       34
  0
STYLE
  5
A04
330
3
100
AcDbSymbolTableRecord
100
AcDbTextStyleTableRecord
  2
L80
 70
     0
 40
0.08
 41
1.0
 50
0.0
 71
     0
 42
0.08
  3
ROMANS
  4

  0
ENDTAB
  0
TABLE
  2
VIEW
  5
6
330
0
100
AcDbSymbolTable
 70
     0
  0
ENDTAB
  0
TABLE
  2
UCS
  5
7
330
0
100
AcDbSymbolTable
 70
     0
  0
ENDTAB
  0
TABLE
  2
APPID
  5
9
330
0
100
AcDbSymbolTable
 70
     3
  0
APPID
  5
10
330
9
100
AcDbSymbolTableRecord
100
AcDbRegAppTableRecord
  2
ACAD
 70
     0
  0
APPID
  5
9D7
330
9
100
AcDbSymbolTableRecord
100
AcDbRegAppTableRecord
  2
RAK
 70
     0
  0
APPID
  5
A05
330
9
100
AcDbSymbolTableRecord
100
AcDbRegAppTableRecord
  2
DCO15
 70
     0
  0
ENDTAB
  0
TABLE
  2
DIMSTYLE
  5
A
330
0
100
AcDbSymbolTable
 70
     1
100
AcDbDimStyleTable
 71
     0
  0
DIMSTYLE
105
9A7
330
A
100
AcDbSymbolTableRecord
100
AcDbDimStyleTableRecord
  2
STANDARD
 70
     0
340
F
  0
ENDTAB
  0
TABLE
  2
BLOCK_RECORD
  5
1
330
0
100
AcDbSymbolTable
 70
     1
  0
BLOCK_RECORD
  5
17
330
1
100
AcDbSymbolTableRecord
100
AcDbBlockTableRecord
  2
*MODEL_SPACE
340
9E1
  0
BLOCK_RECORD
  5
14
330
1
100
AcDbSymbolTableRecord
100
AcDbBlockTableRecord
  2
*PAPER_SPACE
340
9E2
  0
BLOCK_RECORD
  5
A06
330
1
100
AcDbSymbolTableRecord
100
AcDbBlockTableRecord
  2
titleblock
340
0
102
{BLKREFS
331
A15
102
}
  0
ENDTAB
  0
ENDSEC
  0
SECTION
  2
BLOCKS
  0
BLOCK
  5
2D
330
17
100
AcDbEntity
  8
0
100
AcDbBlockBegin
  2
*MODEL_SPACE
 70
     0
 10
0.0
 20
0.0
 30
0.0
  3
*MODEL_SPACE
  1

  0
ENDBLK
  5
2E
330
17
100
AcDbEntity
  8
0
100
AcDbBlockEnd
  0
BLOCK
  5
2B
330
14
100
AcDbEntity
 67
     1
  8
0
100
AcDbBlockBegin
  2
*PAPER_SPACE
 70
     0
 10
0.0
 20
0.0
 30
0.0
  3
*PAPER_SPACE
  1

  0
ENDBLK
  5
2C
330
14
100
AcDbEntity
 67
     1
  8
0
100
AcDbBlockEnd
  0
BLOCK
  5
A12
330
A06
100
AcDbEntity
  8
0
100
AcDbBlockBegin
  2
titleblock
 70
     2
 10
0.0
 20
0.0
 30
0.0
  3
titleblock
  1

  0
LWPOLYLINE
  5
A07
330
A06
100
AcDbEntity
  8
IMAGE
100
AcDbPolyline
 90
        4
 70
     1
 43
0.0
 10
0.0
 20
0.0
 10
16.48999999999999
 20
0.0000000000000001
 10
16.48999999999999
 20
10.44
 10
0.0
 20
10.44
  0
ATTDEF
  5
A08
330
A06
100
AcDbEntity
  8
TITLE
100
AcDbText
 10
0.5055556038023421
 20
0.7842270964783673
 30
0.0
 40
0.2
  1
D
  7
L200
 72
     4
 11
0.6064423705144839
 21
0.8842270964783672
 31
0.0
100
AcDbAttributeDefinition
  3
#
  2
D
 70
     0
  0
ATTDEF
  5
A09
330
A06
100
AcDbEntity
  8
TITLE
100
AcDbText
 10
1.231442370514484
 20
1.34371230274675
 30
0.0
 40
0.2
  1

  7
L200
100
AcDbAttributeDefinition
  3
DETAIL TITLE TOP LINE
  2
TITLE1
 70
     0
  0
ATTDEF
  5
A0A
330
A06
100
AcDbEntity
  8
TITLE
100
AcDbText
 10
1.231442370514484
 20
0.9842270964783674
 30
0.0
 40
0.2
  1
TITLE
  7
L200
100
AcDbAttributeDefinition
  3
DETAIL TITLE TOP 2ND LINE
  2
TITLE2
 70
     0
  0
ATTDEF
  5
A0B
330
A06
100
AcDbEntity
  8
TITLE
100
AcDbText
 10
2.713645751168312
 20
0.5927927664583189
 30
0.0
 40
0.2
  1
TITLE2
  7
L200
100
AcDbAttributeDefinition
  3
DETAIL TITLE BOTTOM 1
  2
TITLE3
 70
     0
  0
ATTDEF
  5
A0C
330
A06
100
AcDbEntity
  8
TITLE
100
AcDbText
 10
2.713645751168312
 20
0.2692560808167741
 30
0.0
 40
0.2
  1

  7
L200
100
AcDbAttributeDefinition
  3
DETAIL TITLE BOTTOM 2
  2
TITLE4
 70
     0
  0
ATTDEF
  5
A0D
330
A06
100
AcDbEntity
  8
TITLE
 62
     7
100
AcDbText
 10
8.177214829966379
 20
0.9696027915446398
 30
0.0
 40
0.08
  1
-
  7
L80
 72
     2
 11
8.261024353775903
 21
0.9696027915446398
 31
0.0
100
AcDbAttributeDefinition
  3
REVISION DATE
  2
REVISED
 70
     0
  0
ATTDEF
  5
A0E
330
A06
100
AcDbEntity
  8
TITLE
 62
     7
100
AcDbText
 10
0.2639423705144838
 20
0.0847116480207214
 30
0.0
 40
0.08
  1
-
  7
L80
100
AcDbAttributeDefinition
  3
DWG-NAME
  2
DWG-NAME
 70
     0
  0
LWPOLYLINE
  5
A0F
330
A06
100
AcDbEntity
  8
TITLE
 62
     3
100
AcDbPolyline
 90
        2
 70
     1
 43
0.03
 10
0.6064423705144839
 20
0.5417270964783675
 42
0.9999999999999998
 10
0.6064423705144839
 20
1.226727096478367
 42
0.9999999999999998
  0
ATTDEF
  5
A10
330
A06
100
AcDbEntity
  8
TITLE
 62
     7
100
AcDbText
 10
1.231442370514484
 20
0.7005637793954894
 30
0.0
 40
0.1
  1
N.T.S.
  7
L100
100
AcDbAttributeDefinition
  3
SCALE
  2
SCALE
 70
     0
  0
LWPOLYLINE
  5
A11
330
A06
100
AcDbEntity
  8
TITLE
 62
     3
100
AcDbPolyline
 90
        2
 70
     0
 43
0.04
 39
0.03
 10
0.9489423705144833
 20
0.8842270964783672
 10
8.261024353775903
 20
0.8842270964783672
  0
ENDBLK
  5
A13
330
A06
100
AcDbEntity
  8
0
100
AcDbBlockEnd
  0
ENDSEC
  0
SECTION
  2
ENTITIES
  0
LINE
  5
F0
330
17
100
AcDbEntity
  8
IMAGE
100
AcDbLine
 10
1.050105229053869
 20
4.38727965909117
 30
0.0
 11
1.575105229053868
 21
4.38727965909117
 31
0.0
  0
LINE
  5
F1
330
17
100
AcDbEntity
  8
IMAGE
100
AcDbLine
 10
1.050105229053869
 20
4.69977965909117
 30
0.0
 11
1.174913633984267
 21
4.69977965909117
 31
0.0
  0
LINE
  5
F2
330
17
100
AcDbEntity
  8
IMAGE
100
AcDbLine
 10
1.012605229053869
 20
4.79977965909117
 30
0.0
 11
1.566096968050698
 21
4.79977965909117
 31
0.0
  0
LINE
  5
F3
330
17
100
AcDbEntity
  8
IMAGE
100
AcDbLine
 10
1.012605229053869
 20
5.024779659091169
 30
0.0
 11
1.612605229053869
 21
5.024779659091169
 31
0.0
  0
LINE
  5
F4
330
17
100
AcDbEntity
  8
IMAGE
100
AcDbLine
 10
0.9483199077194054
 20
5.059779659091169
 30
0.0
 11
0.9626052290538687
 21
5.059779659091169
 31
0.0
  0
LINE
  5
F5
330
17
100
AcDbEntity
  8
IMAGE
100
AcDbLine
 10
0.9626052290538687
 20
5.159779659091171
 30
0.0
 11
1.020198587824455
 21
5.159779659091171
 31
0.0
  0
LINE
  5
F6
330
17
100
AcDbEntity
  8
IMAGE
100
AcDbLine
 10
1.003185984277312
 20
5.222279659091171
 30
0.0
 11
1.622024473830424
 21
5.222279659091171
 31
0.0
  0
LINE
  5
F7
330
17
100
AcDbEntity
  8
IMAGE
100
AcDbLine
 10
0.9626052290538687
 20
5.284779659091171
 30
0.0
 11
1.662605229053868
 21
5.284779659091171
 31
0.0
  0
LINE
  5
F8
330
17
100
AcDbEntity
  8
IMAGE
100
AcDbLine
 10
0.9626052290538687
 20
5.329779659091169
 30
0.0
 11
1.104972362536793
 21
5.329779659091169
 31
0.0
  0
LINE
  5
F9
330
17
100
AcDbEntity
  8
IMAGE
100
AcDbLine
 10
1.011678263610045
 20
5.339779659091171
 30
0.0
 11
1.10713891613387
 21
5.339779659091171
 31
0.0
  0
LINE
  5
FA
330
17
100
AcDbEntity
  8
IMAGE
100
AcDbLine
 10
1.073716340164979
 20
5.429779659091169
 30
0.0
 11
1.126637898507568
 21
5.429779659091169
 31
0.0
  0
LINE
  5
FB
330
17
100
AcDbEntity
  8
IMAGE
100
AcDbLine
 10
1.112605229053869
 20
5.464779659091169
 30
0.0
 11
1.512605229053869
 21
5.464779659091171
 31
0.0
  0
LINE
  5
FC
330
17
100
AcDbEntity
  8
IMAGE
100
AcDbLine
 10
1.575105229053868
 20
4.654236610593693
 30
0.0
 11
1.575105229053868
 21
4.38727965909117
 31
0.0
  0
LINE
  5
FD
330
17
100
AcDbEntity
  8
IMAGE
100
AcDbLine
 10
1.050105229053869
 20
4.69977965909117
 30
0.0
 11
1.050105229053869
 21
4.38727965909117
 31
0.0
  0
LINE
  5
FE
330
17
100
AcDbEntity
  8
IMAGE
100
AcDbLine
 10
1.012605229053869
 20
5.024779659091169
 30
0.0
 11
1.012605229053869
 21
4.79977965909117
 31
0.0
  0
LINE
  5
FF
330
17
100
AcDbEntity
  8
IMAGE
100
AcDbLine
 10
1.612605229053869
 20
5.024779659091169
 30
0.0
 11
1.612605229053869
 21
4.954236610593692
 31
0.0
  0
LINE
  5
100
330
17
100
AcDbEntity
  8
IMAGE
100
AcDbLine
 10
1.050105229053869
 20
4.69977965909117
 30
0.0
 11
1.012605229053869
 21
4.79977965909117
 31
0.0
  0
LINE
  5
101
330
17
100
AcDbEntity
  8
IMAGE
100
AcDbLine
 10
1.576380121320815
 20
5.059779659091169
 30
0.0
 11
1.576380121320815
 21
5.024779659091169
 31
0.0
  0
LINE
  5
102
330
17
100
AcDbEntity
  8
IMAGE
100
AcDbLine
 10
1.048830336786922
 20
5.059779659091169
 30
0.0
 11
1.048830336786922
 21
5.024779659091169
 31
0.0
  0
LINE
  5
103
330
17
100
AcDbEntity
  8
IMAGE
100
AcDbLine
 10
1.662605229053868
 20
5.329779659091169
 30
0.0
 11
1.662605229053868
 21
5.284779659091171
 31
0.0
  0
LINE
  5
104
330
17
100
AcDbEntity
  8
IMAGE
100
AcDbLine
 10
0.9626052290538687
 20
5.329779659091169
 30
0.0
 11
0.9626052290538687
 21
5.284779659091171
 31
0.0
  0
ARC
  5
105
330
17
100
AcDbEntity
  8
IMAGE
100
AcDbCircle
 10
1.622024473830424
 20
5.181698903867726
 30
0.0
 40
0.0405807552234439
100
AcDbArc
 50
0.0
 51
90.0
  0
ARC
  5
106
330
17
100
AcDbEntity
  8
IMAGE
100
AcDbCircle
 10
1.003185984277312
 20
5.181698903867726
 30
0.0
 40
0.0405807552234439
100
AcDbArc
 50
90.00000000000005
 51
180.0
  0
LINE
  5
107
330
17
100
AcDbEntity
  8
IMAGE
100
AcDbLine
 10
1.487605229053869
 20
5.284779659091171
 30
0.0
 11
1.487605229053869
 21
5.222279659091171
 31
0.0
  0
LINE
  5
108
330
17
100
AcDbEntity
  8
IMAGE
100
AcDbLine
 10
1.137605229053869
 20
5.284779659091171
 30
0.0
 11
1.137605229053869
 21
5.222279659091171
 31
0.0
  0
LINE
  5
109
330
17
100
AcDbEntity
  8
IMAGE
100
AcDbLine
 10
1.662605229053868
 20
5.181698903867726
 30
0.0
 11
1.662605229053868
 21
5.059779659091169
 31
0.0
  0
LINE
  5
10A
330
17
100
AcDbEntity
  8
IMAGE
100
AcDbLine
 10
0.9626052290538687
 20
5.159779659091171
 30
0.0
 11
0.9626052290538687
 21
5.059779659091169
 31
0.0
  0
LINE
  5
10B
330
17
100
AcDbEntity
  8
IMAGE
100
AcDbLine
 10
1.112605229053869
 20
5.464779659091171
 30
0.0
 11
0.9626052290538687
 21
5.329779659091169
 31
0.0
  0
LINE
  5
10C
330
17
100
AcDbEntity
  8
IMAGE
100
AcDbLine
 10
1.512605229053869
 20
5.464779659091171
 30
0.0
 11
1.662605229053868
 21
5.329779659091169
 31
0.0
  0
LINE
  5
10D
330
17
100
AcDbEntity
  8
IMAGE
100
AcDbLine
 10
1.073716340164979
 20
5.429779659091169
 30
0.0
 11
1.011678263610045
 21
5.339779659091171
 31
0.0
  0
LINE
  5
10E
330
17
100
AcDbEntity
  8
IMAGE
100
AcDbLine
 10
1.011678263610045
 20
5.339779659091171
 30
0.0
 11
0.9626052290538687
 21
5.329779659091169
 31
0.0
  0
LINE
  5
10F
330
17
100
AcDbEntity
  8
IMAGE
100
AcDbLine
 10
1.263057043010959
 20
5.429779659091169
 30
0.0
 11
1.245496686799371
 21
5.339779659091171
 31
0.0
  0
LINE
  5
110
330
17
100
AcDbEntity
  8
IMAGE
100
AcDbLine
 10
1.245496686799371
 20
5.339779659091171
 30
0.0
 11
1.235066385562193
 21
5.329779659091169
 31
0.0
  0
LINE
  5
111
330
17
100
AcDbEntity
  8
IMAGE
100
AcDbLine
 10
1.229060060376585
 20
5.329779659091169
 30
0.0
 11
1.240664517051947
 21
5.42977965909117
 31
0.0
  0
LINE
  5
112
330
17
100
AcDbEntity
  8
IMAGE
100
AcDbLine
 10
1.263057043010959
 20
5.429779659091169
 30
0.0
 11
1.235066385562193
 21
5.329779659091169
 31
0.0
  0
LINE
  5
113
330
17
100
AcDbEntity
  8
IMAGE
100
AcDbLine
 10
1.245496686799371
 20
5.339779659091171
 30
0.0
 11
1.379713771308365
 21
5.339779659091171
 31
0.0
  0
LINE
  5
114
330
17
100
AcDbEntity
  8
IMAGE
100
AcDbLine
 10
1.263057043010959
 20
5.429779659091169
 30
0.0
 11
1.362153415096778
 21
5.429779659091169
 31
0.0
  0
LINE
  5
115
330
17
100
AcDbEntity
  8
IMAGE
100
AcDbLine
 10
1.142753746247092
 20
5.429779659091169
 30
0.0
 11
1.10837328330543
 21
5.329779659091169
 31
0.0
  0
LINE
  5
116
330
17
100
AcDbEntity
  8
IMAGE
100
AcDbLine
 10
1.10837328330543
 20
5.329779659091169
 30
0.0
 11
1.132009842192263
 21
5.339779659091171
 31
0.0
  0
LINE
  5
117
330
17
100
AcDbEntity
  8
IMAGE
100
AcDbLine
 10
1.132009842192263
 20
5.339779659091171
 30
0.0
 11
1.142753746247092
 21
5.429779659091169
 31
0.0
  0
LINE
  5
118
330
17
100
AcDbEntity
  8
IMAGE
100
AcDbLine
 10
1.104972362536793
 20
5.329779659091169
 30
0.0
 11
1.126637898507568
 21
5.429779659091169
 31
0.0
  0
LINE
  5
119
330
17
100
AcDbEntity
  8
IMAGE
100
AcDbLine
 10
1.142753746247092
 20
5.429779659091169
 30
0.0
 11
1.240664517051947
 21
5.429779659091169
 31
0.0
  0
LINE
  5
11A
330
17
100
AcDbEntity
  8
IMAGE
100
AcDbLine
 10
1.132009842192263
 20
5.339779659091171
 30
0.0
 11
1.230220506044121
 21
5.339779659091171
 31
0.0
  0
LINE
  5
11B
330
17
100
AcDbEntity
  8
IMAGE
100
AcDbLine
 10
1.512605229053869
 20
5.464779659091171
 30
0.0
 11
1.662605229053868
 21
5.329779659091169
 31
0.0
  0
LINE
  5
11C
330
17
100
AcDbEntity
  8
IMAGE
100
AcDbLine
 10
1.551494117942759
 20
5.429779659091169
 30
0.0
 11
1.613532194497693
 21
5.339779659091171
 31
0.0
  0
LINE
  5
11D
330
17
100
AcDbEntity
  8
IMAGE
100
AcDbLine
 10
1.493200615915473
 20
5.339779659091171
 30
0.0
 11
1.482456711860645
 21
5.429779659091169
 31
0.0
  0
LINE
  5
11E
330
17
100
AcDbEntity
  8
IMAGE
100
AcDbLine
 10
1.482456711860645
 20
5.429779659091169
 30
0.0
 11
1.516837174802307
 21
5.329779659091169
 31
0.0
  0
LINE
  5
11F
330
17
100
AcDbEntity
  8
IMAGE
100
AcDbLine
 10
1.362153415096778
 20
5.429779659091169
 30
0.0
 11
1.390144072545543
 21
5.329779659091169
 31
0.0
  0
LINE
  5
120
330
17
100
AcDbEntity
  8
IMAGE
100
AcDbLine
 10
1.362153415096778
 20
5.429779659091169
 30
0.0
 11
1.379713771308365
 21
5.339779659091171
 31
0.0
  0
LINE
  5
121
330
17
100
AcDbEntity
  8
IMAGE
100
AcDbLine
 10
1.379713771308365
 20
5.339779659091171
 30
0.0
 11
1.390144072545543
 21
5.329779659091169
 31
0.0
  0
LINE
  5
122
330
17
100
AcDbEntity
  8
IMAGE
100
AcDbLine
 10
1.516837174802307
 20
5.329779659091169
 30
0.0
 11
1.493200615915473
 21
5.339779659091171
 31
0.0
  0
LINE
  5
123
330
17
100
AcDbEntity
  8
IMAGE
100
AcDbLine
 10
1.613532194497693
 20
5.339779659091171
 30
0.0
 11
1.662605229053868
 21
5.329779659091169
 31
0.0
  0
LINE
  5
124
330
17
100
AcDbEntity
  8
IMAGE
100
AcDbLine
 10
1.498572559600168
 20
5.42977965909117
 30
0.0
 11
1.551494117942758
 21
5.42977965909117
 31
0.0
  0
LINE
  5
125
330
17
100
AcDbEntity
  8
IMAGE
100
AcDbLine
 10
1.384545941055791
 20
5.429779659091169
 30
0.0
 11
1.482456711860645
 21
5.42977965909117
 31
0.0
  0
LINE
  5
126
330
17
100
AcDbEntity
  8
IMAGE
100
AcDbLine
 10
1.394989952063615
 20
5.339779659091171
 30
0.0
 11
1.493200615915473
 21
5.339779659091171
 31
0.0
  0
LINE
  5
127
330
17
100
AcDbEntity
  8
IMAGE
100
AcDbLine
 10
1.518071541973867
 20
5.339779659091171
 30
0.0
 11
1.613532194497693
 21
5.339779659091171
 31
0.0
  0
LINE
  5
128
330
17
100
AcDbEntity
  8
IMAGE
100
AcDbLine
 10
1.325105229053869
 20
5.059779659091169
 30
0.0
 11
1.325105229053869
 21
5.159779659091171
 31
0.0
  0
LINE
  5
129
330
17
100
AcDbEntity
  8
IMAGE
100
AcDbLine
 10
1.300105229053869
 20
5.059779659091169
 30
0.0
 11
1.300105229053869
 21
5.159779659091171
 31
0.0
  0
ARC
  5
12A
330
17
100
AcDbEntity
  8
IMAGE
100
AcDbCircle
 10
1.312605229053869
 20
5.159779659091171
 30
0.0
 40
0.0125
100
AcDbArc
 50
0.0
 51
180.0
  0
LINE
  5
12B
330
17
100
AcDbEntity
  8
IMAGE
100
AcDbLine
 10
1.325105229053869
 20
5.159779659091171
 30
0.0
 11
1.448455763588644
 21
5.159779659091171
 31
0.0
  0
LINE
  5
12C
330
17
100
AcDbEntity
  8
IMAGE
100
AcDbLine
 10
1.151754694519094
 20
5.059779659091169
 30
0.0
 11
1.151754694519094
 21
5.159779659091171
 31
0.0
  0
LINE
  5
12D
330
17
100
AcDbEntity
  8
IMAGE
100
AcDbLine
 10
1.176754694519094
 20
5.059779659091169
 30
0.0
 11
1.176754694519094
 21
5.159779659091171
 31
0.0
  0
ARC
  5
12E
330
17
100
AcDbEntity
  8
IMAGE
100
AcDbCircle
 10
1.164254694519093
 20
5.159779659091171
 30
0.0
 40
0.0125
100
AcDbArc
 50
0.0
 51
180.0
  0
LINE
  5
12F
330
17
100
AcDbEntity
  8
IMAGE
100
AcDbLine
 10
1.020198587824455
 20
5.059779659091169
 30
0.0
 11
1.020198587824455
 21
5.159779659091171
 31
0.0
  0
LINE
  5
130
330
17
100
AcDbEntity
  8
IMAGE
100
AcDbLine
 10
1.045198587824456
 20
5.059779659091169
 30
0.0
 11
1.045198587824456
 21
5.159779659091171
 31
0.0
  0
ARC
  5
131
330
17
100
AcDbEntity
  8
IMAGE
100
AcDbCircle
 10
1.032698587824456
 20
5.159779659091171
 30
0.0
 40
0.0125
100
AcDbArc
 50
0.0
 51
180.0
  0
LINE
  5
132
330
17
100
AcDbEntity
  8
IMAGE
100
AcDbLine
 10
0.9626052290538687
 20
5.159779659091171
 30
0.0
 11
0.9626052290538687
 21
5.181698903867726
 31
0.0
  0
LINE
  5
133
330
17
100
AcDbEntity
  8
IMAGE
100
AcDbLine
 10
0.9483199077194054
 20
5.159779659091171
 30
0.0
 11
0.9483199077194054
 21
5.059779659091169
 31
0.0
  0
LINE
  5
134
330
17
100
AcDbEntity
  8
IMAGE
100
AcDbLine
 10
0.9626052290538687
 20
5.059779659091169
 30
0.0
 11
1.662605229053868
 21
5.059779659091169
 31
0.0
  0
ARC
  5
135
330
17
100
AcDbEntity
  8
IMAGE
100
AcDbCircle
 10
0.9606226265464133
 20
5.159779659091171
 30
0.0
 40
0.0125
100
AcDbArc
 50
80.87387955981208
 51
180.0
  0
LINE
  5
136
330
17
100
AcDbEntity
  8
IMAGE
100
AcDbLine
 10
1.045198587824456
 20
5.159779659091171
 30
0.0
 11
1.151754694519094
 21
5.159779659091169
 31
0.0
  0
LINE
  5
137
330
17
100
AcDbEntity
  8
IMAGE
100
AcDbLine
 10
1.176754694519094
 20
5.159779659091169
 30
0.0
 11
1.300105229053869
 21
5.159779659091171
 31
0.0
  0
LINE
  5
138
330
17
100
AcDbEntity
  8
IMAGE
100
AcDbLine
 10
1.580011870283282
 20
5.059779659091169
 30
0.0
 11
1.580011870283282
 21
5.159779659091171
 31
0.0
  0
LINE
  5
139
330
17
100
AcDbEntity
  8
IMAGE
100
AcDbLine
 10
1.605011870283282
 20
5.059779659091169
 30
0.0
 11
1.605011870283282
 21
5.159779659091171
 31
0.0
  0
LINE
  5
13A
330
17
100
AcDbEntity
  8
IMAGE
100
AcDbLine
 10
1.473455763588643
 20
5.059779659091169
 30
0.0
 11
1.473455763588643
 21
5.159779659091171
 31
0.0
  0
LINE
  5
13B
330
17
100
AcDbEntity
  8
IMAGE
100
AcDbLine
 10
1.448455763588644
 20
5.059779659091169
 30
0.0
 11
1.448455763588644
 21
5.159779659091171
 31
0.0
  0
ARC
  5
13C
330
17
100
AcDbEntity
  8
IMAGE
100
AcDbCircle
 10
1.460955763588644
 20
5.159779659091171
 30
0.0
 40
0.0125
100
AcDbArc
 50
0.0
 51
180.0
  0
ARC
  5
13D
330
17
100
AcDbEntity
  8
IMAGE
100
AcDbCircle
 10
1.592511870283282
 20
5.159779659091171
 30
0.0
 40
0.0125
100
AcDbArc
 50
0.0
 51
180.0
  0
ARC
  5
13E
330
17
100
AcDbEntity
  8
IMAGE
100
AcDbCircle
 10
1.664587831561325
 20
5.159779659091171
 30
0.0
 40
0.0125
100
AcDbArc
 50
0.0
 51
99.12612044018793
  0
LINE
  5
13F
330
17
100
AcDbEntity
  8
IMAGE
100
AcDbLine
 10
1.676890550388332
 20
5.159779659091171
 30
0.0
 11
1.676890550388332
 21
5.059779659091169
 31
0.0
  0
LINE
  5
140
330
17
100
AcDbEntity
  8
IMAGE
100
AcDbLine
 10
1.676890550388332
 20
5.059779659091169
 30
0.0
 11
1.662605229053869
 21
5.059779659091169
 31
0.0
  0
LINE
  5
141
330
17
100
AcDbEntity
  8
IMAGE
100
AcDbLine
 10
1.473455763588643
 20
5.159779659091171
 30
0.0
 11
1.580011870283282
 21
5.159779659091171
 31
0.0
  0
LINE
  5
142
330
17
100
AcDbEntity
  8
IMAGE
100
AcDbLine
 10
1.605011870283282
 20
5.159779659091171
 30
0.0
 11
1.662605229053868
 21
5.159779659091171
 31
0.0
  0
LINE
  5
143
330
17
100
AcDbEntity
  8
IMAGE
100
AcDbLine
 10
1.10837328330543
 20
5.329779659091169
 30
0.0
 11
1.229060060376585
 21
5.329779659091169
 31
0.0
  0
LINE
  5
144
330
17
100
AcDbEntity
  8
IMAGE
100
AcDbLine
 10
1.235066385562193
 20
5.329779659091169
 30
0.0
 11
1.390144072545544
 21
5.329779659091169
 31
0.0
  0
LINE
  5
145
330
17
100
AcDbEntity
  8
IMAGE
100
AcDbLine
 10
1.520238095570944
 20
5.329779659091169
 30
0.0
 11
1.498572559600168
 21
5.429779659091169
 31
0.0
  0
LINE
  5
146
330
17
100
AcDbEntity
  8
IMAGE
100
AcDbLine
 10
1.396150397731152
 20
5.329779659091169
 30
0.0
 11
1.38454594105579
 21
5.42977965909117
 31
0.0
  0
LINE
  5
147
330
17
100
AcDbEntity
  8
IMAGE
100
AcDbLine
 10
1.520238095570944
 20
5.329779659091169
 30
0.0
 11
1.662605229053868
 21
5.329779659091169
 31
0.0
  0
LINE
  5
148
330
17
100
AcDbEntity
  8
IMAGE
100
AcDbLine
 10
1.396150397731152
 20
5.329779659091169
 30
0.0
 11
1.516837174802307
 21
5.329779659091169
 31
0.0
  0
LINE
  5
149
330
17
100
AcDbEntity
  8
IMAGE
100
AcDbLine
 10
1.200105229053868
 20
4.39987545662597
 30
0.0
 11
1.200105229053868
 21
4.69977965909117
 31
0.0
  0
LINE
  5
14A
330
17
100
AcDbEntity
  8
IMAGE
100
AcDbLine
 10
1.425105229053869
 20
4.39987545662597
 30
0.0
 11
1.425105229053869
 21
4.69977965909117
 31
0.0
  0
LINE
  5
14B
330
17
100
AcDbEntity
  8
IMAGE
100
AcDbLine
 10
1.174913633984267
 20
4.39987545662597
 30
0.0
 11
1.174913633984267
 21
4.69977965909117
 31
0.0
  0
LINE
  5
14C
330
17
100
AcDbEntity
  8
IMAGE
100
AcDbLine
 10
1.450296824123471
 20
4.39987545662597
 30
0.0
 11
1.450296824123471
 21
4.69977965909117
 31
0.0
  0
LINE
  5
14D
330
17
100
AcDbEntity
  8
IMAGE
100
AcDbLine
 10
1.450296824123471
 20
4.69977965909117
 30
0.0
 11
1.531767443182399
 21
4.69977965909117
 31
0.0
  0
LWPOLYLINE
  5
14E
330
17
100
AcDbEntity
  8
IMAGE
100
AcDbPolyline
 90
        9
 70
     0
 43
0.0
 10
1.450296824123471
 20
4.69977965909117
 42
0.0462356190005962
 10
1.449246501804946
 20
4.71111374559266
 42
0.0598570032485712
 10
1.44660760043998
 20
4.719514029010898
 42
0.1014187943639756
 10
1.441870129999573
 20
4.726065112783293
 42
0.1877997413392708
 10
1.43770102658867
 20
4.727688272676536
 42
0.187799741339296
 10
1.433531923177767
 20
4.726065112783292
 42
0.1014187943639896
 10
1.428794452737359
 20
4.719514029010898
 42
0.0598570032485718
 10
1.426155551372392
 20
4.711113745592658
 42
0.0462356190005909
 10
1.425105229053869
 20
4.69977965909117
 42
0.0462356190005901
  0
LWPOLYLINE
  5
159
330
17
100
AcDbEntity
  8
IMAGE
100
AcDbPolyline
 90
        9
 70
     0
 43
0.0
 10
1.200105229053869
 20
4.69977965909117
 42
0.0462356190005962
 10
1.199054906735345
 20
4.71111374559266
 42
0.0598570032485712
 10
1.196416005370378
 20
4.719514029010898
 42
0.1014187943639756
 10
1.191678534929971
 20
4.726065112783293
 42
0.1877997413392708
 10
1.187509431519068
 20
4.727688272676536
 42
0.187799741339296
 10
1.183340328108165
 20
4.726065112783292
 42
0.1014187943639896
 10
1.178602857667757
 20
4.719514029010898
 42
0.0598570032485718
 10
1.17596395630279
 20
4.711113745592658
 42
0.0462356190005909
 10
1.174913633984267
 20
4.69977965909117
 42
0.0462356190005901
  0
LINE
  5
164
330
17
100
AcDbEntity
  8
IMAGE
100
AcDbLine
 10
1.200105229053869
 20
4.69977965909117
 30
0.0
 11
1.425105229053869
 21
4.69977965909117
 31
0.0
  0
LINE
  5
165
330
17
100
AcDbEntity
  8
IMAGE
100
AcDbLine
 10
1.593313991475427
 20
4.39987545662597
 30
0.0
 11
1.593313991475427
 21
4.654236610593693
 31
0.0
  0
LINE
  5
166
330
17
100
AcDbEntity
  8
IMAGE
100
AcDbLine
 10
1.03189646663231
 20
4.39987545662597
 30
0.0
 11
1.03189646663231
 21
4.69977965909117
 31
0.0
  0
LWPOLYLINE
  5
167
330
17
100
AcDbEntity
  8
IMAGE
100
AcDbPolyline
 90
        4
 70
     0
 43
0.0
 10
1.03189646663231
 20
4.69977965909117
 42
-0.0462356190005962
 10
1.032946788950833
 20
4.71111374559266
 42
-0.0598570032485712
 10
1.0355856903158
 20
4.719514029010898
 42
-0.1004683928970987
 10
1.04026743530151
 20
4.726013775764123
 42
-0.1877997413392708
  0
ARC
  5
16D
330
17
100
AcDbEntity
  8
IMAGE
100
AcDbCircle
 10
1.187509431519067
 20
4.39987545662597
 30
0.0
 40
0.012595797534801
100
AcDbArc
 50
180.0
 51
0.0
  0
ARC
  5
16E
330
17
100
AcDbEntity
  8
IMAGE
100
AcDbCircle
 10
1.43770102658867
 20
4.39987545662597
 30
0.0
 40
0.012595797534801
100
AcDbArc
 50
180.0
 51
0.0
  0
ARC
  5
16F
330
17
100
AcDbEntity
  8
IMAGE
100
AcDbCircle
 10
1.580718193940626
 20
4.39987545662597
 30
0.0
 40
0.012595797534801
100
AcDbArc
 50
243.5368569652697
 51
0.0
  0
ARC
  5
170
330
17
100
AcDbEntity
  8
IMAGE
100
AcDbCircle
 10
1.04449226416711
 20
4.39987545662597
 30
0.0
 40
0.012595797534801
100
AcDbArc
 50
180.0
 51
296.4631430347302
  0
LINE
  5
171
330
17
100
AcDbEntity
  8
IMAGE
100
AcDbLine
 10
1.375019713860907
 20
4.568348183384134
 30
0.0
 11
1.375019713860907
 21
4.588348183384136
 31
0.0
  0
LINE
  5
172
330
17
100
AcDbEntity
  8
IMAGE
100
AcDbLine
 10
1.375019713860907
 20
4.588348183384136
 30
0.0
 11
1.314628839789671
 21
4.588348183384136
 31
0.0
  0
LINE
  5
173
330
17
100
AcDbEntity
  8
IMAGE
100
AcDbLine
 10
1.289015046506376
 20
4.562734390100841
 30
0.0
 11
1.289015046506376
 21
4.538348183384135
 31
0.0
  0
LINE
  5
174
330
17
100
AcDbEntity
  8
IMAGE
100
AcDbLine
 10
1.375019713860907
 20
4.568348183384134
 30
0.0
 11
1.314628839789671
 21
4.568348183384134
 31
0.0
  0
LINE
  5
175
330
17
100
AcDbEntity
  8
IMAGE
100
AcDbLine
 10
1.309015046506376
 20
4.562734390100841
 30
0.0
 11
1.309015046506376
 21
4.538348183384135
 31
0.0
  0
LINE
  5
176
330
17
100
AcDbEntity
  8
IMAGE
100
AcDbLine
 10
1.269015046506376
 20
4.538348183384135
 30
0.0
 11
1.289015046506376
 21
4.538348183384135
 31
0.0
  0
LINE
  5
177
330
17
100
AcDbEntity
  8
IMAGE
100
AcDbLine
 10
1.269015046506376
 20
4.538348183384135
 30
0.0
 11
1.299015046506376
 21
4.508348183384136
 31
0.0
  0
LINE
  5
178
330
17
100
AcDbEntity
  8
IMAGE
100
AcDbLine
 10
1.299015046506376
 20
4.508348183384136
 30
0.0
 11
1.329015046506377
 21
4.538348183384135
 31
0.0
  0
LINE
  5
179
330
17
100
AcDbEntity
  8
IMAGE
100
AcDbLine
 10
1.309015046506376
 20
4.538348183384135
 30
0.0
 11
1.329015046506377
 21
4.538348183384135
 31
0.0
  0
ARC
  5
17A
330
17
100
AcDbEntity
  8
IMAGE
100
AcDbCircle
 10
1.314628839789671
 20
4.562734390100841
 30
0.0
 40
0.0256137932832943
100
AcDbArc
 50
90.0
 51
180.0
  0
ARC
  5
17B
330
17
100
AcDbEntity
  8
IMAGE
100
AcDbCircle
 10
1.314628839789671
 20
4.562734390100841
 30
0.0
 40
0.0056137932832943
100
AcDbArc
 50
90.0
 51
180.0
  0
LINE
  5
17C
330
17
100
AcDbEntity
  8
IMAGE
100
AcDbLine
 10
1.612605229053869
 20
4.954236610593692
 30
0.0
 11
1.632605229053868
 21
4.954236610593692
 31
0.0
  0
LINE
  5
17D
330
17
100
AcDbEntity
  8
IMAGE
100
AcDbLine
 10
1.575105229053868
 20
4.654236610593693
 30
0.0
 11
1.632605229053868
 21
4.654236610593693
 31
0.0
  0
ARC
  5
17E
330
17
100
AcDbEntity
  8
IMAGE
100
AcDbCircle
 10
1.694431856300204
 20
4.811176440743729
 30
0.0
 40
0.1971521094421956
100
AcDbArc
 50
214.4043482608908
 51
232.7530518955574
  0
ARC
  5
17F
330
17
100
AcDbEntity
  8
IMAGE
100
AcDbCircle
 10
1.686371018693761
 20
4.702597567577029
 30
0.0
 40
0.1546292539241262
100
AcDbArc
 50
141.061598973752
 51
181.0441956942685
  0
ARC
  5
180
330
17
100
AcDbEntity
  8
IMAGE
100
AcDbCircle
 10
1.995089411923549
 20
4.754836984928584
 30
0.0
 40
0.4313401915667872
100
AcDbArc
 50
152.4657177764633
 51
174.019320071848
  0
LINE
  5
181
330
17
100
AcDbEntity
  8
IMAGE
100
AcDbLine
 10
1.657605229053868
 20
5.004236610593693
 30
0.0
 11
1.861653516564143
 21
5.004236610593693
 31
0.0
  0
LINE
  5
182
330
17
100
AcDbEntity
  8
IMAGE
100
AcDbLine
 10
1.657605229053868
 20
4.604236610593694
 30
0.0
 11
1.882605229053869
 21
4.604236610593694
 31
0.0
  0
LINE
  5
183
330
17
100
AcDbEntity
  8
IMAGE
100
AcDbLine
 10
1.632605229053868
 20
4.973810660574955
 30
0.0
 11
1.632605229053868
 21
4.634662560612433
 31
0.0
  0
LINE
  5
184
330
17
100
AcDbEntity
  8
IMAGE
100
AcDbLine
 10
1.657605229053868
 20
5.004236610593693
 30
0.0
 11
1.657605229053868
 21
4.604236610593694
 31
0.0
  0
LINE
  5
185
330
17
100
AcDbEntity
  8
IMAGE
100
AcDbLine
 10
1.632605229053868
 20
4.973810660574955
 30
0.0
 11
1.657605229053868
 21
5.004236610593693
 31
0.0
  0
LINE
  5
186
330
17
100
AcDbEntity
  8
IMAGE
100
AcDbLine
 10
1.632605229053868
 20
4.634662560612433
 30
0.0
 11
1.657605229053868
 21
4.604236610593693
 31
0.0
  0
LINE
  5
187
330
17
100
AcDbEntity
  8
IMAGE
100
AcDbLine
 10
1.882605229053868
 20
4.799779659091168
 30
0.0
 11
1.882605229053868
 21
4.604236610593694
 31
0.0
  0
LINE
  5
188
330
17
100
AcDbEntity
  8
IMAGE
100
AcDbLine
 10
1.982605229053869
 20
4.799779659091168
 30
0.0
 11
1.982605229053869
 21
4.604236610593694
 31
0.0
  0
LINE
  5
189
330
17
100
AcDbEntity
  8
IMAGE
100
AcDbLine
 10
1.882605229053868
 20
4.604236610593694
 30
0.0
 11
1.95526177945152
 21
4.630770385499545
 31
0.0
  0
LINE
  5
18A
330
17
100
AcDbEntity
  8
IMAGE
100
AcDbLine
 10
1.95526177945152
 20
4.630770385499545
 30
0.0
 11
1.982605229053869
 21
4.604236610593694
 31
0.0
  0
LINE
  5
18B
330
17
100
AcDbEntity
  8
IMAGE
100
AcDbLine
 10
1.95526177945152
 20
4.630770385499545
 30
0.0
 11
1.95526177945152
 21
4.799779659091168
 31
0.0
  0
LINE
  5
18C
330
17
100
AcDbEntity
  8
IMAGE
100
AcDbLine
 10
2.482605229053869
 20
4.69977965909117
 30
0.0
 11
2.482605229053869
 21
4.38727965909117
 31
0.0
  0
LINE
  5
18D
330
17
100
AcDbEntity
  8
IMAGE
100
AcDbLine
 10
1.982605229053869
 20
4.38727965909117
 30
0.0
 11
2.48260522905387
 21
4.38727965909117
 31
0.0
  0
LINE
  5
18E
330
17
100
AcDbEntity
  8
IMAGE
100
AcDbLine
 10
1.982605229053869
 20
4.604236610593694
 30
0.0
 11
1.982605229053869
 21
4.38727965909117
 31
0.0
  0
LINE
  5
18F
330
17
100
AcDbEntity
  8
IMAGE
100
AcDbLine
 10
2.37029682412347
 20
4.39987545662597
 30
0.0
 11
2.37029682412347
 21
4.69977965909117
 31
0.0
  0
LINE
  5
190
330
17
100
AcDbEntity
  8
IMAGE
100
AcDbLine
 10
2.345105229053868
 20
4.39987545662597
 30
0.0
 11
2.345105229053868
 21
4.69977965909117
 31
0.0
  0
ARC
  5
191
330
17
100
AcDbEntity
  8
IMAGE
100
AcDbCircle
 10
2.35770102658867
 20
4.39987545662597
 30
0.0
 40
0.012595797534801
100
AcDbArc
 50
180.0
 51
0.0
  0
LWPOLYLINE
  5
192
330
17
100
AcDbEntity
  8
IMAGE
100
AcDbPolyline
 90
        9
 70
     0
 43
0.0
 10
2.37029682412347
 20
4.69977965909117
 42
0.0462356190005962
 10
2.369246501804947
 20
4.71111374559266
 42
0.0598570032485712
 10
2.36660760043998
 20
4.719514029010898
 42
0.1014187943639756
 10
2.361870129999573
 20
4.726065112783292
 42
0.1877997413392708
 10
2.357701026588669
 20
4.727688272676536
 42
0.187799741339296
 10
2.353531923177766
 20
4.726065112783292
 42
0.1014187943639896
 10
2.348794452737359
 20
4.719514029010898
 42
0.0598570032485718
 10
2.346155551372393
 20
4.711113745592658
 42
0.0462356190005909
 10
2.345105229053868
 20
4.69977965909117
 42
0.0462356190005901
  0
LWPOLYLINE
  5
19D
330
17
100
AcDbEntity
  8
IMAGE
100
AcDbPolyline
 90
        9
 70
     0
 43
0.0
 10
2.120105229053869
 20
4.69977965909117
 42
0.0462356190005962
 10
2.119054906735346
 20
4.71111374559266
 42
0.0598570032485712
 10
2.116416005370379
 20
4.719514029010898
 42
0.1014187943639756
 10
2.111678534929971
 20
4.726065112783292
 42
0.1877997413392708
 10
2.107509431519068
 20
4.727688272676536
 42
0.187799741339296
 10
2.103340328108165
 20
4.726065112783292
 42
0.1014187943639896
 10
2.098602857667758
 20
4.719514029010898
 42
0.0598570032485718
 10
2.095963956302791
 20
4.711113745592658
 42
0.0462356190005909
 10
2.094913633984267
 20
4.69977965909117
 42
0.0462356190005901
  0
LINE
  5
1A8
330
17
100
AcDbEntity
  8
IMAGE
100
AcDbLine
 10
2.094913633984267
 20
4.39987545662597
 30
0.0
 11
2.094913633984267
 21
4.69977965909117
 31
0.0
  0
LINE
  5
1A9
330
17
100
AcDbEntity
  8
IMAGE
100
AcDbLine
 10
2.120105229053869
 20
4.39987545662597
 30
0.0
 11
2.120105229053869
 21
4.69977965909117
 31
0.0
  0
ARC
  5
1AA
330
17
100
AcDbEntity
  8
IMAGE
100
AcDbCircle
 10
2.107509431519068
 20
4.39987545662597
 30
0.0
 40
0.012595797534801
100
AcDbArc
 50
180.0
 51
0.0
  0
ARC
  5
1AB
330
17
100
AcDbEntity
  8
IMAGE
100
AcDbCircle
 10
1.976992264167111
 20
4.39987545662597
 30
0.0
 40
0.012595797534801
100
AcDbArc
 50
180.0
 51
296.4631430347302
  0
LINE
  5
1AC
330
17
100
AcDbEntity
  8
IMAGE
100
AcDbLine
 10
1.96439646663231
 20
4.39987545662597
 30
0.0
 11
1.96439646663231
 21
4.621906188150077
 31
0.0
  0
LWPOLYLINE
  5
1AD
330
17
100
AcDbEntity
  8
IMAGE
100
AcDbPolyline
 90
        4
 70
     0
 43
0.0
 10
2.500813991475428
 20
4.69977965909117
 42
0.0462356190005962
 10
2.499763669156904
 20
4.71111374559266
 42
0.0598570032485712
 10
2.497124767791938
 20
4.719514029010898
 42
0.1004683928970987
 10
2.492443022806227
 20
4.726013775764123
 42
0.1877997413392708
  0
LINE
  5
1B3
330
17
100
AcDbEntity
  8
IMAGE
100
AcDbLine
 10
2.500813991475428
 20
4.39987545662597
 30
0.0
 11
2.500813991475428
 21
4.69977965909117
 31
0.0
  0
ARC
  5
1B4
330
17
100
AcDbEntity
  8
IMAGE
100
AcDbCircle
 10
2.488218193940627
 20
4.39987545662597
 30
0.0
 40
0.012595797534801
100
AcDbArc
 50
243.5368569652697
 51
0.0
  0
LINE
  5
1B5
330
17
100
AcDbEntity
  8
IMAGE
100
AcDbLine
 10
2.482605229053869
 20
4.69977965909117
 30
0.0
 11
2.520105229053868
 21
4.799779659091168
 31
0.0
  0
LINE
  5
1B6
330
17
100
AcDbEntity
  8
IMAGE
100
AcDbLine
 10
2.520105229053868
 20
4.799779659091168
 30
0.0
 11
1.882605229053868
 21
4.799779659091168
 31
0.0
  0
LINE
  5
1B7
330
17
100
AcDbEntity
  8
IMAGE
100
AcDbLine
 10
2.482605229053869
 20
4.69977965909117
 30
0.0
 11
2.37029682412347
 21
4.69977965909117
 31
0.0
  0
LINE
  5
1B8
330
17
100
AcDbEntity
  8
IMAGE
100
AcDbLine
 10
2.094913633984267
 20
4.699779659091168
 30
0.0
 11
2.030237683003144
 21
4.699779659091168
 31
0.0
  0
LINE
  5
1B9
330
17
100
AcDbEntity
  8
IMAGE
100
AcDbLine
 10
2.345105229053868
 20
4.69977965909117
 30
0.0
 11
2.120105229053869
 21
4.699779659091168
 31
0.0
  0
ARC
  5
1BA
330
17
100
AcDbEntity
  8
IMAGE
100
AcDbCircle
 10
1.713486569521319
 20
4.798049188703704
 30
0.0
 40
0.3316446416606858
100
AcDbArc
 50
324.2395031324631
 51
342.763909693957
  0
ARC
  5
1BB
330
17
100
AcDbEntity
  8
IMAGE
100
AcDbCircle
 10
1.758231879003893
 20
4.631560873108018
 30
0.0
 40
0.2804299559075211
100
AcDbArc
 50
14.07932225218796
 51
36.8598900896577
  0
LINE
  5
1BC
330
17
100
AcDbEntity
  8
IMAGE
100
AcDbLine
 10
1.70055129090519
 20
6.00833229439949
 30
0.0
 11
2.07555129090519
 21
6.00833229439949
 31
0.0
  0
LINE
  5
1BD
330
17
100
AcDbEntity
  8
IMAGE
100
AcDbLine
 10
2.559235222320445
 20
4.799779659091168
 30
0.0
 11
2.559235222320445
 21
5.049779659091168
 31
0.0
  0
LINE
  5
1BE
330
17
100
AcDbEntity
  8
IMAGE
100
AcDbLine
 10
1.905975235787292
 20
4.799779659091168
 30
0.0
 11
1.905975235787292
 21
5.049779659091168
 31
0.0
  0
LINE
  5
1BF
330
17
100
AcDbEntity
  8
IMAGE
100
AcDbLine
 10
2.559525781196744
 20
5.049779659091168
 30
0.0
 11
1.905975235787292
 21
5.049779659091168
 31
0.0
  0
LINE
  5
1C0
330
17
100
AcDbEntity
  8
IMAGE
100
AcDbLine
 10
2.559525781196744
 20
5.073168194333076
 30
0.0
 11
2.559235222320445
 21
5.073168194333076
 31
0.0
  0
LINE
  5
1C1
330
17
100
AcDbEntity
  8
IMAGE
100
AcDbLine
 10
1.905975235787292
 20
5.073168194333076
 30
0.0
 11
1.905975235787292
 21
5.198168194333076
 31
0.0
  0
LINE
  5
1C2
330
17
100
AcDbEntity
  8
IMAGE
100
AcDbLine
 10
2.559235222320445
 20
5.073168194333076
 30
0.0
 11
2.559235222320445
 21
5.198168194333076
 31
0.0
  0
ARC
  5
1C3
330
17
100
AcDbEntity
  8
IMAGE
100
AcDbCircle
 10
2.233475235787292
 20
5.185668194333075
 30
0.0
 40
0.0425
100
AcDbArc
 50
17.10463517664379
 51
162.8953648233562
  0
LINE
  5
1C4
330
17
100
AcDbEntity
  8
IMAGE
100
AcDbLine
 10
2.058067795429006
 20
5.198168194333076
 30
0.0
 11
2.058067795429006
 21
5.073168194333076
 31
0.0
  0
LINE
  5
1C5
330
17
100
AcDbEntity
  8
IMAGE
100
AcDbLine
 10
2.120567795429006
 20
5.198168194333076
 30
0.0
 11
2.120567795429006
 21
5.073168194333076
 31
0.0
  0
LINE
  5
1C6
330
17
100
AcDbEntity
  8
IMAGE
100
AcDbLine
 10
1.905975235787292
 20
5.049779659091168
 30
0.0
 11
1.856833139945432
 21
5.049779659091168
 31
0.0
  0
LINE
  5
1C7
330
17
100
AcDbEntity
  8
IMAGE
100
AcDbLine
 10
2.559235222320445
 20
5.073168194333076
 30
0.0
 11
2.120567795429006
 21
5.073168194333076
 31
0.0
  0
LINE
  5
1C8
330
17
100
AcDbEntity
  8
IMAGE
100
AcDbLine
 10
2.424235222320445
 20
5.073168194333076
 30
0.0
 11
2.300975235787292
 21
5.073168194333076
 31
0.0
  0
LINE
  5
1C9
330
17
100
AcDbEntity
  8
IMAGE
100
AcDbLine
 10
2.424235222320445
 20
5.049779659091168
 30
0.0
 11
2.300975235787292
 21
5.049779659091168
 31
0.0
  0
LINE
  5
1CA
330
17
100
AcDbEntity
  8
IMAGE
100
AcDbLine
 10
2.165975235787292
 20
5.073168194333076
 30
0.0
 11
2.120567795429005
 21
5.073168194333076
 31
0.0
  0
LINE
  5
1CB
330
17
100
AcDbEntity
  8
IMAGE
100
AcDbLine
 10
2.165975235787292
 20
5.049779659091168
 30
0.0
 11
2.040975235787291
 21
5.049779659091168
 31
0.0
  0
LINE
  5
1CC
330
17
100
AcDbEntity
  8
IMAGE
100
AcDbLine
 10
2.058067795429006
 20
5.073168194333076
 30
0.0
 11
2.040975235787292
 21
5.073168194333076
 31
0.0
  0
LINE
  5
1CD
330
17
100
AcDbEntity
  8
IMAGE
100
AcDbLine
 10
2.058067795429006
 20
5.073168194333076
 30
0.0
 11
1.856833139945432
 21
5.073168194333076
 31
0.0
  0
LINE
  5
1CE
330
17
100
AcDbEntity
  8
IMAGE
100
AcDbLine
 10
1.905975235787292
 20
5.198168194333076
 30
0.0
 11
1.983563929507504
 21
5.198168194333076
 31
0.0
  0
LINE
  5
1CF
330
17
100
AcDbEntity
  8
IMAGE
100
AcDbLine
 10
2.010975235787293
 20
5.248168194333075
 30
0.0
 11
2.515966591811679
 21
5.248168194333075
 31
0.0
  0
ARC
  5
1D0
330
17
100
AcDbEntity
  8
IMAGE
100
AcDbCircle
 10
1.958475235787293
 20
5.185668194333075
 30
0.0
 40
0.0425
100
AcDbArc
 50
36.15875530532385
 51
162.8953648233562
  0
ARC
  5
1D1
330
17
100
AcDbEntity
  8
IMAGE
100
AcDbCircle
 10
2.506735222320445
 20
5.185668194333075
 30
0.0
 40
0.0425
100
AcDbArc
 50
17.10463517664379
 51
141.7303439112918
  0
LINE
  5
1D2
330
17
100
AcDbEntity
  8
IMAGE
100
AcDbLine
 10
2.285975235787292
 20
5.073168194333076
 30
0.0
 11
2.285975235787292
 21
5.248168194333075
 31
0.0
  0
LINE
  5
1D3
330
17
100
AcDbEntity
  8
IMAGE
100
AcDbLine
 10
2.180975235787292
 20
5.073168194333076
 30
0.0
 11
2.180975235787292
 21
5.248168194333075
 31
0.0
  0
LINE
  5
1D4
330
17
100
AcDbEntity
  8
IMAGE
100
AcDbLine
 10
2.454235222320444
 20
5.073168194333076
 30
0.0
 11
2.454235222320444
 21
5.248168194333075
 31
0.0
  0
LINE
  5
1D5
330
17
100
AcDbEntity
  8
IMAGE
100
AcDbLine
 10
2.454235222320444
 20
4.799779659091168
 30
0.0
 11
2.454235222320444
 21
5.049779659091168
 31
0.0
  0
LINE
  5
1D6
330
17
100
AcDbEntity
  8
IMAGE
100
AcDbLine
 10
2.010975235787293
 20
5.073168194333076
 30
0.0
 11
2.010975235787293
 21
5.248168194333075
 31
0.0
  0
LINE
  5
1D7
330
17
100
AcDbEntity
  8
IMAGE
100
AcDbLine
 10
2.010975235787293
 20
4.799779659091168
 30
0.0
 11
2.010975235787293
 21
5.049779659091168
 31
0.0
  0
LINE
  5
1D8
330
17
100
AcDbEntity
  8
IMAGE
100
AcDbLine
 10
2.180975235787292
 20
4.799779659091168
 30
0.0
 11
2.180975235787292
 21
5.049779659091168
 31
0.0
  0
LINE
  5
1D9
330
17
100
AcDbEntity
  8
IMAGE
100
AcDbLine
 10
2.285975235787292
 20
4.799779659091168
 30
0.0
 11
2.285975235787292
 21
5.049779659091168
 31
0.0
  0
LINE
  5
1DA
330
17
100
AcDbEntity
  8
IMAGE
100
AcDbLine
 10
2.20405256530991
 20
5.216336687318213
 30
0.0
 11
2.20405256530991
 21
5.248168194333075
 31
0.0
  0
LINE
  5
1DB
330
17
100
AcDbEntity
  8
IMAGE
100
AcDbLine
 10
2.262897906264674
 20
5.216336687318214
 30
0.0
 11
2.262897906264674
 21
5.248168194333075
 31
0.0
  0
LWPOLYLINE
  5
1DC
330
17
100
AcDbEntity
  8
IMAGE
100
AcDbPolyline
 90
        2
 70
     0
 43
0.0
 10
2.457770769333567
 20
5.248168194333075
 42
0.1104890372476329
 10
2.48338654206708
 20
5.198168194333076
 42
-0.3613705690514547
  0
LINE
  5
1E0
330
17
100
AcDbEntity
  8
IMAGE
100
AcDbLine
 10
2.48338654206708
 20
5.198168194333076
 30
0.0
 11
2.559235222320445
 21
5.198168194333076
 31
0.0
  0
LINE
  5
1E1
330
17
100
AcDbEntity
  8
IMAGE
100
AcDbLine
 10
2.515966591811679
 20
5.227153514837036
 30
0.0
 11
2.515966591811679
 21
5.248168194333075
 31
0.0
  0
LINE
  5
1E2
330
17
100
AcDbEntity
  8
IMAGE
100
AcDbLine
 10
1.950983879762905
 20
5.227153514837036
 30
0.0
 11
1.950983879762905
 21
5.248168194333075
 31
0.0
  0
LINE
  5
1E3
330
17
100
AcDbEntity
  8
IMAGE
100
AcDbLine
 10
2.455975235787291
 20
5.248168194333075
 30
0.0
 11
1.950983879762905
 21
5.248168194333075
 31
0.0
  0
LWPOLYLINE
  5
1E4
330
17
100
AcDbEntity
  8
IMAGE
100
AcDbPolyline
 90
        2
 70
     0
 43
0.0
 10
2.009179702241017
 20
5.248168194333075
 42
-0.1104890372476329
 10
1.983563929507504
 20
5.198168194333076
 42
0.3613705690514547
  0
LINE
  5
1E8
330
17
100
AcDbEntity
  8
IMAGE
100
AcDbLine
 10
2.010975235787293
 20
5.198168194333076
 30
0.0
 11
2.454235222320444
 21
5.198168194333076
 31
0.0
  0
LINE
  5
1E9
330
17
100
AcDbEntity
  8
IMAGE
100
AcDbLine
 10
2.426546199693861
 20
5.373168194333075
 30
0.0
 11
2.400304999294873
 21
5.373168194333075
 31
0.0
  0
LINE
  5
1EA
330
17
100
AcDbEntity
  8
IMAGE
100
AcDbLine
 10
2.336128987218674
 20
5.585668194333077
 30
0.0
 11
2.13082148435591
 21
5.585668194333077
 31
0.0
  0
LINE
  5
1EB
330
17
100
AcDbEntity
  8
IMAGE
100
AcDbLine
 10
2.225975235787292
 20
5.248168194333075
 30
0.0
 11
2.225975235787292
 21
5.435668194333075
 31
0.0
  0
LINE
  5
1EC
330
17
100
AcDbEntity
  8
IMAGE
100
AcDbLine
 10
2.240975235787292
 20
5.248168194333075
 30
0.0
 11
2.240975235787292
 21
5.435668194333075
 31
0.0
  0
LINE
  5
1ED
330
17
100
AcDbEntity
  8
IMAGE
100
AcDbLine
 10
2.225975235787292
 20
5.373168194333075
 30
0.0
 11
2.074626897457373
 21
5.373168194333075
 31
0.0
  0
LINE
  5
1EE
330
17
100
AcDbEntity
  8
IMAGE
100
AcDbLine
 10
2.475399343924521
 20
5.248168194333075
 30
0.0
 11
2.345920972092836
 21
5.442987893464369
 31
0.0
  0
LINE
  5
1EF
330
17
100
AcDbEntity
  8
IMAGE
100
AcDbLine
 10
2.345920972092837
 20
5.391918805511686
 30
0.0
 11
2.392323574117212
 21
5.373168194333075
 31
0.0
  0
LINE
  5
1F0
330
17
100
AcDbEntity
  8
IMAGE
100
AcDbLine
 10
2.392323574117212
 20
5.373168194333075
 30
0.0
 11
2.392323574117212
 21
5.248168194333075
 31
0.0
  0
LINE
  5
1F1
330
17
100
AcDbEntity
  8
IMAGE
100
AcDbLine
 10
2.483380769102182
 20
5.248168194333075
 30
0.0
 11
2.353902397270497
 21
5.442987893464369
 31
0.0
  0
LINE
  5
1F2
330
17
100
AcDbEntity
  8
IMAGE
100
AcDbLine
 10
2.392323574117212
 20
5.373168194333075
 30
0.0
 11
2.240975235787292
 21
5.373168194333075
 31
0.0
  0
LINE
  5
1F3
330
17
100
AcDbEntity
  8
IMAGE
100
AcDbLine
 10
2.426591469117737
 20
5.333616243921067
 30
0.0
 11
2.426591469117737
 21
5.371819982573281
 31
0.0
  0
LINE
  5
1F4
330
17
100
AcDbEntity
  8
IMAGE
100
AcDbLine
 10
2.406492646179331
 20
5.391918805511686
 30
0.0
 11
2.387843227630707
 21
5.391918805511686
 31
0.0
  0
ARC
  5
1F5
330
17
100
AcDbEntity
  8
IMAGE
100
AcDbCircle
 10
2.406492646179331
 20
5.371819982573281
 30
0.0
 40
0.0200988229384054
100
AcDbArc
 50
0.0
 51
90.0
  0
LINE
  5
1F6
330
17
100
AcDbEntity
  8
IMAGE
100
AcDbLine
 10
2.345920972092837
 20
5.391918805511686
 30
0.0
 11
2.240975235787292
 21
5.391918805511686
 31
0.0
  0
LINE
  5
1F7
330
17
100
AcDbEntity
  8
IMAGE
100
AcDbLine
 10
2.120759650226756
 20
5.442581864643303
 30
0.0
 11
2.120759650226756
 21
5.391918805511686
 31
0.0
  0
LINE
  5
1F8
330
17
100
AcDbEntity
  8
IMAGE
100
AcDbLine
 10
1.991551127650063
 20
5.248168194333075
 30
0.0
 11
2.120759650226756
 21
5.442581864643303
 31
0.0
  0
LINE
  5
1F9
330
17
100
AcDbEntity
  8
IMAGE
100
AcDbLine
 10
1.983569702472402
 20
5.248168194333075
 30
0.0
 11
2.112778225049095
 21
5.442581864643303
 31
0.0
  0
LINE
  5
1FA
330
17
100
AcDbEntity
  8
IMAGE
100
AcDbLine
 10
2.074626897457373
 20
5.373168194333075
 30
0.0
 11
2.074626897457373
 21
5.248168194333075
 31
0.0
  0
ARC
  5
1FB
330
17
100
AcDbEntity
  8
IMAGE
100
AcDbCircle
 10
2.559525781196744
 20
5.061473926712123
 30
0.0
 40
0.0116942676209535
100
AcDbArc
 50
270.0
 51
90.0
  0
LINE
  5
1FC
330
17
100
AcDbEntity
  8
IMAGE
100
AcDbLine
 10
2.240975235787292
 20
5.435668194333075
 30
0.0
 11
2.225975235787292
 21
5.435668194333075
 31
0.0
  0
LINE
  5
1FD
330
17
100
AcDbEntity
  8
IMAGE
100
AcDbLine
 10
2.112778225049095
 20
5.442581864643303
 30
0.0
 11
2.124141083482876
 21
5.579519164137096
 31
0.0
  0
LINE
  5
1FE
330
17
100
AcDbEntity
  8
IMAGE
100
AcDbLine
 10
2.353902397270497
 20
5.445833900956557
 30
0.0
 11
2.353902397270497
 21
5.442987893464369
 31
0.0
  0
LINE
  5
1FF
330
17
100
AcDbEntity
  8
IMAGE
100
AcDbLine
 10
2.112778225049095
 20
5.442581864643303
 30
0.0
 11
2.120759650226756
 21
5.442581864643303
 31
0.0
  0
LINE
  5
200
330
17
100
AcDbEntity
  8
IMAGE
100
AcDbLine
 10
2.120759650226756
 20
5.391918805511686
 30
0.0
 11
2.074626897457373
 21
5.373168194333075
 31
0.0
  0
LINE
  5
201
330
17
100
AcDbEntity
  8
IMAGE
100
AcDbLine
 10
2.353902397270497
 20
5.442987893464369
 30
0.0
 11
2.345920972092836
 21
5.442987893464369
 31
0.0
  0
LINE
  5
202
330
17
100
AcDbEntity
  8
IMAGE
100
AcDbLine
 10
2.345920972092836
 20
5.442987893464369
 30
0.0
 11
2.345920972092837
 21
5.391918805511686
 31
0.0
  0
LINE
  5
203
330
17
100
AcDbEntity
  8
IMAGE
100
AcDbLine
 10
2.225975235787292
 20
5.391918805511686
 30
0.0
 11
2.120759650226756
 21
5.391918805511686
 31
0.0
  0
LINE
  5
204
330
17
100
AcDbEntity
  8
IMAGE
100
AcDbLine
 10
1.976549654130981
 20
5.248168194333075
 30
0.0
 11
1.976549654130981
 21
5.373168194333075
 31
0.0
  0
LINE
  5
205
330
17
100
AcDbEntity
  8
IMAGE
100
AcDbLine
 10
2.066645472279712
 20
5.373168194333075
 30
0.0
 11
1.976549654130981
 21
5.373168194333075
 31
0.0
  0
LINE
  5
206
330
17
100
AcDbEntity
  8
IMAGE
100
AcDbLine
 10
2.303475235787292
 20
5.605668194333077
 30
0.0
 11
2.163475235787292
 21
5.605668194333077
 31
0.0
  0
LINE
  5
207
330
17
100
AcDbEntity
  8
IMAGE
100
AcDbLine
 10
2.303475235787292
 20
5.605668194333077
 30
0.0
 11
2.303475235787292
 21
5.690668194333076
 31
0.0
  0
LINE
  5
208
330
17
100
AcDbEntity
  8
IMAGE
100
AcDbLine
 10
2.163475235787292
 20
5.605668194333077
 30
0.0
 11
2.163475235787292
 21
5.690668194333078
 31
0.0
  0
LINE
  5
209
330
17
100
AcDbEntity
  8
IMAGE
100
AcDbLine
 10
2.190784366828701
 20
5.585668194333077
 30
0.0
 11
2.190784366828701
 21
5.605668194333077
 31
0.0
  0
LINE
  5
20A
330
17
100
AcDbEntity
  8
IMAGE
100
AcDbLine
 10
2.276166104745884
 20
5.585668194333077
 30
0.0
 11
2.276166104745884
 21
5.605668194333077
 31
0.0
  0
LINE
  5
20B
330
17
100
AcDbEntity
  8
IMAGE
100
AcDbLine
 10
2.345975235787292
 20
5.690668194333076
 30
0.0
 11
2.120975235787292
 21
5.690668194333078
 31
0.0
  0
LINE
  5
20C
330
17
100
AcDbEntity
  8
IMAGE
100
AcDbLine
 10
2.239703986424179
 20
5.775668194333075
 30
0.0
 11
2.227246485150404
 21
5.775668194333077
 31
0.0
  0
LINE
  5
20D
330
17
100
AcDbEntity
  8
IMAGE
100
AcDbLine
 10
2.120975235787292
 20
5.690668194333078
 30
0.0
 11
2.120975235787292
 21
5.761896944969965
 31
0.0
  0
LINE
  5
20E
330
17
100
AcDbEntity
  8
IMAGE
100
AcDbLine
 10
2.345975235787292
 20
5.690668194333076
 30
0.0
 11
2.345975235787292
 21
5.761896944969965
 31
0.0
  0
LINE
  5
20F
330
17
100
AcDbEntity
  8
IMAGE
100
AcDbLine
 10
2.213475235787292
 20
5.690668194333076
 30
0.0
 11
2.213475235787292
 21
5.761896944969965
 31
0.0
  0
LINE
  5
210
330
17
100
AcDbEntity
  8
IMAGE
100
AcDbLine
 10
2.253475235787292
 20
5.690668194333076
 30
0.0
 11
2.253475235787292
 21
5.761896944969963
 31
0.0
  0
ARC
  5
211
330
17
100
AcDbEntity
  8
IMAGE
100
AcDbCircle
 10
2.227246485150404
 20
5.761896944969965
 30
0.0
 40
0.0137712493631127
100
AcDbArc
 50
90.0
 51
179.9999999999999
  0
ARC
  5
212
330
17
100
AcDbEntity
  8
IMAGE
100
AcDbCircle
 10
2.239703986424179
 20
5.761896944969963
 30
0.0
 40
0.0137712493631127
100
AcDbArc
 50
359.9999999999998
 51
90.0
  0
LINE
  5
213
330
17
100
AcDbEntity
  8
IMAGE
100
AcDbLine
 10
2.332203986424179
 20
5.775668194333077
 30
0.0
 11
2.239703986424179
 21
5.775668194333075
 31
0.0
  0
LINE
  5
214
330
17
100
AcDbEntity
  8
IMAGE
100
AcDbLine
 10
2.227246485150404
 20
5.775668194333077
 30
0.0
 11
2.134746485150405
 21
5.775668194333077
 31
0.0
  0
ARC
  5
215
330
17
100
AcDbEntity
  8
IMAGE
100
AcDbCircle
 10
2.332203986424179
 20
5.761896944969965
 30
0.0
 40
0.0137712493631127
100
AcDbArc
 50
0.0
 51
90.00000000000019
  0
ARC
  5
216
330
17
100
AcDbEntity
  8
IMAGE
100
AcDbCircle
 10
2.134746485150405
 20
5.761896944969965
 30
0.0
 40
0.0137712493631127
100
AcDbArc
 50
90.0
 51
179.9999999999999
  0
LINE
  5
217
330
17
100
AcDbEntity
  8
IMAGE
100
AcDbLine
 10
2.171286796036979
 20
5.775668194333077
 30
0.0
 11
2.171286796036979
 21
5.690668194333078
 31
0.0
  0
LINE
  5
218
330
17
100
AcDbEntity
  8
IMAGE
100
AcDbLine
 10
2.295663675537606
 20
5.775668194333077
 30
0.0
 11
2.295663675537606
 21
5.690668194333078
 31
0.0
  0
LINE
  5
219
330
17
100
AcDbEntity
  8
IMAGE
100
AcDbLine
 10
1.73180129090519
 20
5.371902293754661
 30
0.0
 11
1.73180129090519
 21
5.583131044391549
 31
0.0
  0
LINE
  5
21A
330
17
100
AcDbEntity
  8
IMAGE
100
AcDbLine
 10
1.745572540268303
 20
5.358131044391548
 30
0.0
 11
1.831801290905191
 21
5.358131044391548
 31
0.0
  0
ARC
  5
21B
330
17
100
AcDbEntity
  8
IMAGE
100
AcDbCircle
 10
1.745572540268303
 20
5.371902293754661
 30
0.0
 40
0.0137712493631127
100
AcDbArc
 50
180.0
 51
270.0
  0
LINE
  5
21C
330
17
100
AcDbEntity
  8
IMAGE
100
AcDbLine
 10
1.831801290905191
 20
5.358131044391548
 30
0.0
 11
1.904301290905191
 21
5.198168194333076
 31
0.0
  0
LWPOLYLINE
  5
21D
330
17
100
AcDbEntity
  8
IMAGE
100
AcDbPolyline
 90
        2
 70
     0
 43
0.0
 10
1.884768345555814
 20
5.095882881091167
 42
-0.3329779262335732
 10
1.905975235787292
 20
5.099383493723765
 42
1.104628519881956
  0
LINE
  5
221
330
17
100
AcDbEntity
  8
IMAGE
100
AcDbLine
 10
1.884768345555814
 20
5.095882881091167
 30
0.0
 11
1.905975235787292
 21
5.095882881091167
 31
0.0
  0
ARC
  5
222
330
17
100
AcDbEntity
  8
IMAGE
100
AcDbCircle
 10
1.856833139945432
 20
5.061473926712123
 30
0.0
 40
0.0116942676209537
100
AcDbArc
 50
90.0
 51
270.0
  0
LINE
  5
223
330
17
100
AcDbEntity
  8
IMAGE
100
AcDbLine
 10
1.73180129090519
 20
5.583131044391549
 30
0.0
 11
2.04430129090519
 21
5.583131044391549
 31
0.0
  0
LINE
  5
224
330
17
100
AcDbEntity
  8
IMAGE
100
AcDbLine
 10
2.04430129090519
 20
5.373168194333075
 30
0.0
 11
2.04430129090519
 21
5.583131044391549
 31
0.0
  0
LINE
  5
225
330
17
100
AcDbEntity
  8
IMAGE
100
AcDbLine
 10
2.078286565840535
 20
5.390683971779111
 30
0.0
 11
2.04430129090519
 21
5.390683971779111
 31
0.0
  0
LINE
  5
226
330
17
100
AcDbEntity
  8
IMAGE
100
AcDbLine
 10
1.70055129090519
 20
5.598603239705189
 30
0.0
 11
1.70055129090519
 21
6.00833229439949
 31
0.0
  0
LINE
  5
227
330
17
100
AcDbEntity
  8
IMAGE
100
AcDbLine
 10
2.07555129090519
 20
5.598603239705189
 30
0.0
 11
2.07555129090519
 21
6.00833229439949
 31
0.0
  0
LINE
  5
228
330
17
100
AcDbEntity
  8
IMAGE
100
AcDbLine
 10
2.07555129090519
 20
5.598603239705189
 30
0.0
 11
1.70055129090519
 21
5.598603239705189
 31
0.0
  0
LINE
  5
229
330
17
100
AcDbEntity
  8
IMAGE
100
AcDbLine
 10
1.758886162487461
 20
5.583131044391549
 30
0.0
 11
1.758886162487461
 21
5.598603239705189
 31
0.0
  0
LINE
  5
22A
330
17
100
AcDbEntity
  8
IMAGE
100
AcDbLine
 10
2.01721641932292
 20
5.583131044391549
 30
0.0
 11
2.01721641932292
 21
5.598603239705189
 31
0.0
  0
LINE
  5
22B
330
17
100
AcDbEntity
  8
IMAGE
100
AcDbLine
 10
1.964451206424693
 20
5.732662565520321
 30
0.0
 11
1.964451206424693
 21
5.757662565520323
 31
0.0
  0
LINE
  5
22C
330
17
100
AcDbEntity
  8
IMAGE
100
AcDbLine
 10
1.816349541251418
 20
5.93072907495951
 30
0.0
 11
1.896349541251418
 21
5.93072907495951
 31
0.0
  0
LINE
  5
22D
330
17
100
AcDbEntity
  8
IMAGE
100
AcDbLine
 10
1.896349541251418
 20
5.93072907495951
 30
0.0
 11
1.896349541251418
 21
5.965802732611543
 31
0.0
  0
LINE
  5
22E
330
17
100
AcDbEntity
  8
IMAGE
100
AcDbLine
 10
1.896349541251418
 20
5.965802732611543
 30
0.0
 11
1.97654965591382
 21
5.905729074959509
 31
0.0
  0
LINE
  5
22F
330
17
100
AcDbEntity
  8
IMAGE
100
AcDbLine
 10
1.896349541251418
 20
5.845655417307476
 30
0.0
 11
1.97654965591382
 21
5.905729074959509
 31
0.0
  0
LINE
  5
230
330
17
100
AcDbEntity
  8
IMAGE
100
AcDbLine
 10
1.896349541251418
 20
5.880729074959509
 30
0.0
 11
1.896349541251418
 21
5.845655417307476
 31
0.0
  0
LINE
  5
231
330
17
100
AcDbEntity
  8
IMAGE
100
AcDbLine
 10
1.816349541251418
 20
5.880729074959509
 30
0.0
 11
1.896349541251418
 21
5.880729074959509
 31
0.0
  0
LINE
  5
232
330
17
100
AcDbEntity
  8
IMAGE
100
AcDbLine
 10
1.964451206424693
 20
5.732662565520321
 30
0.0
 11
1.964451206424693
 21
5.707662565520323
 31
0.0
  0
LINE
  5
233
330
17
100
AcDbEntity
  8
IMAGE
100
AcDbLine
 10
1.996164253767427
 20
5.598603239705189
 30
0.0
 11
1.996164253767427
 21
6.00833229439949
 31
0.0
  0
LINE
  5
234
330
17
100
AcDbEntity
  8
IMAGE
100
AcDbLine
 10
1.779938328042954
 20
5.598603239705189
 30
0.0
 11
1.779938328042954
 21
6.00833229439949
 31
0.0
  0
LINE
  5
235
330
17
100
AcDbEntity
  8
IMAGE
100
AcDbLine
 10
1.815515172876442
 20
5.905729074959509
 30
0.0
 11
1.815515172876442
 21
5.880729074959509
 31
0.0
  0
LINE
  5
236
330
17
100
AcDbEntity
  8
IMAGE
100
AcDbLine
 10
1.963616838049718
 20
5.707662565520323
 30
0.0
 11
1.883616838049718
 21
5.707662565520323
 31
0.0
  0
LINE
  5
237
330
17
100
AcDbEntity
  8
IMAGE
100
AcDbLine
 10
1.883616838049718
 20
5.707662565520323
 30
0.0
 11
1.883616838049718
 21
5.672588907868288
 31
0.0
  0
LINE
  5
238
330
17
100
AcDbEntity
  8
IMAGE
100
AcDbLine
 10
1.883616838049718
 20
5.672588907868288
 30
0.0
 11
1.803416723387315
 21
5.732662565520321
 31
0.0
  0
LINE
  5
239
330
17
100
AcDbEntity
  8
IMAGE
100
AcDbLine
 10
1.883616838049718
 20
5.792736223172356
 30
0.0
 11
1.803416723387315
 21
5.732662565520321
 31
0.0
  0
LINE
  5
23A
330
17
100
AcDbEntity
  8
IMAGE
100
AcDbLine
 10
1.883616838049718
 20
5.757662565520323
 30
0.0
 11
1.883616838049718
 21
5.792736223172356
 31
0.0
  0
LINE
  5
23B
330
17
100
AcDbEntity
  8
IMAGE
100
AcDbLine
 10
1.963616838049718
 20
5.757662565520323
 30
0.0
 11
1.883616838049718
 21
5.757662565520323
 31
0.0
  0
LINE
  5
23C
330
17
100
AcDbEntity
  8
IMAGE
100
AcDbLine
 10
1.815515172876442
 20
5.905729074959509
 30
0.0
 11
1.815515172876442
 21
5.93072907495951
 31
0.0
  0
LINE
  5
23D
330
17
100
AcDbEntity
  8
IMAGE
100
AcDbLine
 10
2.354172246525489
 20
5.442581864643303
 30
0.0
 11
2.342809388091708
 21
5.579519164137096
 31
0.0
  0
ARC
  5
23E
330
17
100
AcDbEntity
  8
IMAGE
100
AcDbCircle
 10
2.13082148435591
 20
5.578964834165045
 30
0.0
 40
0.006703360168031
100
AcDbArc
 50
90.00000000000005
 51
175.2565463480714
  0
ARC
  5
23F
330
17
100
AcDbEntity
  8
IMAGE
100
AcDbCircle
 10
2.336128987218674
 20
5.578964834165045
 30
0.0
 40
0.006703360168031
100
AcDbArc
 50
4.743453651928521
 51
90.0
  0
LINE
  5
240
330
17
100
AcDbEntity
  8
IMAGE
100
AcDbLine
 10
2.303475235787292
 20
5.667210879862686
 30
0.0
 11
2.412724667484709
 21
5.667210879862686
 31
0.0
  0
LINE
  5
241
330
17
100
AcDbEntity
  8
IMAGE
100
AcDbLine
 10
2.422058512554024
 20
5.65787703479337
 30
0.0
 11
2.422058512554024
 21
5.626544724932001
 31
0.0
  0
LINE
  5
242
330
17
100
AcDbEntity
  8
IMAGE
100
AcDbLine
 10
2.412724667484708
 20
5.617210879862685
 30
0.0
 11
2.303475235787292
 21
5.617210879862685
 31
0.0
  0
LINE
  5
243
330
17
100
AcDbEntity
  8
IMAGE
100
AcDbLine
 10
2.388683489416384
 20
5.517210879862686
 30
0.0
 11
2.347979639119581
 21
5.517210879862686
 31
0.0
  0
LINE
  5
244
330
17
100
AcDbEntity
  8
IMAGE
100
AcDbLine
 10
2.388683489416384
 20
5.617210879862685
 30
0.0
 11
2.388683489416384
 21
5.517210879862686
 31
0.0
  0
LINE
  5
245
330
17
100
AcDbEntity
  8
IMAGE
100
AcDbLine
 10
2.313683489416385
 20
5.617210879862685
 30
0.0
 11
2.313683489416385
 21
5.585668194333077
 31
0.0
  0
LINE
  5
246
330
17
100
AcDbEntity
  8
IMAGE
100
AcDbLine
 10
2.374196676999348
 20
5.617210879862685
 30
0.0
 11
2.374196676999348
 21
5.517210879862686
 31
0.0
  0
LINE
  5
247
330
17
100
AcDbEntity
  8
IMAGE
100
AcDbLine
 10
2.359709864582313
 20
5.617210879862685
 30
0.0
 11
2.359709864582313
 21
5.517210879862686
 31
0.0
  0
LINE
  5
248
330
17
100
AcDbEntity
  8
IMAGE
100
AcDbLine
 10
2.345223052165277
 20
5.617210879862685
 30
0.0
 11
2.345223052165277
 21
5.550431356518451
 31
0.0
  0
LINE
  5
249
330
17
100
AcDbEntity
  8
IMAGE
100
AcDbLine
 10
2.330736239748241
 20
5.617210879862685
 30
0.0
 11
2.330736239748241
 21
5.585668194333077
 31
0.0
  0
LINE
  5
24A
330
17
100
AcDbEntity
  8
IMAGE
100
AcDbLine
 10
2.368583649845021
 20
5.517210879862686
 30
0.0
 11
2.368583649845021
 21
5.500009976910133
 31
0.0
  0
LINE
  5
24B
330
17
100
AcDbEntity
  8
IMAGE
100
AcDbLine
 10
2.34940694509031
 20
5.500009976910133
 30
0.0
 11
2.396581701871071
 21
5.500009976910133
 31
0.0
  0
LINE
  5
24C
330
17
100
AcDbEntity
  8
IMAGE
100
AcDbLine
 10
2.403285062039101
 20
5.493306616742103
 30
0.0
 11
2.403285062039101
 21
5.391918805511686
 31
0.0
  0
ARC
  5
24D
330
17
100
AcDbEntity
  8
IMAGE
100
AcDbCircle
 10
2.396581701871071
 20
5.493306616742103
 30
0.0
 40
0.006703360168031
100
AcDbArc
 50
359.9999999999997
 51
89.99999999999976
  0
ARC
  5
24E
330
17
100
AcDbEntity
  8
IMAGE
100
AcDbCircle
 10
2.412724667484709
 20
5.65787703479337
 30
0.0
 40
0.0093338450693155
100
AcDbArc
 50
0.0
 51
89.99999999999991
  0
ARC
  5
24F
330
17
100
AcDbEntity
  8
IMAGE
100
AcDbCircle
 10
2.412724667484708
 20
5.626544724932001
 30
0.0
 40
0.0093338450693155
100
AcDbArc
 50
270.0
 51
0.0
  0
LINE
  5
250
330
17
100
AcDbEntity
  8
IMAGE
100
AcDbLine
 10
2.366689050742006
 20
5.667210879862686
 30
0.0
 11
2.366689050742006
 21
5.617210879862685
 31
0.0
  0
LINE
  5
251
330
17
100
AcDbEntity
  8
IMAGE
100
AcDbLine
 10
2.346128585469433
 20
5.667210879862686
 30
0.0
 11
2.346128585469433
 21
5.617210879862685
 31
0.0
  0
ARC
  5
252
330
17
100
AcDbEntity
  8
IMAGE
100
AcDbCircle
 10
2.089317795429005
 20
5.165733138326933
 30
0.0
 40
0.0976976527690705
100
AcDbArc
 50
251.3452760987996
 51
288.6547239012004
  0
LINE
  5
253
330
17
100
AcDbEntity
  8
IMAGE
100
AcDbLine
 10
2.559235222320445
 20
4.799779659091168
 30
0.0
 11
1.905975235787292
 21
4.799779659091168
 31
0.0
  0
LWPOLYLINE
  5
254
330
17
100
AcDbEntity
  8
IMAGE
100
AcDbPolyline
 90
        3
 70
     0
 43
0.0
 10
1.805599392095609
 20
5.358131044391548
 42
-0.1555174394977392
 10
1.82924722944045
 20
5.312222358080834
 10
1.861653516564143
 20
5.073168194333076
  0
LINE
  5
259
330
17
100
AcDbEntity
  8
IMAGE
100
AcDbLine
 10
1.884768345555814
 20
5.095882881091167
 30
0.0
 11
1.884768345555814
 21
5.073168194333076
 31
0.0
  0
ARC
  5
25A
330
17
100
AcDbEntity
  8
IMAGE
100
AcDbCircle
 10
1.897570977648839
 20
4.989340274623708
 30
0.0
 40
0.017849781496614
100
AcDbArc
 50
224.1726701658515
 51
298.088352734054
  0
LINE
  5
25B
330
17
100
AcDbEntity
  8
IMAGE
100
AcDbLine
 10
1.884768345555814
 20
5.049779659091168
 30
0.0
 11
1.884768345555814
 21
4.976902135254514
 31
0.0
  0
LINE
  5
25C
330
17
100
AcDbEntity
  8
IMAGE
100
AcDbLine
 10
1.861653516564143
 20
5.049779659091168
 30
0.0
 11
1.861653516564143
 21
4.996163355235783
 31
0.0
  0
LWPOLYLINE
  5
25D
330
17
100
AcDbEntity
  8
IMAGE
100
AcDbPolyline
 90
        2
 70
     0
 43
0.0
 10
1.861653516564143
 20
4.996163355235783
 42
0.1678731187657776
 10
1.884768345555814
 20
4.990126337824058
 42
0.728036374606989
  0
LINE
  5
261
330
17
100
AcDbEntity
  8
IMAGE
100
AcDbLine
 10
2.024586568998177
 20
5.073168194333076
 30
0.0
 11
2.024586568998177
 21
5.049779659091168
 31
0.0
  0
LINE
  5
262
330
17
100
AcDbEntity
  8
IMAGE
100
AcDbLine
 10
2.167363902576408
 20
5.073168194333076
 30
0.0
 11
2.167363902576407
 21
5.04977965909117
 31
0.0
  0
LINE
  5
263
330
17
100
AcDbEntity
  8
IMAGE
100
AcDbLine
 10
2.299586568998176
 20
5.073168194333076
 30
0.0
 11
2.299586568998176
 21
5.049779659091168
 31
0.0
  0
LINE
  5
264
330
17
100
AcDbEntity
  8
IMAGE
100
AcDbLine
 10
2.440623889109561
 20
5.073168194333076
 30
0.0
 11
2.440623889109561
 21
5.049779659091168
 31
0.0
  0
LINE
  5
265
330
17
100
AcDbEntity
  8
IMAGE
100
AcDbLine
 10
1.892726772189577
 20
5.073168194333076
 30
0.0
 11
1.892726772189577
 21
5.049779659091168
 31
0.0
  0
LWPOLYLINE
  5
279
330
17
100
AcDbEntity
  8
IMAGE
100
AcDbPolyline
 90
       97
 70
     0
 43
0.0
 10
0.702111046413275
 20
6.20594967400269
 10
0.7103021445131695
 20
6.211639623108629
 10
0.7178339391234086
 20
6.217653310434927
 10
0.7246898701298164
 20
6.223907499838523
 10
0.7308533774182116
 20
6.230318955176352
 10
0.7363079008744165
 20
6.236804440305347
 10
0.7410368803842498
 20
6.243280719082443
 10
0.7450237558335338
 20
6.249664555364576
 10
0.7482519671080908
 20
6.255872713008683
 10
0.750726579190141
 20
6.261844736206642
 10
0.7525391574475023
 20
6.267611290490128
 10
0.7538028923443956
 20
6.273225821725754
 10
0.7546309743450386
 20
6.278741775780142
 10
0.7551365939136523
 20
6.284212598519905
 10
0.7554329415144543
 20
6.289691735811663
 10
0.7556332076116639
 20
6.295232633522038
 10
0.7558505826695004
 20
6.30088873751764
 10
0.756179548792344
 20
6.306711236906776
 10
0.7566397546452115
 20
6.312742293764488
 10
0.7572321405332754
 20
6.3190218134075
 10
0.7579576467617151
 20
6.325589701152535
 10
0.7588172136357048
 20
6.332485862316316
 10
0.7598117814604222
 20
6.339750202215574
 10
0.7609422905410415
 20
6.347422626167025
 10
0.7622096811827404
 20
6.355543039487406
 10
0.7636208290387248
 20
6.364118911859561
 10
0.7652063511543239
 20
6.373027970430859
 10
0.7670027999228935
 20
6.382115506714798
 10
0.7690467277377962
 20
6.391226812224866
 10
0.7713746869923912
 20
6.400207178474561
 10
0.7740232300800343
 20
6.408901896977374
 10
0.7770289093940881
 20
6.417156259246807
 10
0.7804282773279084
 20
6.424815556796348
 10
0.7842494786640173
 20
6.431763676000942
 10
0.7884870277415686
 20
6.438038882681317
 10
0.793127031288877
 20
6.443718037519643
 10
0.7981555960342593
 20
6.448878001198101
 10
0.8035588287060338
 20
6.45359563439886
 10
0.809322836032512
 20
6.457947797804097
 10
0.8154337247420123
 20
6.462011352095986
 10
0.8218776015628513
 20
6.465863157956706
 10
0.82862797798462
 20
6.469567024637173
 10
0.8356079845420346
 20
6.473134555663287
 10
0.8427281565310821
 20
6.476564303129693
 10
0.8498990292477582
 20
6.479854819131036
 10
0.85703113798805
 20
6.483004655761968
 10
0.8640350180479515
 20
6.486012365117124
 10
0.8708212047234496
 20
6.488876499291157
 10
0.877300233310542
 20
6.491595610378714
 10
0.8834156820267772
 20
6.49416549145936
 10
0.8892433007759695
 20
6.49657089955239
 10
0.8948918823834898
 20
6.498793832662018
 10
0.9004702196747139
 20
6.500816288792458
 10
0.9060871054750144
 20
6.502620265947923
 10
0.9118513326097637
 20
6.504187762132636
 10
0.9178716939043397
 20
6.505500775350808
 10
0.9242569821841112
 20
6.506541303606658
 10
0.9310897890214363
 20
6.507296210174589
 10
0.9383479009765999
 20
6.507771819409777
 10
0.9459829033568688
 20
6.507979320937595
 10
0.9539463814695047
 20
6.5079299043834
 10
0.9621899206217797
 20
6.507634759372569
 10
0.9706651061209537
 20
6.507105075530466
 10
0.9793235232742972
 20
6.506352042482456
 10
0.9881167573890753
 20
6.505386849853911
 10
0.9969926654574813
 20
6.504221604255858
 10
1.005884191211426
 20
6.502872080241997
 10
1.014720550067742
 20
6.501354969351689
 10
1.02343095744327
 20
6.499686963124299
 10
1.031944628754844
 20
6.497884753099191
 10
1.040190779419302
 20
6.495965030815719
 10
1.048098624853478
 20
6.493944487813257
 10
1.055597380474212
 20
6.491839815631157
 10
1.062634048335323
 20
6.48965576806391
 10
1.069226777038582
 20
6.48734934792648
 10
1.075411501822747
 20
6.484865620288948
 10
1.081224157926571
 20
6.482149650221399
 10
1.086700680588811
 20
6.479146502793925
 10
1.091877005048222
 20
6.475801243076608
 10
1.096789066543562
 20
6.472058936139527
 10
1.101472800313586
 20
6.467864647052779
 10
1.10595884342175
 20
6.463180239854738
 10
1.110256640230326
 20
6.458034774456956
 10
1.114370336926279
 20
6.452474109739286
 10
1.118304079696583
 20
6.446544104581585
 10
1.122062014728207
 20
6.4402906178637
 10
1.125648288208123
 20
6.433759508465483
 10
1.129067046323297
 20
6.426996635266783
 10
1.132322435260703
 20
6.420047857147453
 10
1.135410665838632
 20
6.412920770972933
 10
1.138296207400663
 20
6.405469925550997
 10
1.140935593921696
 20
6.397511607675022
 10
1.143285359376631
 20
6.388862104138373
 10
1.145302037740373
 20
6.379337701734419
 10
1.146942162987815
 20
6.368754687256528
 10
1.148162269093864
 20
6.356929347498065
 10
1.148885088011078
 20
6.344269974257956
  0
POLYLINE
  5
2DC
330
17
100
AcDbEntity
  8
IMAGE
100
AcDb2dPolyline
 66
     1
 10
0.0
 20
0.0
 30
0.0
 70
     4
 75
     6
  0
VERTEX
  5
2DD
330
2DC
100
AcDbEntity
  8
IMAGE
100
AcDbVertex
100
AcDb2dVertex
 10
0.6932781223371172
 20
6.21962418358103
 30
0.0
 70
    16
  0
VERTEX
  5
2DE
330
2DC
100
AcDbEntity
  8
IMAGE
100
AcDbVertex
100
AcDb2dVertex
 10
0.6932781223371172
 20
6.21962418358103
 30
0.0
 70
     8
  0
VERTEX
  5
2DF
330
2DC
100
AcDbEntity
  8
IMAGE
100
AcDbVertex
100
AcDb2dVertex
 10
0.7006575175496983
 20
6.22471926533632
 30
0.0
 70
     8
  0
VERTEX
  5
2E0
330
2DC
100
AcDbEntity
  8
IMAGE
100
AcDbVertex
100
AcDb2dVertex
 10
0.7073330652648067
 20
6.229979910356453
 30
0.0
 70
     8
  0
VERTEX
  5
2E1
330
2DC
100
AcDbEntity
  8
IMAGE
100
AcDbVertex
100
AcDb2dVertex
 10
0.7133141065150564
 20
6.23535717580353
 30
0.0
 70
     8
  0
VERTEX
  5
2E2
330
2DC
100
AcDbEntity
  8
IMAGE
100
AcDbVertex
100
AcDb2dVertex
 10
0.7186099823330543
 20
6.240802118839658
 30
0.0
 70
     8
  0
VERTEX
  5
2E3
330
2DC
100
AcDbEntity
  8
IMAGE
100
AcDbVertex
100
AcDb2dVertex
 10
0.7232300337514075
 20
6.246265796626934
 30
0.0
 70
     8
  0
VERTEX
  5
2E4
330
2DC
100
AcDbEntity
  8
IMAGE
100
AcDbVertex
100
AcDb2dVertex
 10
0.7271836018027283
 20
6.251699266327468
 30
0.0
 70
     8
  0
VERTEX
  5
2E5
330
2DC
100
AcDbEntity
  8
IMAGE
100
AcDbVertex
100
AcDb2dVertex
 10
0.7304800275196235
 20
6.257053585103351
 30
0.0
 70
     8
  0
VERTEX
  5
2E6
330
2DC
100
AcDbEntity
  8
IMAGE
100
AcDbVertex
100
AcDb2dVertex
 10
0.7331286519347038
 20
6.2622798101167
 30
0.0
 70
     8
  0
VERTEX
  5
2E7
330
2DC
100
AcDbEntity
  8
IMAGE
100
AcDbVertex
100
AcDb2dVertex
 10
0.7351532678326307
 20
6.267346581229
 30
0.0
 70
     8
  0
VERTEX
  5
2E8
330
2DC
100
AcDbEntity
  8
IMAGE
100
AcDbVertex
100
AcDb2dVertex
 10
0.7366354750062754
 20
6.272292869099336
 30
0.0
 70
     8
  0
VERTEX
  5
2E9
330
2DC
100
AcDbEntity
  8
IMAGE
100
AcDbVertex
100
AcDb2dVertex
 10
0.7376713250005636
 20
6.277175227086177
 30
0.0
 70
     8
  0
VERTEX
  5
2EA
330
2DC
100
AcDbEntity
  8
IMAGE
100
AcDbVertex
100
AcDb2dVertex
 10
0.7383568693604193
 20
6.282050208548001
 30
0.0
 70
     8
  0
VERTEX
  5
2EB
330
2DC
100
AcDbEntity
  8
IMAGE
100
AcDbVertex
100
AcDb2dVertex
 10
0.7387881596307664
 20
6.28697436684328
 30
0.0
 70
     8
  0
VERTEX
  5
2EC
330
2DC
100
AcDbEntity
  8
IMAGE
100
AcDbVertex
100
AcDb2dVertex
 10
0.7390612473565344
 20
6.292004255330487
 30
0.0
 70
     8
  0
VERTEX
  5
2ED
330
2DC
100
AcDbEntity
  8
IMAGE
100
AcDbVertex
100
AcDb2dVertex
 10
0.7392721840826453
 20
6.297196427368101
 30
0.0
 70
     8
  0
VERTEX
  5
2EE
330
2DC
100
AcDbEntity
  8
IMAGE
100
AcDbVertex
100
AcDb2dVertex
 10
0.7395170213540215
 20
6.302607436314586
 30
0.0
 70
     8
  0
VERTEX
  5
2EF
330
2DC
100
AcDbEntity
  8
IMAGE
100
AcDbVertex
100
AcDb2dVertex
 10
0.739876272965677
 20
6.308290311188693
 30
0.0
 70
     8
  0
VERTEX
  5
2F0
330
2DC
100
AcDbEntity
  8
IMAGE
100
AcDbVertex
100
AcDb2dVertex
 10
0.7403683017129637
 20
6.31428398365024
 30
0.0
 70
     8
  0
VERTEX
  5
2F1
330
2DC
100
AcDbEntity
  8
IMAGE
100
AcDbVertex
100
AcDb2dVertex
 10
0.7409959326413201
 20
6.320623861019312
 30
0.0
 70
     8
  0
VERTEX
  5
2F2
330
2DC
100
AcDbEntity
  8
IMAGE
100
AcDbVertex
100
AcDb2dVertex
 10
0.7417619907961864
 20
6.327345350615997
 30
0.0
 70
     8
  0
VERTEX
  5
2F3
330
2DC
100
AcDbEntity
  8
IMAGE
100
AcDbVertex
100
AcDb2dVertex
 10
0.742669301223001
 20
6.334483859760384
 30
0.0
 70
     8
  0
VERTEX
  5
2F4
330
2DC
100
AcDbEntity
  8
IMAGE
100
AcDbVertex
100
AcDb2dVertex
 10
0.7437206889672044
 20
6.342074795772562
 30
0.0
 70
     8
  0
VERTEX
  5
2F5
330
2DC
100
AcDbEntity
  8
IMAGE
100
AcDbVertex
100
AcDb2dVertex
 10
0.744918979074233
 20
6.350153565972616
 30
0.0
 70
     8
  0
VERTEX
  5
2F6
330
2DC
100
AcDbEntity
  8
IMAGE
100
AcDbVertex
100
AcDb2dVertex
 10
0.7462669965895255
 20
6.358755577680637
 30
0.0
 70
     8
  0
VERTEX
  5
2F7
330
2DC
100
AcDbEntity
  8
IMAGE
100
AcDbVertex
100
AcDb2dVertex
 10
0.7477746291721217
 20
6.367882716008571
 30
0.0
 70
     8
  0
VERTEX
  5
2F8
330
2DC
100
AcDbEntity
  8
IMAGE
100
AcDbVertex
100
AcDb2dVertex
 10
0.7494800149354446
 20
6.377402777235817
 30
0.0
 70
     8
  0
VERTEX
  5
2F9
330
2DC
100
AcDbEntity
  8
IMAGE
100
AcDbVertex
100
AcDb2dVertex
 10
0.7514283546065186
 20
6.387150035433625
 30
0.0
 70
     8
  0
VERTEX
  5
2FA
330
2DC
100
AcDbEntity
  8
IMAGE
100
AcDbVertex
100
AcDb2dVertex
 10
0.7536648489123681
 20
6.396958764673252
 30
0.0
 70
     8
  0
VERTEX
  5
2FB
330
2DC
100
AcDbEntity
  8
IMAGE
100
AcDbVertex
100
AcDb2dVertex
 10
0.7562346985800139
 20
6.406663239025954
 30
0.0
 70
     8
  0
VERTEX
  5
2FC
330
2DC
100
AcDbEntity
  8
IMAGE
100
AcDbVertex
100
AcDb2dVertex
 10
0.7591831043364823
 20
6.416097732562986
 30
0.0
 70
     8
  0
VERTEX
  5
2FD
330
2DC
100
AcDbEntity
  8
IMAGE
100
AcDbVertex
100
AcDb2dVertex
 10
0.7625552669087959
 20
6.425096519355603
 30
0.0
 70
     8
  0
VERTEX
  5
2FE
330
2DC
100
AcDbEntity
  8
IMAGE
100
AcDbVertex
100
AcDb2dVertex
 10
0.766396387023979
 20
6.433493873475063
 30
0.0
 70
     8
  0
VERTEX
  5
2FF
330
2DC
100
AcDbEntity
  8
IMAGE
100
AcDbVertex
100
AcDb2dVertex
 10
0.7707385995738974
 20
6.441163410459383
 30
0.0
 70
     8
  0
VERTEX
  5
300
330
2DC
100
AcDbEntity
  8
IMAGE
100
AcDbVertex
100
AcDb2dVertex
 10
0.7755617761097997
 20
6.448136111713631
 30
0.0
 70
     8
  0
VERTEX
  5
301
330
2DC
100
AcDbEntity
  8
IMAGE
100
AcDbVertex
100
AcDb2dVertex
 10
0.7808327223477796
 20
6.454482300109665
 30
0.0
 70
     8
  0
VERTEX
  5
302
330
2DC
100
AcDbEntity
  8
IMAGE
100
AcDbVertex
100
AcDb2dVertex
 10
0.7865182440039269
 20
6.460272298519319
 30
0.0
 70
     8
  0
VERTEX
  5
303
330
2DC
100
AcDbEntity
  8
IMAGE
100
AcDbVertex
100
AcDb2dVertex
 10
0.7925851467943353
 20
6.465576429814428
 30
0.0
 70
     8
  0
VERTEX
  5
304
330
2DC
100
AcDbEntity
  8
IMAGE
100
AcDbVertex
100
AcDb2dVertex
 10
0.7990002364350964
 20
6.470465016866841
 30
0.0
 70
     8
  0
VERTEX
  5
305
330
2DC
100
AcDbEntity
  8
IMAGE
100
AcDbVertex
100
AcDb2dVertex
 10
0.805730318642302
 20
6.475008382548397
 30
0.0
 70
     8
  0
VERTEX
  5
306
330
2DC
100
AcDbEntity
  8
IMAGE
100
AcDbVertex
100
AcDb2dVertex
 10
0.8127421991320439
 20
6.479276849730938
 30
0.0
 70
     8
  0
VERTEX
  5
307
330
2DC
100
AcDbEntity
  8
IMAGE
100
AcDbVertex
100
AcDb2dVertex
 10
0.8199951501659118
 20
6.483330414151277
 30
0.0
 70
     8
  0
VERTEX
  5
308
330
2DC
100
AcDbEntity
  8
IMAGE
100
AcDbVertex
100
AcDb2dVertex
 10
0.8274183101874768
 20
6.487187763006131
 30
0.0
 70
     8
  0
VERTEX
  5
309
330
2DC
100
AcDbEntity
  8
IMAGE
100
AcDbVertex
100
AcDb2dVertex
 10
0.83493328418581
 20
6.490857256357186
 30
0.0
 70
     8
  0
VERTEX
  5
30A
330
2DC
100
AcDbEntity
  8
IMAGE
100
AcDbVertex
100
AcDb2dVertex
 10
0.8424616771499767
 20
6.494347254266129
 30
0.0
 70
     8
  0
VERTEX
  5
30B
330
2DC
100
AcDbEntity
  8
IMAGE
100
AcDbVertex
100
AcDb2dVertex
 10
0.849925094069048
 20
6.497666116794642
 30
0.0
 70
     8
  0
VERTEX
  5
30C
330
2DC
100
AcDbEntity
  8
IMAGE
100
AcDbVertex
100
AcDb2dVertex
 10
0.8572451399320893
 20
6.500822204004423
 30
0.0
 70
     8
  0
VERTEX
  5
30D
330
2DC
100
AcDbEntity
  8
IMAGE
100
AcDbVertex
100
AcDb2dVertex
 10
0.8643434197281735
 20
6.50382387595715
 30
0.0
 70
     8
  0
VERTEX
  5
30E
330
2DC
100
AcDbEntity
  8
IMAGE
100
AcDbVertex
100
AcDb2dVertex
 10
0.8711415384463677
 20
6.506679492714519
 30
0.0
 70
     8
  0
VERTEX
  5
30F
330
2DC
100
AcDbEntity
  8
IMAGE
100
AcDbVertex
100
AcDb2dVertex
 10
0.8775925297062499
 20
6.509392332732089
 30
0.0
 70
     8
  0
VERTEX
  5
310
330
2DC
100
AcDbEntity
  8
IMAGE
100
AcDbVertex
100
AcDb2dVertex
 10
0.8837751416494278
 20
6.511945348040923
 30
0.0
 70
     8
  0
VERTEX
  5
311
330
2DC
100
AcDbEntity
  8
IMAGE
100
AcDbVertex
100
AcDb2dVertex
 10
0.8897995510480246
 20
6.514316409065978
 30
0.0
 70
     8
  0
VERTEX
  5
312
330
2DC
100
AcDbEntity
  8
IMAGE
100
AcDbVertex
100
AcDb2dVertex
 10
0.8957759346741603
 20
6.51648338623219
 30
0.0
 70
     8
  0
VERTEX
  5
313
330
2DC
100
AcDbEntity
  8
IMAGE
100
AcDbVertex
100
AcDb2dVertex
 10
0.9018144692999513
 20
6.518424149964507
 30
0.0
 70
     8
  0
VERTEX
  5
314
330
2DC
100
AcDbEntity
  8
IMAGE
100
AcDbVertex
100
AcDb2dVertex
 10
0.9080253316975209
 20
6.520116570687873
 30
0.0
 70
     8
  0
VERTEX
  5
315
330
2DC
100
AcDbEntity
  8
IMAGE
100
AcDbVertex
100
AcDb2dVertex
 10
0.9145186986389855
 20
6.521538518827236
 30
0.0
 70
     8
  0
VERTEX
  5
316
330
2DC
100
AcDbEntity
  8
IMAGE
100
AcDbVertex
100
AcDb2dVertex
 10
0.9214047468964686
 20
6.522667864807543
 30
0.0
 70
     8
  0
VERTEX
  5
317
330
2DC
100
AcDbEntity
  8
IMAGE
100
AcDbVertex
100
AcDb2dVertex
 10
0.9287659913388296
 20
6.523488380273745
 30
0.0
 70
     8
  0
VERTEX
  5
318
330
2DC
100
AcDbEntity
  8
IMAGE
100
AcDbVertex
100
AcDb2dVertex
 10
0.9365742992219075
 20
6.524007441750866
 30
0.0
 70
     8
  0
VERTEX
  5
319
330
2DC
100
AcDbEntity
  8
IMAGE
100
AcDbVertex
100
AcDb2dVertex
 10
0.9447738758982811
 20
6.524238326983942
 30
0.0
 70
     8
  0
VERTEX
  5
31A
330
2DC
100
AcDbEntity
  8
IMAGE
100
AcDbVertex
100
AcDb2dVertex
 10
0.9533089267205326
 20
6.524194313717996
 30
0.0
 70
     8
  0
VERTEX
  5
31B
330
2DC
100
AcDbEntity
  8
IMAGE
100
AcDbVertex
100
AcDb2dVertex
 10
0.9621236570412442
 20
6.523888679698073
 30
0.0
 70
     8
  0
VERTEX
  5
31C
330
2DC
100
AcDbEntity
  8
IMAGE
100
AcDbVertex
100
AcDb2dVertex
 10
0.9711622722129909
 20
6.523334702669197
 30
0.0
 70
     8
  0
VERTEX
  5
31D
330
2DC
100
AcDbEntity
  8
IMAGE
100
AcDbVertex
100
AcDb2dVertex
 10
0.9803689775883587
 20
6.522545660376406
 30
0.0
 70
     8
  0
VERTEX
  5
31E
330
2DC
100
AcDbEntity
  8
IMAGE
100
AcDbVertex
100
AcDb2dVertex
 10
0.9896879785199242
 20
6.52153483056473
 30
0.0
 70
     8
  0
VERTEX
  5
31F
330
2DC
100
AcDbEntity
  8
IMAGE
100
AcDbVertex
100
AcDb2dVertex
 10
0.999062656388682
 20
6.520315490979205
 30
0.0
 70
     8
  0
VERTEX
  5
320
330
2DC
100
AcDbEntity
  8
IMAGE
100
AcDbVertex
100
AcDb2dVertex
 10
1.008433096689282
 20
6.518900919364858
 30
0.0
 70
     8
  0
VERTEX
  5
321
330
2DC
100
AcDbEntity
  8
IMAGE
100
AcDbVertex
100
AcDb2dVertex
 10
1.017738560944786
 20
6.517304393466728
 30
0.0
 70
     8
  0
VERTEX
  5
322
330
2DC
100
AcDbEntity
  8
IMAGE
100
AcDbVertex
100
AcDb2dVertex
 10
1.026918310678256
 20
6.515539191029846
 30
0.0
 70
     8
  0
VERTEX
  5
323
330
2DC
100
AcDbEntity
  8
IMAGE
100
AcDbVertex
100
AcDb2dVertex
 10
1.035911607412754
 20
6.513618589799245
 30
0.0
 70
     8
  0
VERTEX
  5
324
330
2DC
100
AcDbEntity
  8
IMAGE
100
AcDbVertex
100
AcDb2dVertex
 10
1.044657712671342
 20
6.511555867519957
 30
0.0
 70
     8
  0
VERTEX
  5
325
330
2DC
100
AcDbEntity
  8
IMAGE
100
AcDbVertex
100
AcDb2dVertex
 10
1.053095887977084
 20
6.509364301937017
 30
0.0
 70
     8
  0
VERTEX
  5
326
330
2DC
100
AcDbEntity
  8
IMAGE
100
AcDbVertex
100
AcDb2dVertex
 10
1.061165394853039
 20
6.507057170795457
 30
0.0
 70
     8
  0
VERTEX
  5
327
330
2DC
100
AcDbEntity
  8
IMAGE
100
AcDbVertex
100
AcDb2dVertex
 10
1.068819620049466
 20
6.504636113323057
 30
0.0
 70
     8
  0
VERTEX
  5
328
330
2DC
100
AcDbEntity
  8
IMAGE
100
AcDbVertex
100
AcDb2dVertex
 10
1.076068451225402
 20
6.502056214678598
 30
0.0
 70
     8
  0
VERTEX
  5
329
330
2DC
100
AcDbEntity
  8
IMAGE
100
AcDbVertex
100
AcDb2dVertex
 10
1.082935901267079
 20
6.499260921503603
 30
0.0
 70
     8
  0
VERTEX
  5
32A
330
2DC
100
AcDbEntity
  8
IMAGE
100
AcDbVertex
100
AcDb2dVertex
 10
1.089445983060725
 20
6.496193680439601
 30
0.0
 70
     8
  0
VERTEX
  5
32B
330
2DC
100
AcDbEntity
  8
IMAGE
100
AcDbVertex
100
AcDb2dVertex
 10
1.095622709492571
 20
6.492797938128115
 30
0.0
 70
     8
  0
VERTEX
  5
32C
330
2DC
100
AcDbEntity
  8
IMAGE
100
AcDbVertex
100
AcDb2dVertex
 10
1.101490093448853
 20
6.489017141210672
 30
0.0
 70
     8
  0
VERTEX
  5
32D
330
2DC
100
AcDbEntity
  8
IMAGE
100
AcDbVertex
100
AcDb2dVertex
 10
1.107072147815798
 20
6.484794736328803
 30
0.0
 70
     8
  0
VERTEX
  5
32E
330
2DC
100
AcDbEntity
  8
IMAGE
100
AcDbVertex
100
AcDb2dVertex
 10
1.112392885479639
 20
6.480074170124028
 30
0.0
 70
     8
  0
VERTEX
  5
32F
330
2DC
100
AcDbEntity
  8
IMAGE
100
AcDbVertex
100
AcDb2dVertex
 10
1.117473435426054
 20
6.474817002704865
 30
0.0
 70
     8
  0
VERTEX
  5
330
330
2DC
100
AcDbEntity
  8
IMAGE
100
AcDbVertex
100
AcDb2dVertex
 10
1.122323391038514
 20
6.469057248047791
 30
0.0
 70
     8
  0
VERTEX
  5
331
330
2DC
100
AcDbEntity
  8
IMAGE
100
AcDbVertex
100
AcDb2dVertex
 10
1.126949461799936
 20
6.462847033596263
 30
0.0
 70
     8
  0
VERTEX
  5
332
330
2DC
100
AcDbEntity
  8
IMAGE
100
AcDbVertex
100
AcDb2dVertex
 10
1.131358357193236
 20
6.456238486793745
 30
0.0
 70
     8
  0
VERTEX
  5
333
330
2DC
100
AcDbEntity
  8
IMAGE
100
AcDbVertex
100
AcDb2dVertex
 10
1.135556786701334
 20
6.449283735083705
 30
0.0
 70
     8
  0
VERTEX
  5
334
330
2DC
100
AcDbEntity
  8
IMAGE
100
AcDbVertex
100
AcDb2dVertex
 10
1.139551459807147
 20
6.442034905909599
 30
0.0
 70
     8
  0
VERTEX
  5
335
330
2DC
100
AcDbEntity
  8
IMAGE
100
AcDbVertex
100
AcDb2dVertex
 10
1.143349085993592
 20
6.434544126714891
 30
0.0
 70
     8
  0
VERTEX
  5
336
330
2DC
100
AcDbEntity
  8
IMAGE
100
AcDbVertex
100
AcDb2dVertex
 10
1.146956374743586
 20
6.426863524943046
 30
0.0
 70
     8
  0
VERTEX
  5
337
330
2DC
100
AcDbEntity
  8
IMAGE
100
AcDbVertex
100
AcDb2dVertex
 10
1.150371089562825
 20
6.419005051441923
 30
0.0
 70
     8
  0
VERTEX
  5
338
330
2DC
100
AcDbEntity
  8
IMAGE
100
AcDbVertex
100
AcDb2dVertex
 10
1.153555210048107
 20
6.410819950676968
 30
0.0
 70
     8
  0
VERTEX
  5
339
330
2DC
100
AcDbEntity
  8
IMAGE
100
AcDbVertex
100
AcDb2dVertex
 10
1.156461769819011
 20
6.402119290518024
 30
0.0
 70
     8
  0
VERTEX
  5
33A
330
2DC
100
AcDbEntity
  8
IMAGE
100
AcDbVertex
100
AcDb2dVertex
 10
1.159043802495113
 20
6.39271413883493
 30
0.0
 70
     8
  0
VERTEX
  5
33B
330
2DC
100
AcDbEntity
  8
IMAGE
100
AcDbVertex
100
AcDb2dVertex
 10
1.161254341695991
 20
6.382415563497536
 30
0.0
 70
     8
  0
VERTEX
  5
33C
330
2DC
100
AcDbEntity
  8
IMAGE
100
AcDbVertex
100
AcDb2dVertex
 10
1.163046421041222
 20
6.37103463237568
 30
0.0
 70
     8
  0
VERTEX
  5
33D
330
2DC
100
AcDbEntity
  8
IMAGE
100
AcDbVertex
100
AcDb2dVertex
 10
1.164373074150384
 20
6.358382413339205
 30
0.0
 70
     8
  0
VERTEX
  5
33E
330
2DC
100
AcDbEntity
  8
IMAGE
100
AcDbVertex
100
AcDb2dVertex
 10
1.165187334643051
 20
6.344269974257956
 30
0.0
 70
     8
  0
VERTEX
  5
33F
330
2DC
100
AcDbEntity
  8
IMAGE
100
AcDbVertex
100
AcDb2dVertex
 10
0.7139032760407225
 20
6.232946812497216
 30
0.0
 70
    16
  0
VERTEX
  5
340
330
2DC
100
AcDbEntity
  8
IMAGE
100
AcDbVertex
100
AcDb2dVertex
 10
0.7399388948062398
 20
6.264168200521387
 30
0.0
 70
    16
  0
VERTEX
  5
341
330
2DC
100
AcDbEntity
  8
IMAGE
100
AcDbVertex
100
AcDb2dVertex
 10
0.7381308657253008
 20
6.299669940129517
 30
0.0
 70
    16
  0
VERTEX
  5
342
330
2DC
100
AcDbEntity
  8
IMAGE
100
AcDbVertex
100
AcDb2dVertex
 10
0.7446397704166805
 20
6.352796656848068
 30
0.0
 70
    16
  0
VERTEX
  5
343
330
2DC
100
AcDbEntity
  8
IMAGE
100
AcDbVertex
100
AcDb2dVertex
 10
0.76091203214513
 20
6.441676898562045
 30
0.0
 70
    16
  0
VERTEX
  5
344
330
2DC
100
AcDbEntity
  8
IMAGE
100
AcDbVertex
100
AcDb2dVertex
 10
0.8100904231466664
 20
6.481458989754132
 30
0.0
 70
    16
  0
VERTEX
  5
345
330
2DC
100
AcDbEntity
  8
IMAGE
100
AcDbVertex
100
AcDb2dVertex
 10
0.8751794700604641
 20
6.508148240807054
 30
0.0
 70
    16
  0
VERTEX
  5
346
330
2DC
100
AcDbEntity
  8
IMAGE
100
AcDbVertex
100
AcDb2dVertex
 10
0.9160409272896835
 20
6.526025003304765
 30
0.0
 70
    16
  0
VERTEX
  5
347
330
2DC
100
AcDbEntity
  8
IMAGE
100
AcDbVertex
100
AcDb2dVertex
 10
0.98908530215961
 20
6.52375893481914
 30
0.0
 70
    16
  0
VERTEX
  5
348
330
2DC
100
AcDbEntity
  8
IMAGE
100
AcDbVertex
100
AcDb2dVertex
 10
1.065745735191418
 20
6.508148240807054
 30
0.0
 70
    16
  0
VERTEX
  5
349
330
2DC
100
AcDbEntity
  8
IMAGE
100
AcDbVertex
100
AcDb2dVertex
 10
1.114924126192954
 20
6.485991126725382
 30
0.0
 70
    16
  0
VERTEX
  5
34A
330
2DC
100
AcDbEntity
  8
IMAGE
100
AcDbVertex
100
AcDb2dVertex
 10
1.148915072914604
 20
6.42833227303558
 30
0.0
 70
    16
  0
VERTEX
  5
34B
330
2DC
100
AcDbEntity
  8
IMAGE
100
AcDbVertex
100
AcDb2dVertex
 10
1.163740911378302
 20
6.38401804487224
 30
0.0
 70
    16
  0
VERTEX
  5
34C
330
2DC
100
AcDbEntity
  8
IMAGE
100
AcDbVertex
100
AcDb2dVertex
 10
1.165187334643051
 20
6.344269974257956
 30
0.0
 70
    16
  0
SEQEND
  5
34D
330
2DC
100
AcDbEntity
  8
IMAGE
  0
LWPOLYLINE
  5
34E
330
17
100
AcDbEntity
  8
IMAGE
100
AcDbPolyline
 90
        2
 70
     0
 43
0.0
 10
0.6926448687271765
 20
6.202814684858347
 10
0.6322281809651993
 20
6.204300714851884
  0
POLYLINE
  5
352
330
17
100
AcDbEntity
  8
IMAGE
100
AcDb2dPolyline
 66
     1
 10
0.0
 20
0.0
 30
0.0
 70
     4
 75
     6
  0
VERTEX
  5
353
330
352
100
AcDbEntity
  8
IMAGE
100
AcDbVertex
100
AcDb2dVertex
 10
1.159789678966667
 20
6.042423026744804
 30
0.0
 70
    16
  0
VERTEX
  5
354
330
352
100
AcDbEntity
  8
IMAGE
100
AcDbVertex
100
AcDb2dVertex
 10
1.159789678966667
 20
6.042423026744801
 30
0.0
 70
     8
  0
VERTEX
  5
355
330
352
100
AcDbEntity
  8
IMAGE
100
AcDbVertex
100
AcDb2dVertex
 10
1.171171563856302
 20
6.043924812157824
 30
0.0
 70
     8
  0
VERTEX
  5
356
330
352
100
AcDbEntity
  8
IMAGE
100
AcDbVertex
100
AcDb2dVertex
 10
1.180689000670687
 20
6.045709237566677
 30
0.0
 70
     8
  0
VERTEX
  5
357
330
352
100
AcDbEntity
  8
IMAGE
100
AcDbVertex
100
AcDb2dVertex
 10
1.188573064423944
 20
6.0477444452814
 30
0.0
 70
     8
  0
VERTEX
  5
358
330
352
100
AcDbEntity
  8
IMAGE
100
AcDbVertex
100
AcDb2dVertex
 10
1.195054830130197
 20
6.049998577612045
 30
0.0
 70
     8
  0
VERTEX
  5
359
330
352
100
AcDbEntity
  8
IMAGE
100
AcDbVertex
100
AcDb2dVertex
 10
1.200365372803568
 20
6.052439776868654
 30
0.0
 70
     8
  0
VERTEX
  5
35A
330
352
100
AcDbEntity
  8
IMAGE
100
AcDbVertex
100
AcDb2dVertex
 10
1.204735767458184
 20
6.055036185361275
 30
0.0
 70
     8
  0
VERTEX
  5
35B
330
352
100
AcDbEntity
  8
IMAGE
100
AcDbVertex
100
AcDb2dVertex
 10
1.208397089108165
 20
6.057755945399962
 30
0.0
 70
     8
  0
VERTEX
  5
35C
330
352
100
AcDbEntity
  8
IMAGE
100
AcDbVertex
100
AcDb2dVertex
 10
1.211580412767636
 20
6.06056719929475
 30
0.0
 70
     8
  0
VERTEX
  5
35D
330
352
100
AcDbEntity
  8
IMAGE
100
AcDbVertex
100
AcDb2dVertex
 10
1.214479544206793
 20
6.063445704310074
 30
0.0
 70
     8
  0
VERTEX
  5
35E
330
352
100
AcDbEntity
  8
IMAGE
100
AcDbVertex
100
AcDb2dVertex
 10
1.217139212220112
 20
6.066397677527922
 30
0.0
 70
     8
  0
VERTEX
  5
35F
330
352
100
AcDbEntity
  8
IMAGE
100
AcDbVertex
100
AcDb2dVertex
 10
1.219566876358141
 20
6.069436950984654
 30
0.0
 70
     8
  0
VERTEX
  5
360
330
352
100
AcDbEntity
  8
IMAGE
100
AcDbVertex
100
AcDb2dVertex
 10
1.221769996171433
 20
6.072577356716641
 30
0.0
 70
     8
  0
VERTEX
  5
361
330
352
100
AcDbEntity
  8
IMAGE
100
AcDbVertex
100
AcDb2dVertex
 10
1.223756031210532
 20
6.075832726760252
 30
0.0
 70
     8
  0
VERTEX
  5
362
330
352
100
AcDbEntity
  8
IMAGE
100
AcDbVertex
100
AcDb2dVertex
 10
1.225532441025993
 20
6.079216893151857
 30
0.0
 70
     8
  0
VERTEX
  5
363
330
352
100
AcDbEntity
  8
IMAGE
100
AcDbVertex
100
AcDb2dVertex
 10
1.227106685168359
 20
6.082743687927818
 30
0.0
 70
     8
  0
VERTEX
  5
364
330
352
100
AcDbEntity
  8
IMAGE
100
AcDbVertex
100
AcDb2dVertex
 10
1.228486223188184
 20
6.086426943124505
 30
0.0
 70
     8
  0
VERTEX
  5
365
330
352
100
AcDbEntity
  8
IMAGE
100
AcDbVertex
100
AcDb2dVertex
 10
1.229682497594765
 20
6.090279440324396
 30
0.0
 70
     8
  0
VERTEX
  5
366
330
352
100
AcDbEntity
  8
IMAGE
100
AcDbVertex
100
AcDb2dVertex
 10
1.230722882732402
 20
6.094309759294398
 30
0.0
 70
     8
  0
VERTEX
  5
367
330
352
100
AcDbEntity
  8
IMAGE
100
AcDbVertex
100
AcDb2dVertex
 10
1.231638735904146
 20
6.098525429347516
 30
0.0
 70
     8
  0
VERTEX
  5
368
330
352
100
AcDbEntity
  8
IMAGE
100
AcDbVertex
100
AcDb2dVertex
 10
1.232461414413048
 20
6.102933979796768
 30
0.0
 70
     8
  0
VERTEX
  5
369
330
352
100
AcDbEntity
  8
IMAGE
100
AcDbVertex
100
AcDb2dVertex
 10
1.233222275562157
 20
6.107542939955168
 30
0.0
 70
     8
  0
VERTEX
  5
36A
330
352
100
AcDbEntity
  8
IMAGE
100
AcDbVertex
100
AcDb2dVertex
 10
1.233952676654526
 20
6.112359839135725
 30
0.0
 70
     8
  0
VERTEX
  5
36B
330
352
100
AcDbEntity
  8
IMAGE
100
AcDbVertex
100
AcDb2dVertex
 10
1.234683974993204
 20
6.117392206651453
 30
0.0
 70
     8
  0
VERTEX
  5
36C
330
352
100
AcDbEntity
  8
IMAGE
100
AcDbVertex
100
AcDb2dVertex
 10
1.235447527881239
 20
6.122647571815361
 30
0.0
 70
     8
  0
VERTEX
  5
36D
330
352
100
AcDbEntity
  8
IMAGE
100
AcDbVertex
100
AcDb2dVertex
 10
1.236273547859729
 20
6.128117152696232
 30
0.0
 70
     8
  0
VERTEX
  5
36E
330
352
100
AcDbEntity
  8
IMAGE
100
AcDbVertex
100
AcDb2dVertex
 10
1.237187668421934
 20
6.133726922385898
 30
0.0
 70
     8
  0
VERTEX
  5
36F
330
352
100
AcDbEntity
  8
IMAGE
100
AcDbVertex
100
AcDb2dVertex
 10
1.238214378299164
 20
6.13938654273195
 30
0.0
 70
     8
  0
VERTEX
  5
370
330
352
100
AcDbEntity
  8
IMAGE
100
AcDbVertex
100
AcDb2dVertex
 10
1.239378166222725
 20
6.145005675581982
 30
0.0
 70
     8
  0
VERTEX
  5
371
330
352
100
AcDbEntity
  8
IMAGE
100
AcDbVertex
100
AcDb2dVertex
 10
1.240703520923923
 20
6.150493982783602
 30
0.0
 70
     8
  0
VERTEX
  5
372
330
352
100
AcDbEntity
  8
IMAGE
100
AcDbVertex
100
AcDb2dVertex
 10
1.242214931134067
 20
6.155761126184396
 30
0.0
 70
     8
  0
VERTEX
  5
373
330
352
100
AcDbEntity
  8
IMAGE
100
AcDbVertex
100
AcDb2dVertex
 10
1.243936885584465
 20
6.160716767631965
 30
0.0
 70
     8
  0
VERTEX
  5
374
330
352
100
AcDbEntity
  8
IMAGE
100
AcDbVertex
100
AcDb2dVertex
 10
1.245893873006419
 20
6.165270568973904
 30
0.0
 70
     8
  0
VERTEX
  5
375
330
352
100
AcDbEntity
  8
IMAGE
100
AcDbVertex
100
AcDb2dVertex
 10
1.248104981474513
 20
6.169347423071089
 30
0.0
 70
     8
  0
VERTEX
  5
376
330
352
100
AcDbEntity
  8
IMAGE
100
AcDbVertex
100
AcDb2dVertex
 10
1.25056769643642
 20
6.172933146837513
 30
0.0
 70
     8
  0
VERTEX
  5
377
330
352
100
AcDbEntity
  8
IMAGE
100
AcDbVertex
100
AcDb2dVertex
 10
1.25327410268309
 20
6.176028788200449
 30
0.0
 70
     8
  0
VERTEX
  5
378
330
352
100
AcDbEntity
  8
IMAGE
100
AcDbVertex
100
AcDb2dVertex
 10
1.256216285005469
 20
6.178635395087168
 30
0.0
 70
     8
  0
VERTEX
  5
379
330
352
100
AcDbEntity
  8
IMAGE
100
AcDbVertex
100
AcDb2dVertex
 10
1.259386328194504
 20
6.180754015424946
 30
0.0
 70
     8
  0
VERTEX
  5
37A
330
352
100
AcDbEntity
  8
IMAGE
100
AcDbVertex
100
AcDb2dVertex
 10
1.262776317041145
 20
6.182385697141056
 30
0.0
 70
     8
  0
VERTEX
  5
37B
330
352
100
AcDbEntity
  8
IMAGE
100
AcDbVertex
100
AcDb2dVertex
 10
1.266378336336335
 20
6.183531488162769
 30
0.0
 70
     8
  0
VERTEX
  5
37C
330
352
100
AcDbEntity
  8
IMAGE
100
AcDbVertex
100
AcDb2dVertex
 10
1.270184470871027
 20
6.184192436417356
 30
0.0
 70
     8
  0
VERTEX
  5
37D
330
352
100
AcDbEntity
  8
IMAGE
100
AcDbVertex
100
AcDb2dVertex
 10
1.274174590512516
 20
6.184368603191868
 30
0.0
 70
     8
  0
VERTEX
  5
37E
330
352
100
AcDbEntity
  8
IMAGE
100
AcDbVertex
100
AcDb2dVertex
 10
1.278279705433505
 20
6.18405610321245
 30
0.0
 70
     8
  0
VERTEX
  5
37F
330
352
100
AcDbEntity
  8
IMAGE
100
AcDbVertex
100
AcDb2dVertex
 10
1.282418610883042
 20
6.183250064565017
 30
0.0
 70
     8
  0
VERTEX
  5
380
330
352
100
AcDbEntity
  8
IMAGE
100
AcDbVertex
100
AcDb2dVertex
 10
1.286510102110182
 20
6.181945615335488
 30
0.0
 70
     8
  0
VERTEX
  5
381
330
352
100
AcDbEntity
  8
IMAGE
100
AcDbVertex
100
AcDb2dVertex
 10
1.290472974363976
 20
6.180137883609786
 30
0.0
 70
     8
  0
VERTEX
  5
382
330
352
100
AcDbEntity
  8
IMAGE
100
AcDbVertex
100
AcDb2dVertex
 10
1.294226022893473
 20
6.177821997473825
 30
0.0
 70
     8
  0
VERTEX
  5
383
330
352
100
AcDbEntity
  8
IMAGE
100
AcDbVertex
100
AcDb2dVertex
 10
1.297688042947723
 20
6.174993085013523
 30
0.0
 70
     8
  0
VERTEX
  5
384
330
352
100
AcDbEntity
  8
IMAGE
100
AcDbVertex
100
AcDb2dVertex
 10
1.300777829775783
 20
6.171646274314808
 30
0.0
 70
     8
  0
VERTEX
  5
385
330
352
100
AcDbEntity
  8
IMAGE
100
AcDbVertex
100
AcDb2dVertex
 10
1.303431623699008
 20
6.167793432278381
 30
0.0
 70
     8
  0
VERTEX
  5
386
330
352
100
AcDbEntity
  8
IMAGE
100
AcDbVertex
100
AcDb2dVertex
 10
1.305655445327979
 20
6.163513381064115
 30
0.0
 70
     8
  0
VERTEX
  5
387
330
352
100
AcDbEntity
  8
IMAGE
100
AcDbVertex
100
AcDb2dVertex
 10
1.30747276034559
 20
6.158901681646684
 30
0.0
 70
     8
  0
VERTEX
  5
388
330
352
100
AcDbEntity
  8
IMAGE
100
AcDbVertex
100
AcDb2dVertex
 10
1.308907034434731
 20
6.154053895000748
 30
0.0
 70
     8
  0
VERTEX
  5
389
330
352
100
AcDbEntity
  8
IMAGE
100
AcDbVertex
100
AcDb2dVertex
 10
1.309981733278291
 20
6.149065582100975
 30
0.0
 70
     8
  0
VERTEX
  5
38A
330
352
100
AcDbEntity
  8
IMAGE
100
AcDbVertex
100
AcDb2dVertex
 10
1.31072032255916
 20
6.144032303922033
 30
0.0
 70
     8
  0
VERTEX
  5
38B
330
352
100
AcDbEntity
  8
IMAGE
100
AcDbVertex
100
AcDb2dVertex
 10
1.311146267960228
 20
6.139049621438582
 30
0.0
 70
     8
  0
VERTEX
  5
38C
330
352
100
AcDbEntity
  8
IMAGE
100
AcDbVertex
100
AcDb2dVertex
 10
1.311283035164387
 20
6.134213095625293
 30
0.0
 70
     8
  0
VERTEX
  5
38D
330
352
100
AcDbEntity
  8
IMAGE
100
AcDbVertex
100
AcDb2dVertex
 10
1.192832702785252
 20
6.046022616571802
 30
0.0
 70
    16
  0
VERTEX
  5
38E
330
352
100
AcDbEntity
  8
IMAGE
100
AcDbVertex
100
AcDb2dVertex
 10
1.214214257849091
 20
6.059931080189132
 30
0.0
 70
    16
  0
VERTEX
  5
38F
330
352
100
AcDbEntity
  8
IMAGE
100
AcDbVertex
100
AcDb2dVertex
 10
1.230483519956121
 20
6.084610490248826
 30
0.0
 70
    16
  0
VERTEX
  5
390
330
352
100
AcDbEntity
  8
IMAGE
100
AcDbVertex
100
AcDb2dVertex
 10
1.234769001455533
 20
6.120188617562606
 30
0.0
 70
    16
  0
VERTEX
  5
391
330
352
100
AcDbEntity
  8
IMAGE
100
AcDbVertex
100
AcDb2dVertex
 10
1.24312564150918
 20
6.170520470392931
 30
0.0
 70
    16
  0
VERTEX
  5
392
330
352
100
AcDbEntity
  8
IMAGE
100
AcDbVertex
100
AcDb2dVertex
 10
1.268091670546256
 20
6.189352914709099
 30
0.0
 70
    16
  0
VERTEX
  5
393
330
352
100
AcDbEntity
  8
IMAGE
100
AcDbVertex
100
AcDb2dVertex
 10
1.305614501531964
 20
6.17722248927482
 30
0.0
 70
    16
  0
VERTEX
  5
394
330
352
100
AcDbEntity
  8
IMAGE
100
AcDbVertex
100
AcDb2dVertex
 10
1.311283035164387
 20
6.146830679145258
 30
0.0
 70
    16
  0
VERTEX
  5
395
330
352
100
AcDbEntity
  8
IMAGE
100
AcDbVertex
100
AcDb2dVertex
 10
1.311283035164387
 20
6.134213095625293
 30
0.0
 70
    16
  0
SEQEND
  5
396
330
352
100
AcDbEntity
  8
IMAGE
  0
POLYLINE
  5
397
330
17
100
AcDbEntity
  8
IMAGE
100
AcDb2dPolyline
 66
     1
 10
0.0
 20
0.0
 30
0.0
 70
     4
 75
     6
  0
VERTEX
  5
398
330
397
100
AcDbEntity
  8
IMAGE
100
AcDbVertex
100
AcDb2dVertex
 10
1.161552648780444
 20
6.026239556864121
 30
0.0
 70
    16
  0
VERTEX
  5
399
330
397
100
AcDbEntity
  8
IMAGE
100
AcDbVertex
100
AcDb2dVertex
 10
1.161552648780444
 20
6.026239556864121
 30
0.0
 70
     8
  0
VERTEX
  5
39A
330
397
100
AcDbEntity
  8
IMAGE
100
AcDbVertex
100
AcDb2dVertex
 10
1.174343775931473
 20
6.027969276399671
 30
0.0
 70
     8
  0
VERTEX
  5
39B
330
397
100
AcDbEntity
  8
IMAGE
100
AcDbVertex
100
AcDb2dVertex
 10
1.185193981335074
 20
6.030110077758843
 30
0.0
 70
     8
  0
VERTEX
  5
39C
330
397
100
AcDbEntity
  8
IMAGE
100
AcDbVertex
100
AcDb2dVertex
 10
1.194333724487893
 20
6.032611946291625
 30
0.0
 70
     8
  0
VERTEX
  5
39D
330
397
100
AcDbEntity
  8
IMAGE
100
AcDbVertex
100
AcDb2dVertex
 10
1.201993464886574
 20
6.035424867347996
 30
0.0
 70
     8
  0
VERTEX
  5
39E
330
397
100
AcDbEntity
  8
IMAGE
100
AcDbVertex
100
AcDb2dVertex
 10
1.20840366202776
 20
6.038498826277935
 30
0.0
 70
     8
  0
VERTEX
  5
39F
330
397
100
AcDbEntity
  8
IMAGE
100
AcDbVertex
100
AcDb2dVertex
 10
1.213794775408094
 20
6.041783808431416
 30
0.0
 70
     8
  0
VERTEX
  5
3A0
330
397
100
AcDbEntity
  8
IMAGE
100
AcDbVertex
100
AcDb2dVertex
 10
1.21839726452422
 20
6.045229799158425
 30
0.0
 70
     8
  0
VERTEX
  5
3A1
330
397
100
AcDbEntity
  8
IMAGE
100
AcDbVertex
100
AcDb2dVertex
 10
1.222441588872782
 20
6.048786783808937
 30
0.0
 70
     8
  0
VERTEX
  5
3A2
330
397
100
AcDbEntity
  8
IMAGE
100
AcDbVertex
100
AcDb2dVertex
 10
1.226121563687717
 20
6.052414517832248
 30
0.0
 70
     8
  0
VERTEX
  5
3A3
330
397
100
AcDbEntity
  8
IMAGE
100
AcDbVertex
100
AcDb2dVertex
 10
1.229484427152127
 20
6.056111837074899
 30
0.0
 70
     8
  0
VERTEX
  5
3A4
330
397
100
AcDbEntity
  8
IMAGE
100
AcDbVertex
100
AcDb2dVertex
 10
1.232540773186408
 20
6.059887347482744
 30
0.0
 70
     8
  0
VERTEX
  5
3A5
330
397
100
AcDbEntity
  8
IMAGE
100
AcDbVertex
100
AcDb2dVertex
 10
1.235301195710959
 20
6.063749655001638
 30
0.0
 70
     8
  0
VERTEX
  5
3A6
330
397
100
AcDbEntity
  8
IMAGE
100
AcDbVertex
100
AcDb2dVertex
 10
1.237776288646174
 20
6.067707365577435
 30
0.0
 70
     8
  0
VERTEX
  5
3A7
330
397
100
AcDbEntity
  8
IMAGE
100
AcDbVertex
100
AcDb2dVertex
 10
1.23997664591245
 20
6.07176908515599
 30
0.0
 70
     8
  0
VERTEX
  5
3A8
330
397
100
AcDbEntity
  8
IMAGE
100
AcDbVertex
100
AcDb2dVertex
 10
1.24191286143018
 20
6.075943419683158
 30
0.0
 70
     8
  0
VERTEX
  5
3A9
330
397
100
AcDbEntity
  8
IMAGE
100
AcDbVertex
100
AcDb2dVertex
 10
1.243595529119766
 20
6.080238975104792
 30
0.0
 70
     8
  0
VERTEX
  5
3AA
330
397
100
AcDbEntity
  8
IMAGE
100
AcDbVertex
100
AcDb2dVertex
 10
1.245039362759532
 20
6.084661693621603
 30
0.0
 70
     8
  0
VERTEX
  5
3AB
330
397
100
AcDbEntity
  8
IMAGE
100
AcDbVertex
100
AcDb2dVertex
 10
1.246275555559532
 20
6.089206862453723
 30
0.0
 70
     8
  0
VERTEX
  5
3AC
330
397
100
AcDbEntity
  8
IMAGE
100
AcDbVertex
100
AcDb2dVertex
 10
1.247339420587757
 20
6.093867105076126
 30
0.0
 70
     8
  0
VERTEX
  5
3AD
330
397
100
AcDbEntity
  8
IMAGE
100
AcDbVertex
100
AcDb2dVertex
 10
1.248266270912192
 20
6.098635044963794
 30
0.0
 70
     8
  0
VERTEX
  5
3AE
330
397
100
AcDbEntity
  8
IMAGE
100
AcDbVertex
100
AcDb2dVertex
 10
1.249091419600824
 20
6.103503305591713
 30
0.0
 70
     8
  0
VERTEX
  5
3AF
330
397
100
AcDbEntity
  8
IMAGE
100
AcDbVertex
100
AcDb2dVertex
 10
1.249850179721638
 20
6.108464510434862
 30
0.0
 70
     8
  0
VERTEX
  5
3B0
330
397
100
AcDbEntity
  8
IMAGE
100
AcDbVertex
100
AcDb2dVertex
 10
1.250577864342626
 20
6.113511282968223
 30
0.0
 70
     8
  0
VERTEX
  5
3B1
330
397
100
AcDbEntity
  8
IMAGE
100
AcDbVertex
100
AcDb2dVertex
 10
1.251309786531771
 20
6.118636246666779
 30
0.0
 70
     8
  0
VERTEX
  5
3B2
330
397
100
AcDbEntity
  8
IMAGE
100
AcDbVertex
100
AcDb2dVertex
 10
1.252076433237772
 20
6.123820796295204
 30
0.0
 70
     8
  0
VERTEX
  5
3B3
330
397
100
AcDbEntity
  8
IMAGE
100
AcDbVertex
100
AcDb2dVertex
 10
1.252888986932153
 20
6.129001411776956
 30
0.0
 70
     8
  0
VERTEX
  5
3B4
330
397
100
AcDbEntity
  8
IMAGE
100
AcDbVertex
100
AcDb2dVertex
 10
1.253753803967158
 20
6.134103344325177
 30
0.0
 70
     8
  0
VERTEX
  5
3B5
330
397
100
AcDbEntity
  8
IMAGE
100
AcDbVertex
100
AcDb2dVertex
 10
1.254677240695021
 20
6.139051845153018
 30
0.0
 70
     8
  0
VERTEX
  5
3B6
330
397
100
AcDbEntity
  8
IMAGE
100
AcDbVertex
100
AcDb2dVertex
 10
1.255665653467979
 20
6.143772165473622
 30
0.0
 70
     8
  0
VERTEX
  5
3B7
330
397
100
AcDbEntity
  8
IMAGE
100
AcDbVertex
100
AcDb2dVertex
 10
1.256725398638271
 20
6.148189556500144
 30
0.0
 70
     8
  0
VERTEX
  5
3B8
330
397
100
AcDbEntity
  8
IMAGE
100
AcDbVertex
100
AcDb2dVertex
 10
1.257862832558136
 20
6.152229269445728
 30
0.0
 70
     8
  0
VERTEX
  5
3B9
330
397
100
AcDbEntity
  8
IMAGE
100
AcDbVertex
100
AcDb2dVertex
 10
1.259084311579809
 20
6.155816555523523
 30
0.0
 70
     8
  0
VERTEX
  5
3BA
330
397
100
AcDbEntity
  8
IMAGE
100
AcDbVertex
100
AcDb2dVertex
 10
1.260395603504396
 20
6.158894779413666
 30
0.0
 70
     8
  0
VERTEX
  5
3BB
330
397
100
AcDbEntity
  8
IMAGE
100
AcDbVertex
100
AcDb2dVertex
 10
1.261800121928471
 20
6.161479759664251
 30
0.0
 70
     8
  0
VERTEX
  5
3BC
330
397
100
AcDbEntity
  8
IMAGE
100
AcDbVertex
100
AcDb2dVertex
 10
1.263300691897467
 20
6.163605428290361
 30
0.0
 70
     8
  0
VERTEX
  5
3BD
330
397
100
AcDbEntity
  8
IMAGE
100
AcDbVertex
100
AcDb2dVertex
 10
1.26490013845683
 20
6.165305717307079
 30
0.0
 70
     8
  0
VERTEX
  5
3BE
330
397
100
AcDbEntity
  8
IMAGE
100
AcDbVertex
100
AcDb2dVertex
 10
1.266601286651993
 20
6.166614558729497
 30
0.0
 70
     8
  0
VERTEX
  5
3BF
330
397
100
AcDbEntity
  8
IMAGE
100
AcDbVertex
100
AcDb2dVertex
 10
1.268406961528399
 20
6.16756588457269
 30
0.0
 70
     8
  0
VERTEX
  5
3C0
330
397
100
AcDbEntity
  8
IMAGE
100
AcDbVertex
100
AcDb2dVertex
 10
1.270319988131487
 20
6.168193626851747
 30
0.0
 70
     8
  0
VERTEX
  5
3C1
330
397
100
AcDbEntity
  8
IMAGE
100
AcDbVertex
100
AcDb2dVertex
 10
1.272343191506693
 20
6.168531717581752
 30
0.0
 70
     8
  0
VERTEX
  5
3C2
330
397
100
AcDbEntity
  8
IMAGE
100
AcDbVertex
100
AcDb2dVertex
 10
1.27447174553473
 20
6.168606425387908
 30
0.0
 70
     8
  0
VERTEX
  5
3C3
330
397
100
AcDbEntity
  8
IMAGE
100
AcDbVertex
100
AcDb2dVertex
 10
1.276670219437378
 20
6.168413365335903
 30
0.0
 70
     8
  0
VERTEX
  5
3C4
330
397
100
AcDbEntity
  8
IMAGE
100
AcDbVertex
100
AcDb2dVertex
 10
1.278895531271698
 20
6.167940489101534
 30
0.0
 70
     8
  0
VERTEX
  5
3C5
330
397
100
AcDbEntity
  8
IMAGE
100
AcDbVertex
100
AcDb2dVertex
 10
1.281104599094743
 20
6.167175748360607
 30
0.0
 70
     8
  0
VERTEX
  5
3C6
330
397
100
AcDbEntity
  8
IMAGE
100
AcDbVertex
100
AcDb2dVertex
 10
1.28325434096357
 20
6.166107094788925
 30
0.0
 70
     8
  0
VERTEX
  5
3C7
330
397
100
AcDbEntity
  8
IMAGE
100
AcDbVertex
100
AcDb2dVertex
 10
1.285301674935236
 20
6.164722480062296
 30
0.0
 70
     8
  0
VERTEX
  5
3C8
330
397
100
AcDbEntity
  8
IMAGE
100
AcDbVertex
100
AcDb2dVertex
 10
1.287203519066794
 20
6.163009855856516
 30
0.0
 70
     8
  0
VERTEX
  5
3C9
330
397
100
AcDbEntity
  8
IMAGE
100
AcDbVertex
100
AcDb2dVertex
 10
1.288916791415301
 20
6.160957173847394
 30
0.0
 70
     8
  0
VERTEX
  5
3CA
330
397
100
AcDbEntity
  8
IMAGE
100
AcDbVertex
100
AcDb2dVertex
 10
1.290406885174127
 20
6.158558958479625
 30
0.0
 70
     8
  0
VERTEX
  5
3CB
330
397
100
AcDbEntity
  8
IMAGE
100
AcDbVertex
100
AcDb2dVertex
 10
1.291673094081919
 20
6.155836025273499
 30
0.0
 70
     8
  0
VERTEX
  5
3CC
330
397
100
AcDbEntity
  8
IMAGE
100
AcDbVertex
100
AcDb2dVertex
 10
1.292723187013627
 20
6.152815762518192
 30
0.0
 70
     8
  0
VERTEX
  5
3CD
330
397
100
AcDbEntity
  8
IMAGE
100
AcDbVertex
100
AcDb2dVertex
 10
1.293564932844213
 20
6.149525558502888
 30
0.0
 70
     8
  0
VERTEX
  5
3CE
330
397
100
AcDbEntity
  8
IMAGE
100
AcDbVertex
100
AcDb2dVertex
 10
1.29420610044863
 20
6.145992801516763
 30
0.0
 70
     8
  0
VERTEX
  5
3CF
330
397
100
AcDbEntity
  8
IMAGE
100
AcDbVertex
100
AcDb2dVertex
 10
1.294654458701841
 20
6.142244879849004
 30
0.0
 70
     8
  0
VERTEX
  5
3D0
330
397
100
AcDbEntity
  8
IMAGE
100
AcDbVertex
100
AcDb2dVertex
 10
1.294917776478798
 20
6.138309181788786
 30
0.0
 70
     8
  0
VERTEX
  5
3D1
330
397
100
AcDbEntity
  8
IMAGE
100
AcDbVertex
100
AcDb2dVertex
 10
1.295003822654458
 20
6.134213095625293
 30
0.0
 70
     8
  0
VERTEX
  5
3D2
330
397
100
AcDbEntity
  8
IMAGE
100
AcDbVertex
100
AcDb2dVertex
 10
1.198455069732327
 20
6.03025957572739
 30
0.0
 70
    16
  0
VERTEX
  5
3D3
330
397
100
AcDbEntity
  8
IMAGE
100
AcDbVertex
100
AcDb2dVertex
 10
1.225937111762598
 20
6.0481363382251
 30
0.0
 70
    16
  0
VERTEX
  5
3D4
330
397
100
AcDbEntity
  8
IMAGE
100
AcDbVertex
100
AcDb2dVertex
 10
1.246187037469112
 20
6.078854155474688
 30
0.0
 70
    16
  0
VERTEX
  5
3D5
330
397
100
AcDbEntity
  8
IMAGE
100
AcDbVertex
100
AcDb2dVertex
 10
1.250887913079553
 20
6.117880890504904
 30
0.0
 70
    16
  0
VERTEX
  5
3D6
330
397
100
AcDbEntity
  8
IMAGE
100
AcDbVertex
100
AcDb2dVertex
 10
1.258120029403309
 20
6.16143976250637
 30
0.0
 70
    16
  0
VERTEX
  5
3D7
330
397
100
AcDbEntity
  8
IMAGE
100
AcDbVertex
100
AcDb2dVertex
 10
1.271137838786068
 20
6.171259392610748
 30
0.0
 70
    16
  0
VERTEX
  5
3D8
330
397
100
AcDbEntity
  8
IMAGE
100
AcDbVertex
100
AcDb2dVertex
 10
1.291387764492584
 20
6.164712972541162
 30
0.0
 70
    16
  0
VERTEX
  5
3D9
330
397
100
AcDbEntity
  8
IMAGE
100
AcDbVertex
100
AcDb2dVertex
 10
1.29500382265446
 20
6.145325497719701
 30
0.0
 70
    16
  0
VERTEX
  5
3DA
330
397
100
AcDbEntity
  8
IMAGE
100
AcDbVertex
100
AcDb2dVertex
 10
1.29500382265446
 20
6.134213095625293
 30
0.0
 70
    16
  0
SEQEND
  5
3DB
330
397
100
AcDbEntity
  8
IMAGE
  0
LWPOLYLINE
  5
3DC
330
17
100
AcDbEntity
  8
IMAGE
100
AcDbPolyline
 90
        2
 70
     0
 43
0.0
 10
1.161552648780444
 20
6.026239556864121
 10
1.099972949574419
 20
6.025110187204168
  0
ARC
  5
3E0
330
17
100
AcDbEntity
  8
IMAGE
100
AcDbCircle
 10
1.051423920314524
 20
5.722506907505957
 30
0.0
 40
0.0086785395885068
100
AcDbArc
 50
91.69680972253539
 51
231.5745291114778
  0
ARC
  5
3E1
330
17
100
AcDbEntity
  8
IMAGE
100
AcDbCircle
 10
1.227206183167419
 20
5.726266826757674
 30
0.0
 40
0.0086785395885068
100
AcDbArc
 50
271.6968097225354
 51
51.57452911148117
  0
ARC
  5
3E2
330
17
100
AcDbEntity
  8
IMAGE
100
AcDbCircle
 10
1.228735194280143
 20
5.67465215862912
 30
0.0
 40
0.0086785395885068
100
AcDbArc
 50
271.6968097225354
 51
51.57452911148117
  0
LWPOLYLINE
  5
3E3
330
17
100
AcDbEntity
  8
IMAGE
100
AcDbPolyline
 90
        2
 70
     0
 43
0.0
 10
1.051166943656926
 20
5.731181641645205
 10
1.2341288728788
 20
5.681451076231299
  0
LWPOLYLINE
  5
3E7
330
17
100
AcDbEntity
  8
IMAGE
100
AcDbPolyline
 90
        2
 70
     0
 43
0.0
 10
1.046030241715973
 20
5.715707989903739
 10
1.228992170937732
 20
5.665977424489865
  0
LWPOLYLINE
  5
3EB
330
17
100
AcDbEntity
  8
IMAGE
100
AcDbPolyline
 90
        2
 70
     0
 43
0.0
 10
1.171012098344705
 20
5.681736887701985
 10
1.052695954769644
 20
5.679566973516651
  0
LWPOLYLINE
  5
3EF
330
17
100
AcDbEntity
  8
IMAGE
100
AcDbPolyline
 90
        2
 70
     0
 43
0.0
 10
1.169483087231975
 20
5.733351555830543
 10
1.051166943656926
 20
5.731181641645205
  0
LWPOLYLINE
  5
3F3
330
17
100
AcDbEntity
  8
IMAGE
100
AcDbPolyline
 90
        2
 70
     0
 43
0.0
 10
1.227463159825024
 20
5.717592092618419
 10
1.109147016249957
 20
5.715422178433081
  0
LWPOLYLINE
  5
3F7
330
17
100
AcDbEntity
  8
IMAGE
100
AcDbPolyline
 90
        2
 70
     0
 43
0.0
 10
1.222876126487631
 20
5.87243609700384
 10
1.10455998291257
 20
5.870266182818498
  0
LWPOLYLINE
  5
3FB
330
17
100
AcDbEntity
  8
IMAGE
100
AcDbPolyline
 90
        2
 70
     0
 43
0.0
 10
1.221347115374916
 20
5.924050765132394
 10
1.103030971799851
 20
5.921880850947053
  0
LWPOLYLINE
  5
3FF
330
17
100
AcDbEntity
  8
IMAGE
100
AcDbPolyline
 90
        2
 70
     0
 43
0.0
 10
1.219818104262193
 20
5.975665433260944
 10
1.101501960687128
 20
5.973495519075607
  0
LWPOLYLINE
  5
403
330
17
100
AcDbEntity
  8
IMAGE
100
AcDbPolyline
 90
        2
 70
     0
 43
0.0
 10
1.160309020556437
 20
6.043039564601626
 10
1.041992876981387
 20
6.040869650416288
  0
LWPOLYLINE
  5
407
330
17
100
AcDbEntity
  8
IMAGE
100
AcDbPolyline
 90
        2
 70
     0
 43
0.0
 10
1.161838031669167
 20
5.991424896473064
 10
1.043521888094106
 20
5.989254982287731
  0
LWPOLYLINE
  5
40B
330
17
100
AcDbEntity
  8
IMAGE
100
AcDbPolyline
 90
        2
 70
     0
 43
0.0
 10
1.163367042781881
 20
5.939810228344514
 10
1.04505089920682
 20
5.937640314159176
  0
LWPOLYLINE
  5
40F
330
17
100
AcDbEntity
  8
IMAGE
100
AcDbPolyline
 90
        2
 70
     0
 43
0.0
 10
1.1648960538946
 20
5.888195560215956
 10
1.046579910319537
 20
5.886025646030622
  0
LWPOLYLINE
  5
413
330
17
100
AcDbEntity
  8
IMAGE
100
AcDbPolyline
 90
        2
 70
     0
 43
0.0
 10
1.166425065006845
 20
5.83658089208753
 10
1.048108921431877
 20
5.834410977902189
  0
LWPOLYLINE
  5
417
330
17
100
AcDbEntity
  8
IMAGE
100
AcDbPolyline
 90
        2
 70
     0
 43
0.0
 10
1.224405137599967
 20
5.820821428875406
 10
1.106088994024906
 20
5.818651514690072
  0
LWPOLYLINE
  5
41B
330
17
100
AcDbEntity
  8
IMAGE
100
AcDbPolyline
 90
        2
 70
     0
 43
0.0
 10
1.167954076119655
 20
5.784966223958972
 10
1.049637932544589
 20
5.782796309773639
  0
LWPOLYLINE
  5
41F
330
17
100
AcDbEntity
  8
IMAGE
100
AcDbPolyline
 90
        2
 70
     0
 43
0.0
 10
1.225934148712686
 20
5.769206760746852
 10
1.107618005137616
 20
5.767036846561515
  0
LWPOLYLINE
  5
423
330
17
100
AcDbEntity
  8
IMAGE
100
AcDbPolyline
 90
        2
 70
     0
 43
0.0
 10
1.044501230603637
 20
5.767322658032169
 10
1.2274631598254
 20
5.717592092618295
  0
LWPOLYLINE
  5
427
330
17
100
AcDbEntity
  8
IMAGE
100
AcDbPolyline
 90
        2
 70
     0
 43
0.0
 10
1.049637932544589
 20
5.782796309773639
 10
1.232599861766466
 20
5.733065744359725
  0
ARC
  5
42B
330
17
100
AcDbEntity
  8
IMAGE
100
AcDbCircle
 10
1.049894909202194
 20
5.774121575634383
 30
0.0
 40
0.0086785395885068
100
AcDbArc
 50
91.69680972253539
 51
231.5745291114778
  0
ARC
  5
42C
330
17
100
AcDbEntity
  8
IMAGE
100
AcDbCircle
 10
1.22567717205509
 20
5.777881494886107
 30
0.0
 40
0.0086785395885068
100
AcDbArc
 50
271.6968097225354
 51
51.57452911148117
  0
ARC
  5
42D
330
17
100
AcDbEntity
  8
IMAGE
100
AcDbCircle
 10
1.224148160942369
 20
5.829496163014662
 30
0.0
 40
0.0086785395885068
100
AcDbArc
 50
271.6968097225354
 51
51.57452911148117
  0
LWPOLYLINE
  5
42E
330
17
100
AcDbEntity
  8
IMAGE
100
AcDbPolyline
 90
        2
 70
     0
 43
0.0
 10
1.042972219490923
 20
5.818937326160723
 10
1.225934148712686
 20
5.769206760746852
  0
LWPOLYLINE
  5
432
330
17
100
AcDbEntity
  8
IMAGE
100
AcDbPolyline
 90
        2
 70
     0
 43
0.0
 10
1.048108921431877
 20
5.834410977902189
 10
1.231070850653752
 20
5.784680412488283
  0
ARC
  5
436
330
17
100
AcDbEntity
  8
IMAGE
100
AcDbCircle
 10
1.048365898089469
 20
5.825736243762937
 30
0.0
 40
0.0086785395885068
100
AcDbArc
 50
91.69680972253539
 51
231.5745291114778
  0
LWPOLYLINE
  5
437
330
17
100
AcDbEntity
  8
IMAGE
100
AcDbPolyline
 90
        2
 70
     0
 43
0.0
 10
1.041443208378582
 20
5.870551994289156
 10
1.224405137600351
 20
5.820821428875282
  0
ARC
  5
43B
330
17
100
AcDbEntity
  8
IMAGE
100
AcDbCircle
 10
1.046836886977137
 20
5.877350911891371
 30
0.0
 40
0.0086785395885068
100
AcDbArc
 50
91.69680972253539
 51
231.5745291114778
  0
LWPOLYLINE
  5
43C
330
17
100
AcDbEntity
  8
IMAGE
100
AcDbPolyline
 90
        2
 70
     0
 43
0.0
 10
1.046579910319537
 20
5.886025646030622
 10
1.229541839541414
 20
5.836295080616713
  0
ARC
  5
440
330
17
100
AcDbEntity
  8
IMAGE
100
AcDbCircle
 10
1.222619149830039
 20
5.881110831143091
 30
0.0
 40
0.0086785395885068
100
AcDbArc
 50
271.6968097225354
 51
51.57452911148117
  0
LWPOLYLINE
  5
441
330
17
100
AcDbEntity
  8
IMAGE
100
AcDbPolyline
 90
        2
 70
     0
 43
0.0
 10
1.039914197265866
 20
5.92216666241771
 10
1.222876126487631
 20
5.87243609700384
  0
LWPOLYLINE
  5
445
330
17
100
AcDbEntity
  8
IMAGE
100
AcDbPolyline
 90
        2
 70
     0
 43
0.0
 10
1.04505089920682
 20
5.937640314159176
 10
1.2280128284287
 20
5.887909748745267
  0
ARC
  5
449
330
17
100
AcDbEntity
  8
IMAGE
100
AcDbCircle
 10
1.045307875864418
 20
5.928965580019921
 30
0.0
 40
0.0086785395885068
100
AcDbArc
 50
91.69680972253539
 51
231.5745291114778
  0
ARC
  5
44A
330
17
100
AcDbEntity
  8
IMAGE
100
AcDbCircle
 10
1.221090138717314
 20
5.932725499271645
 30
0.0
 40
0.0086785395885068
100
AcDbArc
 50
271.6968097225354
 51
51.57452911148117
  0
LWPOLYLINE
  5
44B
330
17
100
AcDbEntity
  8
IMAGE
100
AcDbPolyline
 90
        2
 70
     0
 43
0.0
 10
1.038385186153143
 20
5.973781330546261
 10
1.221347115374916
 20
5.924050765132394
  0
LWPOLYLINE
  5
44F
330
17
100
AcDbEntity
  8
IMAGE
100
AcDbPolyline
 90
        2
 70
     0
 43
0.0
 10
1.043521888094106
 20
5.989254982287731
 10
1.226483817315976
 20
5.939524416873821
  0
LWPOLYLINE
  5
453
330
17
100
AcDbEntity
  8
IMAGE
100
AcDbPolyline
 90
        2
 70
     0
 43
0.0
 10
1.036856175040435
 20
6.025395998674818
 10
1.219818104262193
 20
5.975665433260944
  0
LWPOLYLINE
  5
457
330
17
100
AcDbEntity
  8
IMAGE
100
AcDbPolyline
 90
        2
 70
     0
 43
0.0
 10
1.041992876981387
 20
6.040869650416288
 10
1.224954806203262
 20
5.991139085002375
  0
ARC
  5
45B
330
17
100
AcDbEntity
  8
IMAGE
100
AcDbCircle
 10
1.043778864751705
 20
5.980580248148479
 30
0.0
 40
0.0086785395885068
100
AcDbArc
 50
91.69680972253539
 51
231.5745291114778
  0
ARC
  5
45C
330
17
100
AcDbEntity
  8
IMAGE
100
AcDbCircle
 10
1.219561127604606
 20
5.984340167400203
 30
0.0
 40
0.0086785395885068
100
AcDbArc
 50
271.6968097225354
 51
51.57452911148117
  0
ARC
  5
45D
330
17
100
AcDbEntity
  8
IMAGE
100
AcDbCircle
 10
1.042249853638986
 20
6.032194916277033
 30
0.0
 40
0.0086785395885068
100
AcDbArc
 50
91.69680972253539
 51
231.5745291114778
  0
ARC
  5
45E
330
17
100
AcDbEntity
  8
IMAGE
100
AcDbCircle
 10
0.5748623156018478
 20
6.213856167824966
 30
0.0
 40
0.0086785395885068
100
AcDbArc
 50
89.237141846974
 51
229.1148612359164
  0
ARC
  5
45F
330
17
100
AcDbEntity
  8
IMAGE
100
AcDbCircle
 10
0.7499564889030928
 20
6.158435996936299
 30
0.0
 40
0.0086785395885068
100
AcDbArc
 50
269.237141846974
 51
49.11486123591977
  0
ARC
  5
460
330
17
100
AcDbEntity
  8
IMAGE
100
AcDbCircle
 10
0.5741748168044541
 20
6.16222343415332
 30
0.0
 40
0.0086785395885068
100
AcDbArc
 50
89.237141846974
 51
229.1148612359164
  0
LWPOLYLINE
  5
461
330
17
100
AcDbEntity
  8
IMAGE
100
AcDbPolyline
 90
        2
 70
     0
 43
0.0
 10
0.5749778616182169
 20
6.222533938189952
 10
0.7556369813439701
 20
6.164997174804325
  0
LWPOLYLINE
  5
465
330
17
100
AcDbEntity
  8
IMAGE
100
AcDbPolyline
 90
        2
 70
     0
 43
0.0
 10
0.5691818231610717
 20
6.207294989956894
 10
0.7498409428867113
 20
6.149758226571316
  0
LWPOLYLINE
  5
469
330
17
100
AcDbEntity
  8
IMAGE
100
AcDbPolyline
 90
        2
 70
     0
 43
0.0
 10
0.5742903628208249
 20
6.170901204518303
 10
0.7549494825465728
 20
6.113364441132679
  0
LWPOLYLINE
  5
46D
330
17
100
AcDbEntity
  8
IMAGE
100
AcDbPolyline
 90
        2
 70
     0
 43
0.0
 10
0.5684943243636691
 20
6.155662256285248
 10
0.7491534440893246
 20
6.09812549289967
  0
ARC
  5
471
330
17
100
AcDbEntity
  8
IMAGE
100
AcDbCircle
 10
0.7492689901056884
 20
6.10680326326465
 30
0.0
 40
0.0086785395885068
100
AcDbArc
 50
269.237141846974
 51
49.11486123591977
  0
ARC
  5
472
330
17
100
AcDbEntity
  8
IMAGE
100
AcDbCircle
 10
0.573487318007055
 20
6.110590700481671
 30
0.0
 40
0.0086785395885068
100
AcDbArc
 50
89.237141846974
 51
229.1148612359164
  0
LWPOLYLINE
  5
473
330
17
100
AcDbEntity
  8
IMAGE
100
AcDbPolyline
 90
        2
 70
     0
 43
0.0
 10
0.5736028640234277
 20
6.119268470846657
 10
0.7542619837491844
 20
6.06173170746103
  0
LWPOLYLINE
  5
477
330
17
100
AcDbEntity
  8
IMAGE
100
AcDbPolyline
 90
        2
 70
     0
 43
0.0
 10
0.5678068255662807
 20
6.104029522613602
 10
0.7484659452919274
 20
6.046492759228021
  0
ARC
  5
47B
330
17
100
AcDbEntity
  8
IMAGE
100
AcDbCircle
 10
0.7485814913083018
 20
6.055170529593004
 30
0.0
 40
0.0086785395885068
100
AcDbArc
 50
269.237141846974
 51
49.11486123591977
  0
LWPOLYLINE
  5
47C
330
17
100
AcDbEntity
  8
IMAGE
100
AcDbPolyline
 90
        2
 70
     0
 43
0.0
 10
0.572915365226034
 20
6.067635737175008
 10
0.753574484951789
 20
6.010098973789387
  0
ARC
  5
480
330
17
100
AcDbEntity
  8
IMAGE
100
AcDbCircle
 10
0.5727998192096649
 20
6.058957966810028
 30
0.0
 40
0.0086785395885068
100
AcDbArc
 50
89.237141846974
 51
229.1148612359164
  0
LWPOLYLINE
  5
481
330
17
100
AcDbEntity
  8
IMAGE
100
AcDbPolyline
 90
        2
 70
     0
 43
0.0
 10
0.5671193267688853
 20
6.052396788941956
 10
0.7477784464945337
 20
5.994860025556375
  0
ARC
  5
485
330
17
100
AcDbEntity
  8
IMAGE
100
AcDbCircle
 10
0.5721123204118892
 20
6.007325233138521
 30
0.0
 40
0.0086785395885068
100
AcDbArc
 50
89.237141846974
 51
229.1148612359164
  0
LWPOLYLINE
  5
486
330
17
100
AcDbEntity
  8
IMAGE
100
AcDbPolyline
 90
        2
 70
     0
 43
0.0
 10
0.5722278664282654
 20
6.016003003503501
 10
0.7528869861540187
 20
5.958466240117877
  0
LWPOLYLINE
  5
48A
330
17
100
AcDbEntity
  8
IMAGE
100
AcDbPolyline
 90
        2
 70
     0
 43
0.0
 10
0.5664318279711203
 20
6.000764055270446
 10
0.7470909476967651
 20
5.943227291884864
  0
ARC
  5
48E
330
17
100
AcDbEntity
  8
IMAGE
100
AcDbCircle
 10
0.7478939925105279
 20
6.003537795921497
 30
0.0
 40
0.0086785395885068
100
AcDbArc
 50
269.237141846974
 51
49.11486123591977
  0
ARC
  5
48F
330
17
100
AcDbEntity
  8
IMAGE
100
AcDbCircle
 10
0.7472064937131378
 20
5.951905062249851
 30
0.0
 40
0.0086785395885068
100
AcDbArc
 50
269.237141846974
 51
49.11486123591977
  0
ARC
  5
490
330
17
100
AcDbEntity
  8
IMAGE
100
AcDbCircle
 10
0.5714248216145044
 20
5.955692499466868
 30
0.0
 40
0.0086785395885068
100
AcDbArc
 50
89.237141846974
 51
229.1148612359164
  0
LWPOLYLINE
  5
491
330
17
100
AcDbEntity
  8
IMAGE
100
AcDbPolyline
 90
        2
 70
     0
 43
0.0
 10
0.5715403676308682
 20
5.964370269831855
 10
0.7521994873566232
 20
5.906833506446231
  0
LWPOLYLINE
  5
495
330
17
100
AcDbEntity
  8
IMAGE
100
AcDbPolyline
 90
        2
 70
     0
 43
0.0
 10
0.565744329173723
 20
5.9491313215988
 10
0.7464034488993661
 20
5.891594558213219
  0
LWPOLYLINE
  5
499
330
17
100
AcDbEntity
  8
IMAGE
100
AcDbPolyline
 90
        2
 70
     0
 43
0.0
 10
0.7470909476967651
 20
5.943227291884864
 10
0.6287906869778453
 20
5.946137046493786
  0
LWPOLYLINE
  5
49D
330
17
100
AcDbEntity
  8
IMAGE
100
AcDbPolyline
 90
        2
 70
     0
 43
0.0
 10
0.6898406283497827
 20
5.961460515222933
 10
0.5715403676308682
 20
5.964370269831855
  0
LWPOLYLINE
  5
4A1
330
17
100
AcDbEntity
  8
IMAGE
100
AcDbPolyline
 90
        2
 70
     0
 43
0.0
 10
0.7477784464941571
 20
5.994860025556514
 10
0.6294781857752461
 20
5.997769780165432
  0
LWPOLYLINE
  5
4A5
330
17
100
AcDbEntity
  8
IMAGE
100
AcDbPolyline
 90
        2
 70
     0
 43
0.0
 10
0.6905281271470858
 20
6.013093248894589
 10
0.5722278664282654
 20
6.016003003503501
  0
LWPOLYLINE
  5
4A9
330
17
100
AcDbEntity
  8
IMAGE
100
AcDbPolyline
 90
        2
 70
     0
 43
0.0
 10
0.6912156259449449
 20
6.064725982566086
 10
0.572915365226034
 20
6.067635737175008
  0
LWPOLYLINE
  5
4AD
330
17
100
AcDbEntity
  8
IMAGE
100
AcDbPolyline
 90
        2
 70
     0
 43
0.0
 10
0.6919031247423369
 20
6.116358716237735
 10
0.5736028640234277
 20
6.119268470846657
  0
LWPOLYLINE
  5
4B1
330
17
100
AcDbEntity
  8
IMAGE
100
AcDbPolyline
 90
        2
 70
     0
 43
0.0
 10
0.6925906235397341
 20
6.167991449909377
 10
0.5742903628208249
 20
6.170901204518303
  0
LWPOLYLINE
  5
4B5
330
17
100
AcDbEntity
  8
IMAGE
100
AcDbPolyline
 90
        2
 70
     0
 43
0.0
 10
0.6932781223371172
 20
6.21962418358103
 10
0.5749778616182169
 20
6.222533938189952
  0
LWPOLYLINE
  5
4B9
330
17
100
AcDbEntity
  8
IMAGE
100
AcDbPolyline
 90
        2
 70
     0
 43
0.0
 10
0.7498409428867113
 20
6.149758226571316
 10
0.6315406821677967
 20
6.152667981180234
  0
LWPOLYLINE
  5
4BD
330
17
100
AcDbEntity
  8
IMAGE
100
AcDbPolyline
 90
        2
 70
     0
 43
0.0
 10
0.7491534440893246
 20
6.09812549289967
 10
0.6308531833704083
 20
6.101035247508585
  0
LWPOLYLINE
  5
4C1
330
17
100
AcDbEntity
  8
IMAGE
100
AcDbPolyline
 90
        2
 70
     0
 43
0.0
 10
0.7484659452919274
 20
6.046492759228021
 10
0.6301656845730164
 20
6.049402513836936
  0
LWPOLYLINE
  5
4C5
330
17
100
AcDbEntity
  8
IMAGE
100
AcDbPolyline
 90
        2
 70
     0
 43
0.0
 10
0.7443409525068066
 20
5.736696357198416
 10
0.6260406917878974
 20
5.739606111807331
  0
LWPOLYLINE
  5
4C9
330
17
100
AcDbEntity
  8
IMAGE
100
AcDbPolyline
 90
        2
 70
     0
 43
0.0
 10
0.7450284513042056
 20
5.788329090870066
 10
0.6267281905852911
 20
5.791238845478984
  0
LWPOLYLINE
  5
4CD
330
17
100
AcDbEntity
  8
IMAGE
100
AcDbPolyline
 90
        2
 70
     0
 43
0.0
 10
0.7457159501015922
 20
5.839961824541711
 10
0.6274156893826777
 20
5.842871579150633
  0
LWPOLYLINE
  5
4D1
330
17
100
AcDbEntity
  8
IMAGE
100
AcDbPolyline
 90
        2
 70
     0
 43
0.0
 10
0.7464034488989966
 20
5.891594558213357
 10
0.6281031881800803
 20
5.894504312822276
  0
LWPOLYLINE
  5
4D5
330
17
100
AcDbEntity
  8
IMAGE
100
AcDbPolyline
 90
        2
 70
     0
 43
0.0
 10
0.6891531295519964
 20
5.909827781551429
 10
0.5708528688330979
 20
5.912737536160348
  0
LWPOLYLINE
  5
4D9
330
17
100
AcDbEntity
  8
IMAGE
100
AcDbPolyline
 90
        2
 70
     0
 43
0.0
 10
0.6884656307546151
 20
5.858195047879776
 10
0.5701653700357059
 20
5.861104802488698
  0
LWPOLYLINE
  5
4DD
330
17
100
AcDbEntity
  8
IMAGE
100
AcDbPolyline
 90
        2
 70
     0
 43
0.0
 10
0.6877781319572196
 20
5.806562314208131
 10
0.5694778712383087
 20
5.809472068817052
  0
LWPOLYLINE
  5
4E1
330
17
100
AcDbEntity
  8
IMAGE
100
AcDbPolyline
 90
        2
 70
     0
 43
0.0
 10
0.6870906331598259
 20
5.754929580536488
 10
0.5687903724409167
 20
5.7578393351454
  0
LWPOLYLINE
  5
4E5
330
17
100
AcDbEntity
  8
IMAGE
100
AcDbPolyline
 90
        2
 70
     0
 43
0.0
 10
0.6864031343619668
 20
5.703296846864981
 10
0.5681028736431464
 20
5.706206601473899
  0
LWPOLYLINE
  5
4E9
330
17
100
AcDbEntity
  8
IMAGE
100
AcDbPolyline
 90
        2
 70
     0
 43
0.0
 10
0.7436534537090381
 20
5.685063623526909
 10
0.6253531929901306
 20
5.687973378135831
  0
ARC
  5
4ED
330
17
100
AcDbEntity
  8
IMAGE
100
AcDbCircle
 10
0.7437689997254089
 20
5.693741393891896
 30
0.0
 40
0.0086785395885068
100
AcDbArc
 50
269.237141846974
 51
49.11486123591977
  0
LWPOLYLINE
  5
4EE
330
17
100
AcDbEntity
  8
IMAGE
100
AcDbPolyline
 90
        2
 70
     0
 43
0.0
 10
0.562306835186003
 20
5.690967653240841
 10
0.7429659549116479
 20
5.633430889855263
  0
LWPOLYLINE
  5
4F2
330
17
100
AcDbEntity
  8
IMAGE
100
AcDbPolyline
 90
        2
 70
     0
 43
0.0
 10
0.5681028736431464
 20
5.706206601473899
 10
0.7487619933689014
 20
5.648669838088272
  0
LWPOLYLINE
  5
4F6
330
17
100
AcDbEntity
  8
IMAGE
100
AcDbPolyline
 90
        2
 70
     0
 43
0.0
 10
0.5629943339837662
 20
5.742600386912355
 10
0.7436534537094146
 20
5.685063623526767
  0
LWPOLYLINE
  5
4FA
330
17
100
AcDbEntity
  8
IMAGE
100
AcDbPolyline
 90
        2
 70
     0
 43
0.0
 10
0.5687903724409167
 20
5.7578393351454
 10
0.7494494921666699
 20
5.700302571759783
  0
ARC
  5
4FE
330
17
100
AcDbEntity
  8
IMAGE
100
AcDbCircle
 10
0.7444564985231828
 20
5.745374127563396
 30
0.0
 40
0.0086785395885068
100
AcDbArc
 50
269.237141846974
 51
49.11486123591977
  0
LWPOLYLINE
  5
4FF
330
17
100
AcDbEntity
  8
IMAGE
100
AcDbPolyline
 90
        2
 70
     0
 43
0.0
 10
0.5636818327811653
 20
5.794233120583998
 10
0.7443409525068066
 20
5.736696357198416
  0
LWPOLYLINE
  5
503
330
17
100
AcDbEntity
  8
IMAGE
100
AcDbPolyline
 90
        2
 70
     0
 43
0.0
 10
0.5694778712383087
 20
5.809472068817052
 10
0.7501369909640672
 20
5.751935305431432
  0
ARC
  5
507
330
17
100
AcDbEntity
  8
IMAGE
100
AcDbCircle
 10
0.5693623252219378
 20
5.800794298452069
 30
0.0
 40
0.0086785395885068
100
AcDbArc
 50
89.237141846974
 51
229.1148612359164
  0
ARC
  5
508
330
17
100
AcDbEntity
  8
IMAGE
100
AcDbCircle
 10
0.7451439973205712
 20
5.797006861235052
 30
0.0
 40
0.0086785395885068
100
AcDbArc
 50
269.237141846974
 51
49.11486123591977
  0
LWPOLYLINE
  5
509
330
17
100
AcDbEntity
  8
IMAGE
100
AcDbPolyline
 90
        2
 70
     0
 43
0.0
 10
0.5643693315785501
 20
5.845865854255647
 10
0.7450284513042056
 20
5.788329090870066
  0
LWPOLYLINE
  5
50D
330
17
100
AcDbEntity
  8
IMAGE
100
AcDbPolyline
 90
        2
 70
     0
 43
0.0
 10
0.5701653700357059
 20
5.861104802488698
 10
0.7508244897614538
 20
5.803568039103078
  0
LWPOLYLINE
  5
511
330
17
100
AcDbEntity
  8
IMAGE
100
AcDbPolyline
 90
        2
 70
     0
 43
0.0
 10
0.5650568303759527
 20
5.897498587927293
 10
0.7457159501015922
 20
5.839961824541711
  0
LWPOLYLINE
  5
515
330
17
100
AcDbEntity
  8
IMAGE
100
AcDbPolyline
 90
        2
 70
     0
 43
0.0
 10
0.5708528688330979
 20
5.912737536160348
 10
0.7515119885588511
 20
5.855200772774727
  0
ARC
  5
519
330
17
100
AcDbEntity
  8
IMAGE
100
AcDbCircle
 10
0.5700498240193368
 20
5.852427032123712
 30
0.0
 40
0.0086785395885068
100
AcDbArc
 50
89.237141846974
 51
229.1148612359164
  0
ARC
  5
51A
330
17
100
AcDbEntity
  8
IMAGE
100
AcDbCircle
 10
0.7458314961179738
 20
5.848639594906694
 30
0.0
 40
0.0086785395885068
100
AcDbArc
 50
269.237141846974
 51
49.11486123591977
  0
ARC
  5
51B
330
17
100
AcDbEntity
  8
IMAGE
100
AcDbCircle
 10
0.7465189949153604
 20
5.90027232857834
 30
0.0
 40
0.0086785395885068
100
AcDbArc
 50
269.237141846974
 51
49.11486123591977
  0
ARC
  5
51C
330
17
100
AcDbEntity
  8
IMAGE
100
AcDbCircle
 10
0.570737322816727
 20
5.904059765795368
 30
0.0
 40
0.0086785395885068
100
AcDbArc
 50
89.237141846974
 51
229.1148612359164
  0
LINE
  5
51D
330
17
100
AcDbEntity
  8
IMAGE
100
AcDbLine
 10
1.37569560938832
 20
6.493695154318738
 30
0.0
 11
1.313882755747033
 21
6.453746387474092
 31
0.0
  0
LINE
  5
51E
330
17
100
AcDbEntity
  8
IMAGE
100
AcDbLine
 10
1.107262399556125
 20
6.17064611359048
 30
0.0
 11
1.200583149191655
 21
6.17064611359048
 31
0.0
  0
LINE
  5
51F
330
17
100
AcDbEntity
  8
IMAGE
100
AcDbLine
 10
1.200583149191655
 20
6.344269974257956
 30
0.0
 11
1.200583149191655
 21
6.17064611359048
 31
0.0
  0
LINE
  5
520
330
17
100
AcDbEntity
  8
IMAGE
100
AcDbLine
 10
1.107262399556125
 20
6.344269974257956
 30
0.0
 11
1.200583149191655
 21
6.344269974257956
 31
0.0
  0
LINE
  5
521
330
17
100
AcDbEntity
  8
IMAGE
100
AcDbLine
 10
1.107262399556125
 20
6.17064611359048
 30
0.0
 11
1.107262399556125
 21
6.344269974257956
 31
0.0
  0
LINE
  5
522
330
17
100
AcDbEntity
  8
IMAGE
100
AcDbLine
 10
1.37569560938832
 20
6.493695154318738
 30
0.0
 11
1.37569560938832
 21
6.554569465701062
 31
0.0
  0
LINE
  5
523
330
17
100
AcDbEntity
  8
IMAGE
100
AcDbLine
 10
1.428949760217734
 20
6.493695154318738
 30
0.0
 11
1.428949760217734
 21
6.542387791889249
 31
0.0
  0
LINE
  5
524
330
17
100
AcDbEntity
  8
IMAGE
100
AcDbLine
 10
1.428949760217734
 20
6.493695154318738
 30
0.0
 11
1.490762613859021
 21
6.453746387474092
 31
0.0
  0
ARC
  5
525
330
17
100
AcDbEntity
  8
IMAGE
100
AcDbCircle
 10
1.490762613859019
 20
6.429021246017578
 30
0.0
 40
0.0247251414565142
100
AcDbArc
 50
0.0
 51
90.0
  0
LINE
  5
526
330
17
100
AcDbEntity
  8
IMAGE
100
AcDbLine
 10
1.515487755315535
 20
6.429021246017578
 30
0.0
 11
1.515487755315534
 21
6.301555561475739
 31
0.0
  0
LINE
  5
527
330
17
100
AcDbEntity
  8
IMAGE
100
AcDbLine
 10
1.490762613859019
 20
6.276830420019225
 30
0.0
 11
1.313882755747033
 21
6.276830420019225
 31
0.0
  0
ARC
  5
528
330
17
100
AcDbEntity
  8
IMAGE
100
AcDbCircle
 10
1.490762613859019
 20
6.301555561475739
 30
0.0
 40
0.0247251414565142
100
AcDbArc
 50
270.0
 51
359.9999999999998
  0
ARC
  5
529
330
17
100
AcDbEntity
  8
IMAGE
100
AcDbCircle
 10
1.313882755747033
 20
6.301555561475735
 30
0.0
 40
0.0247251414565142
100
AcDbArc
 50
180.0
 51
270.0
  0
LINE
  5
52A
330
17
100
AcDbEntity
  8
IMAGE
100
AcDbLine
 10
1.289157614290519
 20
6.301555561475735
 30
0.0
 11
1.289157614290519
 21
6.429021246017578
 31
0.0
  0
ARC
  5
52B
330
17
100
AcDbEntity
  8
IMAGE
100
AcDbCircle
 10
1.313882755747033
 20
6.429021246017578
 30
0.0
 40
0.0247251414565142
100
AcDbArc
 50
90.0
 51
179.9999999999998
  0
LINE
  5
52C
330
17
100
AcDbEntity
  8
IMAGE
100
AcDbLine
 10
1.267490170784369
 20
5.960589234957817
 30
0.0
 11
1.360810920419898
 21
5.960589234957817
 31
0.0
  0
LINE
  5
52D
330
17
100
AcDbEntity
  8
IMAGE
100
AcDbLine
 10
1.360810920419898
 20
6.134213095625293
 30
0.0
 11
1.360810920419898
 21
5.960589234957817
 31
0.0
  0
LINE
  5
52E
330
17
100
AcDbEntity
  8
IMAGE
100
AcDbLine
 10
1.267490170784369
 20
5.960589234957817
 30
0.0
 11
1.267490170784369
 21
6.134213095625293
 31
0.0
  0
LINE
  5
52F
330
17
100
AcDbEntity
  8
IMAGE
100
AcDbLine
 10
1.267490170784369
 20
6.134213095625293
 30
0.0
 11
1.360810920419898
 21
6.134213095625293
 31
0.0
  0
ARC
  5
530
330
17
100
AcDbEntity
  8
IMAGE
100
AcDbCircle
 10
1.402322684803025
 20
6.555148197020821
 30
0.0
 40
0.01359606487378
100
AcDbArc
 50
29.34958118136293
 51
312.963328414365
  0
ARC
  5
531
330
17
100
AcDbEntity
  8
IMAGE
100
AcDbCircle
 10
1.402322684803025
 20
6.555148197020821
 30
0.0
 40
0.0266333639460173
100
AcDbArc
 50
9.376694459170549
 51
181.2451101623595
  0
LWPOLYLINE
  5
532
330
17
100
AcDbEntity
  8
IMAGE
100
AcDbPolyline
 90
        2
 70
     0
 43
0.0
 10
0.561619336388604
 20
5.639334919569199
 10
0.6955416932849814
 20
5.596682996032273
  0
LWPOLYLINE
  5
536
330
17
100
AcDbEntity
  8
IMAGE
100
AcDbPolyline
 90
        2
 70
     0
 43
0.0
 10
1.228992170937732
 20
5.665977424489865
 10
1.110676027362666
 20
5.663807510304531
  0
LWPOLYLINE
  5
53A
330
17
100
AcDbEntity
  8
IMAGE
100
AcDbPolyline
 90
        2
 70
     0
 43
0.0
 10
0.6857156355646637
 20
5.651664113193332
 10
0.5674153748457491
 20
5.65457386780225
  0
LWPOLYLINE
  5
53E
330
17
100
AcDbEntity
  8
IMAGE
100
AcDbPolyline
 90
        2
 70
     0
 43
0.0
 10
0.7429659549116479
 20
5.633430889855263
 10
0.6246656941927263
 20
5.636340644464182
  0
ARC
  5
542
330
17
100
AcDbEntity
  8
IMAGE
100
AcDbCircle
 10
0.743081500928017
 20
5.64210866022025
 30
0.0
 40
0.0086785395885068
100
AcDbArc
 50
269.237141846974
 51
49.11486123591977
  0
LWPOLYLINE
  5
543
330
17
100
AcDbEntity
  8
IMAGE
100
AcDbPolyline
 90
       42
 70
     0
 43
0.0
 10
1.378541707218564
 20
6.567139910001388
 10
1.36299295610046
 20
6.573400854818421
 10
1.348677438831306
 20
6.578132586433367
 10
1.335550407436716
 20
6.581477957244713
 10
1.323567113942299
 20
6.583579819650934
 10
1.312682810373668
 20
6.584581026050512
 10
1.302852748756435
 20
6.584624428841925
 10
1.294032181116212
 20
6.583852880423661
 10
1.286176359478607
 20
6.582409233194189
 10
1.279231882074307
 20
6.580412753565719
 10
1.273110731954268
 20
6.577888364005369
 10
1.267716238374523
 20
6.574837400993972
 10
1.262951730591102
 20
6.571261201012378
 10
1.258720537860038
 20
6.567161100541417
 10
1.254925989437361
 20
6.562538436061933
 10
1.251471414579101
 20
6.557394544054771
 10
1.248260142541288
 20
6.551730761000763
 10
1.245223538081137
 20
6.545548980247774
 10
1.242405107960587
 20
6.53885332261172
 10
1.239876394442755
 20
6.531648465775548
 10
1.237708939790768
 20
6.523939087422197
 10
1.235974286267741
 20
6.515729865234606
 10
1.234743976136799
 20
6.507025476895718
 10
1.234089551661062
 20
6.497830600088471
 10
1.234082555103648
 20
6.488149912495808
 10
1.234771298654553
 20
6.478017494379153
 10
1.23611117421125
 20
6.467585036313872
 10
1.23803434359809
 20
6.457033631453812
 10
1.240472968639417
 20
6.446544372952823
 10
1.243359211159581
 20
6.436298353964749
 10
1.246625232982928
 20
6.426476667643443
 10
1.250203195933804
 20
6.417260407142753
 10
1.254025261836561
 20
6.408830665616529
 10
1.258028809482742
 20
6.401317415826481
 10
1.262172085532712
 20
6.394646148965763
 10
1.266418553614028
 20
6.388691235835397
 10
1.270731677354249
 20
6.3833270472364
 10
1.275074920380938
 20
6.378427953969806
 10
1.279411746321657
 20
6.373868326836619
 10
1.283705618803961
 20
6.369522536637868
 10
1.287920001455416
 20
6.365264954174568
 10
1.289157614290521
 20
6.363969010219966
  0
LWPOLYLINE
  5
56F
330
17
100
AcDbEntity
  8
IMAGE
100
AcDbPolyline
 90
        5
 70
     0
 43
0.0
 10
1.323601472002708
 20
6.276830420019225
 10
1.32450459957488
 20
6.267616652911202
 10
1.325336792748817
 20
6.255382244986906
 10
1.325840559341881
 20
6.24280051263082
 10
1.327274223745584
 20
6.134213095625293
  0
LWPOLYLINE
  5
576
330
17
100
AcDbEntity
  8
IMAGE
100
AcDbPolyline
 90
       47
 70
     0
 43
0.0
 10
1.37569560938832
 20
6.550027172515429
 10
1.373512106699899
 20
6.550975355118419
 10
1.37002217852573
 20
6.552456658859854
 10
1.36543919790185
 20
6.554339828925803
 10
1.359976537864304
 20
6.556493610502345
 10
1.353847571449134
 20
6.558786748775558
 10
1.347265671692382
 20
6.561087988931516
 10
1.34044421163009
 20
6.563266076156294
 10
1.333596564298301
 20
6.565189755635971
 10
1.326905297812403
 20
6.566749793042818
 10
1.320429760605177
 20
6.567925035993882
 10
1.314198496188749
 20
6.568716352592408
 10
1.308240048075242
 20
6.569124610941644
 10
1.302582959776789
 20
6.569150679144827
 10
1.297255774805511
 20
6.568795425305209
 10
1.292287036673539
 20
6.568059717526031
 10
1.287705288892994
 20
6.566944423910532
 10
1.283527006743614
 20
6.565447430473723
 10
1.279720392575545
 20
6.563554694877621
 10
1.276241580506547
 20
6.561249192696015
 10
1.273046704654377
 20
6.558513899502679
 10
1.270091899136791
 20
6.555331790871397
 10
1.267333298071544
 20
6.551685842375951
 10
1.264727035576396
 20
6.54755902959012
 10
1.262229245769101
 20
6.542934328087694
 10
1.259815282478421
 20
6.537798628541862
 10
1.257537378377127
 20
6.532154482023523
 10
1.255466985848994
 20
6.526008354702979
 10
1.253675557277799
 20
6.519366712750541
 10
1.252234545047316
 20
6.512236022336514
 10
1.251215401541318
 20
6.504622749631215
 10
1.250689579143585
 20
6.496533360804944
 10
1.25072853023789
 20
6.48797432202801
 10
1.251382144809406
 20
6.478978516900683
 10
1.252614063248905
 20
6.469684498743065
 10
1.25436636354856
 20
6.460257238305215
 10
1.256581123700539
 20
6.450861706337198
 10
1.259200421697017
 20
6.441662873589068
 10
1.262166335530159
 20
6.432825710810893
 10
1.265420943192141
 20
6.424515188752733
 10
1.268906322675131
 20
6.416896278164644
 10
1.272570434496111
 20
6.410085432820254
 10
1.276384769271307
 20
6.404005038587447
 10
1.280326700141754
 20
6.398528964357671
 10
1.284373600248483
 20
6.393531079022379
 10
1.288502842732536
 20
6.388885251473011
 10
1.289157614290519
 20
6.388194381481374
  0
LWPOLYLINE
  5
5A7
330
17
100
AcDbEntity
  8
IMAGE
100
AcDbPolyline
 90
        5
 70
     0
 43
0.0
 10
1.340421962119641
 20
6.276830420019221
 10
1.341175894262908
 20
6.269382636667286
 10
1.342092138938542
 20
6.25641931502214
 10
1.342644747511152
 20
6.243238144865026
 10
1.344166594887199
 20
6.134213095625293
  0
TEXT
  5
5AE
330
17
100
AcDbEntity
  8
TEXT_BUBBLES
100
AcDbText
 10
4.753372593417307
 20
4.68780830116737
 30
0.0
 40
0.1250000018625
  1
UV RADIATION RESISTANT
  7
ROMANS
100
AcDbText
  0
TEXT
  5
5C3
330
17
100
AcDbEntity
  8
TEXT_BUBBLES
100
AcDbText
 10
4.755081908821898
 20
6.513064684228999
 30
0.0
 40
0.1250000018625
  1
  RAIN BIRD SPLICE-1 (1 OF 2)
  7
ROMANS
100
AcDbText
  0
TEXT
  5
5C4
330
17
100
AcDbEntity
  8
TEXT_BUBBLES
100
AcDbText
 10
4.755081908821898
 20
6.710564674692749
 30
0.0
 40
0.1250000018625
  1
WATERPROOF CONNECTION: 
  7
ROMANS
100
AcDbText
  0
TEXT
  5
5C5
330
17
100
AcDbEntity
  8
TEXT_BUBBLES
100
AcDbText
 10
4.755081908821898
 20
7.060564674692749
 30
0.0
 40
0.1250000018625
  1
ID TAG: RAIN BIRD VID SERIES
  7
ROMANS
100
AcDbText
  0
TEXT
  5
5C6
330
17
100
AcDbEntity
  8
TEXT_BUBBLES
100
AcDbText
 10
4.755081908821898
 20
5.988064684229001
 30
0.0
 40
0.1250000018625
  1
  OF WIRE, COILED
  7
ROMANS
100
AcDbText
  0
TEXT
  5
5C7
330
17
100
AcDbEntity
  8
TEXT_BUBBLES
100
AcDbText
 10
4.755081908821898
 20
6.18556467469275
 30
0.0
 40
0.1250000018625
  1
30-INCH LINEAR LENGTH
  7
ROMANS
100
AcDbText
  0
TEXT
  5
5C8
330
17
100
AcDbEntity
  8
TEXT_BUBBLES
100
AcDbText
 10
4.753372593417307
 20
3.98780830116737
 30
0.0
 40
0.1250000018625
  1
UV RADIATION RESISTANT
  7
ROMANS
100
AcDbText
  0
TEXT
  5
5CA
330
17
100
AcDbEntity
  8
TEXT_BUBBLES
100
AcDbText
 10
4.755081908821898
 20
5.660564674692749
 30
0.0
 40
0.1250000018625
  1
REMOTE CONTROL VALVE:
  7
ROMANS
100
AcDbText
  0
TEXT
  5
5CB
330
17
100
AcDbEntity
  8
TEXT_BUBBLES
100
AcDbText
 10
4.753372593417307
 20
3.28780830116737
 30
0.0
 40
0.1250000018625
  1
FINISH GRADE/TOP OF MULCH
  7
ROMANS
100
AcDbText
  0
TEXT
  5
5D0
330
17
100
AcDbEntity
  8
TEXT_BUBBLES
100
AcDbText
 10
4.753372593417307
 20
2.41280830116737
 30
0.0
 40
0.1250000018625
  1
PVC LATERAL PIPE
  7
ROMANS
100
AcDbText
  0
LWPOLYLINE
  5
5D3
330
17
100
AcDbEntity
  8
IMAGE
100
AcDbPolyline
 90
       41
 70
     0
 43
0.0
 10
1.395334769114122
 20
6.565359306025586
 10
1.409226952774285
 20
6.562746475802091
 10
1.425011845453258
 20
6.559764972642957
 10
1.441255813739009
 20
6.556687578306076
 10
1.457726573601413
 20
6.553561125767588
 10
1.474191841010339
 20
6.55043244800362
 10
1.490419331935656
 20
6.547348377990312
 10
1.506176762347235
 20
6.544355748703795
 10
1.521231848214948
 20
6.541501393120201
 10
1.535404414721129
 20
6.538819187077082
 10
1.548722723897966
 20
6.536291177857654
 10
1.56126714699011
 20
6.533886455606539
 10
1.573118055242212
 20
6.531574110468367
 10
1.584355819898927
 20
6.529323232587765
 10
1.595060812204901
 20
6.527102912109361
 10
1.605313403404792
 20
6.524882239177783
 10
1.615193964743247
 20
6.522630303937654
 10
1.624764595504872
 20
6.520319960743057
 10
1.634014307134074
 20
6.517939120785834
 10
1.642913839115214
 20
6.515479459467295
 10
1.651433930932653
 20
6.512932652188736
 10
1.659545322070754
 20
6.51029037435145
 10
1.667218752013876
 20
6.507544301356743
 10
1.674424960246379
 20
6.504686108605911
 10
1.681134686252625
 20
6.501707471500255
 10
1.687345482524823
 20
6.498595227772833
 10
1.693162153586578
 20
6.495316864483738
 10
1.698716316969336
 20
6.491835031024821
 10
1.704139590204552
 20
6.488112376787944
 10
1.709563590823678
 20
6.484111551164952
 10
1.715119936358163
 20
6.4797952035477
 10
1.720940244339458
 20
6.475125983328046
 10
1.727156132299016
 20
6.470066539897841
 10
1.733821537727341
 20
6.464559986985792
 10
1.740679677951155
 20
6.458471295668042
 10
1.747396090256239
 20
6.451645901357588
 10
1.753636311928365
 20
6.44392923946742
 10
1.759065880253314
 20
6.435166745410542
 10
1.763350332516862
 20
6.425203854599944
 10
1.766155206004785
 20
6.413886002448625
 10
1.76714603800286
 20
6.401058624369577
  0
POLYLINE
  5
5FE
330
17
100
AcDbEntity
  8
IMAGE
100
AcDb2dPolyline
 66
     1
 10
0.0
 20
0.0
 30
0.0
 70
     4
 75
     6
  0
VERTEX
  5
5FF
330
5FE
100
AcDbEntity
  8
IMAGE
100
AcDbVertex
100
AcDb2dVertex
 10
1.391033727143383
 20
6.549060176599519
 30
0.0
 70
    16
  0
VERTEX
  5
600
330
5FE
100
AcDbEntity
  8
IMAGE
100
AcDbVertex
100
AcDb2dVertex
 10
1.391033727143383
 20
6.549060176599519
 30
0.0
 70
     8
  0
VERTEX
  5
601
330
5FE
100
AcDbEntity
  8
IMAGE
100
AcDbVertex
100
AcDb2dVertex
 10
1.406117856837011
 20
6.546223160357838
 30
0.0
 70
     8
  0
VERTEX
  5
602
330
5FE
100
AcDbEntity
  8
IMAGE
100
AcDbVertex
100
AcDb2dVertex
 10
1.421894447671703
 20
6.543243210130322
 30
0.0
 70
     8
  0
VERTEX
  5
603
330
5FE
100
AcDbEntity
  8
IMAGE
100
AcDbVertex
100
AcDb2dVertex
 10
1.438129210478714
 20
6.540167533391551
 30
0.0
 70
     8
  0
VERTEX
  5
604
330
5FE
100
AcDbEntity
  8
IMAGE
100
AcDbVertex
100
AcDb2dVertex
 10
1.454587856089309
 20
6.537043337616102
 30
0.0
 70
     8
  0
VERTEX
  5
605
330
5FE
100
AcDbEntity
  8
IMAGE
100
AcDbVertex
100
AcDb2dVertex
 10
1.471036095334743
 20
6.533917830278559
 30
0.0
 70
     8
  0
VERTEX
  5
606
330
5FE
100
AcDbEntity
  8
IMAGE
100
AcDbVertex
100
AcDb2dVertex
 10
1.487239639046277
 20
6.530838218853501
 30
0.0
 70
     8
  0
VERTEX
  5
607
330
5FE
100
AcDbEntity
  8
IMAGE
100
AcDbVertex
100
AcDb2dVertex
 10
1.502964198055172
 20
6.527851710815506
 30
0.0
 70
     8
  0
VERTEX
  5
608
330
5FE
100
AcDbEntity
  8
IMAGE
100
AcDbVertex
100
AcDb2dVertex
 10
1.517975483192688
 20
6.525005513639152
 30
0.0
 70
     8
  0
VERTEX
  5
609
330
5FE
100
AcDbEntity
  8
IMAGE
100
AcDbVertex
100
AcDb2dVertex
 10
1.532090853033756
 20
6.522334108429832
 30
0.0
 70
     8
  0
VERTEX
  5
60A
330
5FE
100
AcDbEntity
  8
IMAGE
100
AcDbVertex
100
AcDb2dVertex
 10
1.545334257127998
 20
6.519821070816201
 30
0.0
 70
     8
  0
VERTEX
  5
60B
330
5FE
100
AcDbEntity
  8
IMAGE
100
AcDbVertex
100
AcDb2dVertex
 10
1.557781292768712
 20
6.517437250057716
 30
0.0
 70
     8
  0
VERTEX
  5
60C
330
5FE
100
AcDbEntity
  8
IMAGE
100
AcDbVertex
100
AcDb2dVertex
 10
1.569507557249191
 20
6.515153495413839
 30
0.0
 70
     8
  0
VERTEX
  5
60D
330
5FE
100
AcDbEntity
  8
IMAGE
100
AcDbVertex
100
AcDb2dVertex
 10
1.58058864786273
 20
6.51294065614404
 30
0.0
 70
     8
  0
VERTEX
  5
60E
330
5FE
100
AcDbEntity
  8
IMAGE
100
AcDbVertex
100
AcDb2dVertex
 10
1.591100161902626
 20
6.510769581507778
 30
0.0
 70
     8
  0
VERTEX
  5
60F
330
5FE
100
AcDbEntity
  8
IMAGE
100
AcDbVertex
100
AcDb2dVertex
 10
1.601117696662172
 20
6.508611120764518
 30
0.0
 70
     8
  0
VERTEX
  5
610
330
5FE
100
AcDbEntity
  8
IMAGE
100
AcDbVertex
100
AcDb2dVertex
 10
1.610716849434665
 20
6.506436123173722
 30
0.0
 70
     8
  0
VERTEX
  5
611
330
5FE
100
AcDbEntity
  8
IMAGE
100
AcDbVertex
100
AcDb2dVertex
 10
1.619957285325193
 20
6.504218868747761
 30
0.0
 70
     8
  0
VERTEX
  5
612
330
5FE
100
AcDbEntity
  8
IMAGE
100
AcDbVertex
100
AcDb2dVertex
 10
1.628834940686013
 20
6.501947360510646
 30
0.0
 70
     8
  0
VERTEX
  5
613
330
5FE
100
AcDbEntity
  8
IMAGE
100
AcDbVertex
100
AcDb2dVertex
 10
1.637329819681173
 20
6.499613032239297
 30
0.0
 70
     8
  0
VERTEX
  5
614
330
5FE
100
AcDbEntity
  8
IMAGE
100
AcDbVertex
100
AcDb2dVertex
 10
1.645421926474726
 20
6.49720731771063
 30
0.0
 70
     8
  0
VERTEX
  5
615
330
5FE
100
AcDbEntity
  8
IMAGE
100
AcDbVertex
100
AcDb2dVertex
 10
1.653091265230721
 20
6.494721650701562
 30
0.0
 70
     8
  0
VERTEX
  5
616
330
5FE
100
AcDbEntity
  8
IMAGE
100
AcDbVertex
100
AcDb2dVertex
 10
1.660317840113211
 20
6.492147464989015
 30
0.0
 70
     8
  0
VERTEX
  5
617
330
5FE
100
AcDbEntity
  8
IMAGE
100
AcDbVertex
100
AcDb2dVertex
 10
1.667081655286243
 20
6.489476194349906
 30
0.0
 70
     8
  0
VERTEX
  5
618
330
5FE
100
AcDbEntity
  8
IMAGE
100
AcDbVertex
100
AcDb2dVertex
 10
1.67336271491387
 20
6.486699272561152
 30
0.0
 70
     8
  0
VERTEX
  5
619
330
5FE
100
AcDbEntity
  8
IMAGE
100
AcDbVertex
100
AcDb2dVertex
 10
1.679163637465122
 20
6.483804802013041
 30
0.0
 70
     8
  0
VERTEX
  5
61A
330
5FE
100
AcDbEntity
  8
IMAGE
100
AcDbVertex
100
AcDb2dVertex
 10
1.684577498628971
 20
6.48076755954934
 30
0.0
 70
     8
  0
VERTEX
  5
61B
330
5FE
100
AcDbEntity
  8
IMAGE
100
AcDbVertex
100
AcDb2dVertex
 10
1.689719988399363
 20
6.477558990627189
 30
0.0
 70
     8
  0
VERTEX
  5
61C
330
5FE
100
AcDbEntity
  8
IMAGE
100
AcDbVertex
100
AcDb2dVertex
 10
1.69470679677025
 20
6.474150540703719
 30
0.0
 70
     8
  0
VERTEX
  5
61D
330
5FE
100
AcDbEntity
  8
IMAGE
100
AcDbVertex
100
AcDb2dVertex
 10
1.699653613735582
 20
6.47051365523607
 30
0.0
 70
     8
  0
VERTEX
  5
61E
330
5FE
100
AcDbEntity
  8
IMAGE
100
AcDbVertex
100
AcDb2dVertex
 10
1.704676129289312
 20
6.466619779681378
 30
0.0
 70
     8
  0
VERTEX
  5
61F
330
5FE
100
AcDbEntity
  8
IMAGE
100
AcDbVertex
100
AcDb2dVertex
 10
1.709890033425385
 20
6.462440359496779
 30
0.0
 70
     8
  0
VERTEX
  5
620
330
5FE
100
AcDbEntity
  8
IMAGE
100
AcDbVertex
100
AcDb2dVertex
 10
1.715411016137756
 20
6.457946840139412
 30
0.0
 70
     8
  0
VERTEX
  5
621
330
5FE
100
AcDbEntity
  8
IMAGE
100
AcDbVertex
100
AcDb2dVertex
 10
1.72128800236018
 20
6.453098612740854
 30
0.0
 70
     8
  0
VERTEX
  5
622
330
5FE
100
AcDbEntity
  8
IMAGE
100
AcDbVertex
100
AcDb2dVertex
 10
1.727302856785631
 20
6.44780685113046
 30
0.0
 70
     8
  0
VERTEX
  5
623
330
5FE
100
AcDbEntity
  8
IMAGE
100
AcDbVertex
100
AcDb2dVertex
 10
1.733170679046893
 20
6.441970674812028
 30
0.0
 70
     8
  0
VERTEX
  5
624
330
5FE
100
AcDbEntity
  8
IMAGE
100
AcDbVertex
100
AcDb2dVertex
 10
1.73860656877675
 20
6.435489203289348
 30
0.0
 70
     8
  0
VERTEX
  5
625
330
5FE
100
AcDbEntity
  8
IMAGE
100
AcDbVertex
100
AcDb2dVertex
 10
1.743325625607981
 20
6.428261556066223
 30
0.0
 70
     8
  0
VERTEX
  5
626
330
5FE
100
AcDbEntity
  8
IMAGE
100
AcDbVertex
100
AcDb2dVertex
 10
1.747042949173367
 20
6.420186852646443
 30
0.0
 70
     8
  0
VERTEX
  5
627
330
5FE
100
AcDbEntity
  8
IMAGE
100
AcDbVertex
100
AcDb2dVertex
 10
1.749473639105692
 20
6.41116421253381
 30
0.0
 70
     8
  0
VERTEX
  5
628
330
5FE
100
AcDbEntity
  8
IMAGE
100
AcDbVertex
100
AcDb2dVertex
 10
1.750332795037736
 20
6.401092755232122
 30
0.0
 70
     8
  0
VERTEX
  5
629
330
5FE
100
AcDbEntity
  8
IMAGE
100
AcDbVertex
100
AcDb2dVertex
 10
1.430126534432765
 20
6.54172734080244
 30
0.0
 70
    16
  0
VERTEX
  5
62A
330
5FE
100
AcDbEntity
  8
IMAGE
100
AcDbVertex
100
AcDb2dVertex
 10
1.528082822287301
 20
6.523005318052787
 30
0.0
 70
    16
  0
VERTEX
  5
62B
330
5FE
100
AcDbEntity
  8
IMAGE
100
AcDbVertex
100
AcDb2dVertex
 10
1.614373219501423
 20
6.506923457446495
 30
0.0
 70
    16
  0
VERTEX
  5
62C
330
5FE
100
AcDbEntity
  8
IMAGE
100
AcDbVertex
100
AcDb2dVertex
 10
1.678725396315001
 20
6.48791759120356
 30
0.0
 70
    16
  0
VERTEX
  5
62D
330
5FE
100
AcDbEntity
  8
IMAGE
100
AcDbVertex
100
AcDb2dVertex
 10
1.71090148472179
 20
6.461601813106168
 30
0.0
 70
    16
  0
VERTEX
  5
62E
330
5FE
100
AcDbEntity
  8
IMAGE
100
AcDbVertex
100
AcDb2dVertex
 10
1.750390335990183
 20
6.429438069174223
 30
0.0
 70
    16
  0
VERTEX
  5
62F
330
5FE
100
AcDbEntity
  8
IMAGE
100
AcDbVertex
100
AcDb2dVertex
 10
1.750332795037736
 20
6.401092755232122
 30
0.0
 70
    16
  0
SEQEND
  5
630
330
5FE
100
AcDbEntity
  8
IMAGE
  0
LWPOLYLINE
  5
631
330
17
100
AcDbEntity
  8
IMAGE
100
AcDbPolyline
 90
       89
 70
     0
 43
0.0
 10
1.197546645513577
 20
6.344269974257956
 10
1.197578781678495
 20
6.370332842050677
 10
1.197666620529275
 20
6.391642222616235
 10
1.197797307599946
 20
6.408824971729975
 10
1.197957988424542
 20
6.422507945167259
 10
1.198135808537095
 20
6.433317998703435
 10
1.198317913471636
 20
6.441881988113861
 10
1.1984914487622
 20
6.448826769173889
 10
1.198643559942817
 20
6.45477919765887
 10
1.198770914359367
 20
6.460278310140962
 10
1.19890826660511
 20
6.465511866379488
 10
1.199099893085152
 20
6.470579806930574
 10
1.199390070204603
 20
6.47558207235035
 10
1.199823074368568
 20
6.480618603194935
 10
1.200443181982153
 20
6.485789340020458
 10
1.201294669450466
 20
6.491194223383041
 10
1.202421813178616
 20
6.496933193838815
 10
1.203859605805529
 20
6.503074306143831
 10
1.205605904905412
 20
6.509558071853865
 10
1.207649284286295
 20
6.516293116724616
 10
1.209978317756206
 20
6.523188066511794
 10
1.212581579123175
 20
6.530151546971103
 10
1.21544764219523
 20
6.53709218385824
 10
1.2185650807804
 20
6.543918602928917
 10
1.221922468686714
 20
6.550539429938831
 10
1.225515521092181
 20
6.55687518833106
 10
1.229368518654744
 20
6.56289399229813
 10
1.233512883402319
 20
6.568575853719947
 10
1.23798003736283
 20
6.573900784476405
 10
1.242801402564196
 20
6.578848796447411
 10
1.248008401034341
 20
6.58339990151286
 10
1.253632454801182
 20
6.587534111552658
 10
1.259704985892644
 20
6.591231438446699
 10
1.266249798875329
 20
6.594480460408904
 10
1.273260228470593
 20
6.59730402098925
 10
1.280721991938468
 20
6.599733530071732
 10
1.288620806538989
 20
6.601800397540353
 10
1.296942389532195
 20
6.603536033279107
 10
1.305672458178121
 20
6.60497184717199
 10
1.314796729736803
 20
6.606139249102996
 10
1.324300921468276
 20
6.607069648956128
 10
1.334171702815239
 20
6.607790649360746
 10
1.344399551951052
 20
6.608314623927684
 10
1.354975899231736
 20
6.608650139013148
 10
1.365892175013312
 20
6.608805760973341
 10
1.377139809651802
 20
6.608790056164464
 10
1.388710233503226
 20
6.60861159094272
 10
1.400594876923606
 20
6.608278931664314
 10
1.412785170268967
 20
6.607800644685449
 10
1.425268735172069
 20
6.607185296354929
 10
1.438017958372639
 20
6.606441452991981
 10
1.451001417887149
 20
6.605577680908433
 10
1.464187691732069
 20
6.604602546416119
 10
1.477545357923866
 20
6.603524615826861
 10
1.491042994479016
 20
6.602352455452495
 10
1.504649179413982
 20
6.601094631604846
 10
1.518332490745238
 20
6.599759710595742
 10
1.532067695676569
 20
6.598339601977661
 10
1.545854318161036
 20
6.59675958826566
 10
1.559698071339014
 20
6.594928295215444
 10
1.573604668350882
 20
6.592754348582717
 10
1.587579822337013
 20
6.590146374123181
 10
1.601629246437784
 20
6.587012997592539
 10
1.615758653793574
 20
6.583262844746498
 10
1.629973757544756
 20
6.57880454134076
 10
1.644249324946909
 20
6.57358097847449
 10
1.65843633971641
 20
6.567672108620692
 10
1.67235483968484
 20
6.56119214959583
 10
1.685824862683778
 20
6.554255319216364
 10
1.698666446544803
 20
6.546975835298761
 10
1.710699629099493
 20
6.539467915659484
 10
1.721744448179428
 20
6.531845778114993
 10
1.731620941616186
 20
6.524223640481755
 10
1.740202231317602
 20
6.516685024547859
 10
1.747573775496533
 20
6.509190667987892
 10
1.75387411644209
 20
6.50167061244806
 10
1.759241796443382
 20
6.49405489957458
 10
1.763815357789524
 20
6.486273571013663
 10
1.767733342769625
 20
6.478256668411516
 10
1.771134293672795
 20
6.469934233414354
 10
1.77415675278815
 20
6.461236307668384
 10
1.776911141547812
 20
6.452154023082696
 10
1.779395397955981
 20
6.442922872617851
 10
1.781579339159862
 20
6.433839439497285
 10
1.783432782306669
 20
6.425200306944441
 10
1.784925544543616
 20
6.417302058182754
 10
1.786027443017906
 20
6.41044127643566
 10
1.786708294876757
 20
6.404914544926599
 10
1.786932095153763
 20
6.401117233088074
  0
LWPOLYLINE
  5
68C
330
17
100
AcDbEntity
  8
IMAGE
100
AcDbPolyline
 90
       89
 70
     0
 43
0.0
 10
1.181458589946136
 20
6.344269974257956
 10
1.181490726111057
 20
6.370435714597048
 10
1.181578564961836
 20
6.391827084666859
 10
1.181709252032507
 20
6.409079062578813
 10
1.181869932857102
 20
6.422826626444345
 10
1.182047752969654
 20
6.433704754374891
 10
1.182229857904198
 20
6.442348424481883
 10
1.18240339319476
 20
6.449392614876751
 10
1.182555504375379
 20
6.455472303670932
 10
1.182683437462484
 20
6.461133532507682
 10
1.182824840402122
 20
6.466566597157546
 10
1.183027461622742
 20
6.471872856922898
 10
1.183339049552786
 20
6.477153671106114
 10
1.183807352620705
 20
6.482510399009564
 10
1.184480119254943
 20
6.488044399935619
 10
1.185405097883948
 20
6.493857033186655
 10
1.186630036936166
 20
6.500049658065039
 10
1.188193474503218
 20
6.506690975938107
 10
1.19009710732941
 20
6.51371905643302
 10
1.192333421822224
 20
6.521039311241901
 10
1.194894904389138
 20
6.528557152056867
 10
1.197774041437637
 20
6.53617799057004
 10
1.200963319375199
 20
6.543807238473542
 10
1.204455224609306
 20
6.551350307459495
 10
1.208242243547438
 20
6.558712609220014
 10
1.212322642171329
 20
6.565809818941866
 10
1.216717804759733
 20
6.57259866579035
 10
1.221454895165656
 20
6.57904614242541
 10
1.226561077242104
 20
6.585119241506985
 10
1.232063514842085
 20
6.590784955695019
 10
1.237989371818606
 20
6.596010277649456
 10
1.244365812024672
 20
6.600762200030237
 10
1.251219999313289
 20
6.605007715497299
 10
1.258570068433411
 20
6.608725806635709
 10
1.266398037717754
 20
6.611943415730996
 10
1.274676896394978
 20
6.614699474993818
 10
1.283379633693749
 20
6.617032916634821
 10
1.292479238842728
 20
6.618982672864662
 10
1.301948701070576
 20
6.620587675893991
 10
1.311761009605955
 20
6.621886857933462
 10
1.321889153677527
 20
6.622919151193729
 10
1.332310373695803
 20
6.623718867899283
 10
1.343018914798688
 20
6.62430184033
 10
1.354013273305933
 20
6.624679280779586
 10
1.365291945537291
 20
6.624862401541763
 10
1.376853427812514
 20
6.624862414910237
 10
1.388696216451353
 20
6.624690533178727
 10
1.400818807773563
 20
6.624357968640937
 10
1.413219698098895
 20
6.623875933590591
 10
1.425893621712295
 20
6.623255117868891
 10
1.438820264759489
 20
6.622504121507025
 10
1.451975551351394
 20
6.621631022083674
 10
1.465335405598929
 20
6.620643897177517
 10
1.478875751613011
 20
6.619550824367232
 10
1.492572513504561
 20
6.618359881231507
 10
1.506401615384496
 20
6.617079145349014
 10
1.520338981363735
 20
6.61571669429844
 10
1.53436583790546
 20
6.614263031785087
 10
1.548484620881924
 20
6.612638366020759
 10
1.562703068517639
 20
6.610745331343883
 10
1.577028919037119
 20
6.608486562092894
 10
1.591469910664881
 20
6.605764692606209
 10
1.606033781625439
 20
6.602482357222262
 10
1.620728270143305
 20
6.598542190279482
 10
1.635561114442997
 20
6.593846826116296
 10
1.650506510750197
 20
6.588334407736391
 10
1.665404487295249
 20
6.582085112804483
 10
1.680061530309669
 20
6.575214627650558
 10
1.694284126024974
 20
6.567838638604589
 10
1.707878760672675
 20
6.560072831996555
 10
1.72065192048429
 20
6.552032894156438
 10
1.73241009169133
 20
6.543834511414212
 10
1.742959760525312
 20
6.535593370099862
 10
1.752163092498226
 20
6.527395242270875
 10
1.760104970243966
 20
6.519206242894812
 10
1.766925955676902
 20
6.510962572666736
 10
1.772766610711408
 20
6.502600432281726
 10
1.777767497261853
 20
6.494056022434849
 10
1.782069177242609
 20
6.485265543821173
 10
1.785812212568044
 20
6.476165197135772
 10
1.789137165152531
 20
6.466691183073715
 10
1.79215622328311
 20
6.456840629399968
 10
1.794868080737509
 20
6.446854372159085
 10
1.797243057666125
 20
6.437034174465525
 10
1.799251474219352
 20
6.427681799433729
 10
1.800863650547591
 20
6.419099010178156
 10
1.802049906801234
 20
6.411587569813255
 10
1.802780563130679
 20
6.40544924145348
 10
1.803018713556937
 20
6.401117233088074
  0
LINE
  5
701
330
17
100
AcDbEntity
  8
IMAGE
100
AcDbLine
 10
1.475105229053868
 20
4.38727965909117
 30
0.0
 11
1.475105229053868
 21
4.27788459001146
 31
0.0
  0
LINE
  5
702
330
17
100
AcDbEntity
  8
IMAGE
100
AcDbLine
 10
1.150105229053868
 20
4.38727965909117
 30
0.0
 11
1.150105229053868
 21
4.27788459001146
 31
0.0
  0
LINE
  5
703
330
17
100
AcDbEntity
  8
IMAGE
100
AcDbLine
 10
1.312605229053869
 20
4.27788459001146
 30
0.0
 11
1.104128617053655
 21
4.27788459001146
 31
0.0
  0
LINE
  5
704
330
17
100
AcDbEntity
  8
IMAGE
100
AcDbLine
 10
1.104128617053655
 20
4.27788459001146
 30
0.0
 11
1.104128617053655
 21
4.017198501468719
 31
0.0
  0
LINE
  5
705
330
17
100
AcDbEntity
  8
IMAGE
100
AcDbLine
 10
1.104128617053655
 20
4.017198501468719
 30
0.0
 11
1.312605229053869
 21
4.017198501468719
 31
0.0
  0
LINE
  5
706
330
17
100
AcDbEntity
  8
IMAGE
100
AcDbLine
 10
1.312605229053869
 20
4.27788459001146
 30
0.0
 11
1.521081841054082
 21
4.27788459001146
 31
0.0
  0
LINE
  5
707
330
17
100
AcDbEntity
  8
IMAGE
100
AcDbLine
 10
1.521081841054082
 20
4.017198501468719
 30
0.0
 11
1.312605229053869
 21
4.017198501468719
 31
0.0
  0
LINE
  5
708
330
17
100
AcDbEntity
  8
IMAGE
100
AcDbLine
 10
1.521081841054082
 20
4.27788459001146
 30
0.0
 11
1.521081841054082
 21
4.017198501468719
 31
0.0
  0
LINE
  5
709
330
17
100
AcDbEntity
  8
IMAGE
100
AcDbLine
 10
1.178638942798234
 20
4.343056112147145
 30
0.0
 11
1.430111292186189
 21
4.343056112147145
 31
0.0
  0
LINE
  5
70A
330
17
100
AcDbEntity
  8
IMAGE
100
AcDbLine
 10
1.178638942798234
 20
4.310470351079302
 30
0.0
 11
1.430111292186189
 21
4.310470351079302
 31
0.0
  0
LINE
  5
70B
330
17
100
AcDbEntity
  8
IMAGE
100
AcDbLine
 10
1.150105229053868
 20
4.017198501468719
 30
0.0
 11
1.150105229053868
 21
3.372041617769653
 31
0.0
  0
LINE
  5
70C
330
17
100
AcDbEntity
  8
IMAGE
100
AcDbLine
 10
1.475105229053868
 20
4.017198501468719
 30
0.0
 11
1.475105229053868
 21
2.19751215705171
 31
0.0
  0
LINE
  5
70D
330
17
100
AcDbEntity
  8
IMAGE
100
AcDbLine
 10
2.441081841054082
 20
4.017198501468719
 30
0.0
 11
2.232605229053869
 21
4.017198501468719
 31
0.0
  0
LINE
  5
70E
330
17
100
AcDbEntity
  8
IMAGE
100
AcDbLine
 10
2.232605229053869
 20
4.27788459001146
 30
0.0
 11
2.441081841054082
 21
4.27788459001146
 31
0.0
  0
LINE
  5
70F
330
17
100
AcDbEntity
  8
IMAGE
100
AcDbLine
 10
2.395105229053869
 20
4.017198501468719
 30
0.0
 11
2.395105229053869
 21
1.702120292643594
 31
0.0
  0
LINE
  5
710
330
17
100
AcDbEntity
  8
IMAGE
100
AcDbLine
 10
2.070105229053869
 20
4.017198501468719
 30
0.0
 11
2.070105229053869
 21
1.702120292643594
 31
0.0
  0
LINE
  5
711
330
17
100
AcDbEntity
  8
IMAGE
100
AcDbLine
 10
2.395105229053869
 20
4.38727965909117
 30
0.0
 11
2.395105229053869
 21
4.27788459001146
 31
0.0
  0
LINE
  5
712
330
17
100
AcDbEntity
  8
IMAGE
100
AcDbLine
 10
2.070105229053869
 20
4.38727965909117
 30
0.0
 11
2.070105229053869
 21
4.27788459001146
 31
0.0
  0
LINE
  5
713
330
17
100
AcDbEntity
  8
IMAGE
100
AcDbLine
 10
2.024128617053655
 20
4.017198501468719
 30
0.0
 11
2.232605229053869
 21
4.017198501468719
 31
0.0
  0
LINE
  5
714
330
17
100
AcDbEntity
  8
IMAGE
100
AcDbLine
 10
2.232605229053869
 20
4.27788459001146
 30
0.0
 11
2.024128617053655
 21
4.27788459001146
 31
0.0
  0
LINE
  5
715
330
17
100
AcDbEntity
  8
IMAGE
100
AcDbLine
 10
2.024128617053655
 20
4.27788459001146
 30
0.0
 11
2.024128617053655
 21
4.017198501468719
 31
0.0
  0
LINE
  5
716
330
17
100
AcDbEntity
  8
IMAGE
100
AcDbLine
 10
2.098638942798234
 20
4.310470351079302
 30
0.0
 11
2.35011129218619
 21
4.310470351079302
 31
0.0
  0
LINE
  5
717
330
17
100
AcDbEntity
  8
IMAGE
100
AcDbLine
 10
2.441081841054082
 20
4.27788459001146
 30
0.0
 11
2.441081841054082
 21
4.017198501468719
 31
0.0
  0
LINE
  5
718
330
17
100
AcDbEntity
  8
IMAGE
100
AcDbLine
 10
2.098638942798234
 20
4.343056112147145
 30
0.0
 11
2.35011129218619
 21
4.343056112147145
 31
0.0
  0
LINE
  5
719
330
17
100
AcDbEntity
  8
IMAGE
100
AcDbLine
 10
0.4338346550608735
 20
2.88727965909117
 30
0.0
 11
1.150105229053868
 21
2.887279659091171
 31
0.0
  0
LINE
  5
71A
330
17
100
AcDbEntity
  8
IMAGE
100
AcDbLine
 10
0.4529374669829252
 20
1.062279659091171
 30
0.0
 11
0.8352645955014455
 21
1.062279659091171
 31
0.0
  0
LINE
  5
71B
330
17
100
AcDbEntity
  8
IMAGE
100
AcDbLine
 10
0.4529374669829252
 20
1.38727965909117
 30
0.0
 11
0.8352645955014455
 21
1.38727965909117
 31
0.0
  0
LINE
  5
71C
330
17
100
AcDbEntity
  8
IMAGE
100
AcDbLine
 10
1.521081841054082
 20
1.702120292643594
 30
0.0
 11
1.312605229053869
 21
1.702120292643594
 31
0.0
  0
LINE
  5
71D
330
17
100
AcDbEntity
  8
IMAGE
100
AcDbLine
 10
1.104128617053655
 20
1.702120292643594
 30
0.0
 11
1.312605229053868
 21
1.702120292643594
 31
0.0
  0
LINE
  5
71E
330
17
100
AcDbEntity
  8
IMAGE
100
AcDbLine
 10
0.8352645955014455
 20
1.433256271091384
 30
0.0
 11
0.8352645955014455
 21
1.224779659091171
 31
0.0
  0
LINE
  5
71F
330
17
100
AcDbEntity
  8
IMAGE
100
AcDbLine
 10
0.8352645955014455
 20
1.016303047090957
 30
0.0
 11
0.8352645955014455
 21
1.224779659091171
 31
0.0
  0
LINE
  5
720
330
17
100
AcDbEntity
  8
IMAGE
100
AcDbLine
 10
0.8352645955014455
 20
1.016303047090957
 30
0.0
 11
0.9494212898171138
 21
1.016303047090957
 31
0.0
  0
LINE
  5
721
330
17
100
AcDbEntity
  8
IMAGE
100
AcDbLine
 10
1.521081841054082
 20
1.702120292643594
 30
0.0
 11
1.521081841054082
 21
1.587963598327924
 31
0.0
  0
LINE
  5
722
330
17
100
AcDbEntity
  8
IMAGE
100
AcDbLine
 10
1.104128617053655
 20
1.702120292643594
 30
0.0
 11
1.104128617053655
 21
1.587963598327924
 31
0.0
  0
LINE
  5
723
330
17
100
AcDbEntity
  8
IMAGE
100
AcDbLine
 10
0.8352645955014455
 20
1.433256271091384
 30
0.0
 11
0.9494212898171138
 21
1.433256271091384
 31
0.0
  0
ARC
  5
724
330
17
100
AcDbEntity
  8
IMAGE
100
AcDbCircle
 10
0.9494212898171138
 20
1.587963598327924
 30
0.0
 40
0.1547073272365413
100
AcDbArc
 50
270.0
 51
0.0
  0
ARC
  5
725
330
17
100
AcDbEntity
  8
IMAGE
100
AcDbCircle
 10
0.9494212898171138
 20
1.587963598327924
 30
0.0
 40
0.5716605512369682
100
AcDbArc
 50
270.0
 51
0.0
  0
ARC
  5
726
330
17
100
AcDbEntity
  8
IMAGE
100
AcDbCircle
 10
2.595789168290623
 20
1.587963598327924
 30
0.0
 40
0.1547073272365413
100
AcDbArc
 50
180.0
 51
270.0
  0
ARC
  5
727
330
17
100
AcDbEntity
  8
IMAGE
100
AcDbCircle
 10
2.595789168290623
 20
1.587963598327924
 30
0.0
 40
0.5716605512369682
100
AcDbArc
 50
180.0
 51
270.0
  0
LINE
  5
728
330
17
100
AcDbEntity
  8
IMAGE
100
AcDbLine
 10
2.024128617053654
 20
1.702120292643594
 30
0.0
 11
2.024128617053654
 21
1.587963598327924
 31
0.0
  0
LINE
  5
729
330
17
100
AcDbEntity
  8
IMAGE
100
AcDbLine
 10
2.441081841054082
 20
1.702120292643594
 30
0.0
 11
2.441081841054082
 21
1.587963598327924
 31
0.0
  0
LINE
  5
72A
330
17
100
AcDbEntity
  8
IMAGE
100
AcDbLine
 10
2.441081841054082
 20
1.702120292643594
 30
0.0
 11
2.024128617053654
 21
1.702120292643594
 31
0.0
  0
LINE
  5
72B
330
17
100
AcDbEntity
  8
IMAGE
100
AcDbLine
 10
2.709945862606291
 20
1.433256271091384
 30
0.0
 11
2.709945862606291
 21
1.224779659091171
 31
0.0
  0
LINE
  5
72C
330
17
100
AcDbEntity
  8
IMAGE
100
AcDbLine
 10
2.709945862606291
 20
1.433256271091384
 30
0.0
 11
2.595789168290623
 21
1.433256271091384
 31
0.0
  0
LINE
  5
72D
330
17
100
AcDbEntity
  8
IMAGE
100
AcDbLine
 10
2.709945862606291
 20
1.016303047090957
 30
0.0
 11
2.709945862606291
 21
1.224779659091171
 31
0.0
  0
LINE
  5
72E
330
17
100
AcDbEntity
  8
IMAGE
100
AcDbLine
 10
2.709945862606291
 20
1.016303047090957
 30
0.0
 11
2.595789168290623
 21
1.016303047090957
 31
0.0
  0
LINE
  5
72F
330
17
100
AcDbEntity
  8
IMAGE
100
AcDbLine
 10
2.709945862606291
 20
1.062279659091171
 30
0.0
 11
3.448111845899835
 21
1.062279659091171
 31
0.0
  0
LINE
  5
730
330
17
100
AcDbEntity
  8
IMAGE
100
AcDbLine
 10
2.709945862606291
 20
1.38727965909117
 30
0.0
 11
3.448111845899835
 21
1.38727965909117
 31
0.0
  0
LWPOLYLINE
  5
731
330
17
100
AcDbEntity
  8
IMAGE
100
AcDbPolyline
 90
        4
 70
     0
 43
0.0
 10
3.448111845899835
 20
1.38727965909117
 42
-0.8246718929276468
 10
3.446378929504623
 20
1.207166571672957
 42
0.8429642187592225
 10
3.448111845899835
 20
1.062279659091171
 42
1.050802970450626
 10
3.446378929504623
 20
1.207166571672957
 42
1.050802970450626
  0
LWPOLYLINE
  5
737
330
17
100
AcDbEntity
  8
IMAGE
100
AcDbPolyline
 90
        4
 70
     0
 43
0.0
 10
0.4529374669829252
 20
1.38727965909117
 42
0.7534204495429276
 10
0.4561888266562302
 20
1.209243297414112
 42
-0.7855646896409
 10
0.4529374669829252
 20
1.062279659091171
 42
-0.9325399712678368
 10
0.4561888266562302
 20
1.209243297414112
 42
-0.9325399712678368
  0
LINE
  5
743
330
17
100
AcDbEntity
  8
IMAGE
100
AcDbLine
 10
2.642445400215122
 20
3.128823323720471
 30
0.0
 11
2.837934089502673
 21
2.887004118969171
 31
0.0
  0
LINE
  5
744
330
17
100
AcDbEntity
  8
IMAGE
100
AcDbLine
 10
2.621112913601788
 20
3.188868991041328
 30
0.0
 11
2.657925702878881
 21
2.887004118969171
 31
0.0
  0
LINE
  5
745
330
17
100
AcDbEntity
  8
IMAGE
100
AcDbLine
 10
3.523037036226853
 20
3.172790451857069
 30
0.0
 11
3.591437840553137
 21
2.887004118969182
 31
0.0
  0
LINE
  5
746
330
17
100
AcDbEntity
  8
IMAGE
100
AcDbLine
 10
3.358014116698399
 20
3.227749362027816
 30
0.0
 11
3.358014116698399
 21
2.887004118969171
 31
0.0
  0
LINE
  5
747
330
17
100
AcDbEntity
  8
IMAGE
100
AcDbLine
 10
3.688059955755296
 20
3.216757579993673
 30
0.0
 11
3.608604475982345
 21
2.887004118969171
 31
0.0
  0
LINE
  5
748
330
17
100
AcDbEntity
  8
IMAGE
100
AcDbLine
 10
3.437174825372764
 20
3.175025925563163
 30
0.0
 11
3.511004507922948
 21
2.893550260840628
 31
0.0
  0
LINE
  5
749
330
17
100
AcDbEntity
  8
IMAGE
100
AcDbLine
 10
2.72652641130286
 20
3.227749362027816
 30
0.0
 11
2.72652641130286
 21
2.887004118969171
 31
0.0
  0
LINE
  5
74A
330
17
100
AcDbEntity
  8
IMAGE
100
AcDbLine
 10
2.83654169098849
 20
3.194774015925366
 30
0.0
 11
2.810871459061847
 21
2.887004118969182
 31
0.0
  0
LINE
  5
74B
330
17
100
AcDbEntity
  8
IMAGE
100
AcDbLine
 10
3.05657225035976
 20
3.216757579993673
 30
0.0
 11
2.977116770586807
 21
2.887004118969171
 31
0.0
  0
LINE
  5
74C
330
17
100
AcDbEntity
  8
IMAGE
100
AcDbLine
 10
2.957960840236964
 20
3.170411570403789
 30
0.0
 11
2.984530288808958
 21
2.887004118969171
 31
0.0
  0
LINE
  5
74D
330
17
100
AcDbEntity
  8
IMAGE
100
AcDbLine
 10
2.754929213223985
 20
3.147339794606855
 30
0.0
 11
2.826311575898833
 21
2.887004118969171
 31
0.0
  0
LINE
  5
74E
330
17
100
AcDbEntity
  8
IMAGE
100
AcDbLine
 10
2.950488183334897
 20
3.172790451857069
 30
0.0
 11
3.018888987661183
 21
2.887004118969182
 31
0.0
  0
LINE
  5
74F
330
17
100
AcDbEntity
  8
IMAGE
100
AcDbLine
 10
2.785465263806445
 20
3.227749362027816
 30
0.0
 11
2.785465263806445
 21
2.887004118969171
 31
0.0
  0
LINE
  5
750
330
17
100
AcDbEntity
  8
IMAGE
100
AcDbLine
 10
2.895480543492074
 20
3.194774015925366
 30
0.0
 11
2.86981031156543
 21
2.887004118969182
 31
0.0
  0
LINE
  5
751
330
17
100
AcDbEntity
  8
IMAGE
100
AcDbLine
 10
2.864625972480811
 20
3.175025925563163
 30
0.0
 11
2.938455655030992
 21
2.893550260840628
 31
0.0
  0
LINE
  5
752
330
17
100
AcDbEntity
  8
IMAGE
100
AcDbLine
 10
2.68005176610537
 20
3.188868991041328
 30
0.0
 11
2.716864555382465
 21
2.887004118969171
 31
0.0
  0
LINE
  5
753
330
17
100
AcDbEntity
  8
IMAGE
100
AcDbLine
 10
3.394876569745071
 20
3.205765797959525
 30
0.0
 11
3.242950707322041
 21
2.887004118969171
 31
0.0
  0
LINE
  5
754
330
17
100
AcDbEntity
  8
IMAGE
100
AcDbLine
 10
2.932812395065405
 20
3.227749362027816
 30
0.0
 11
2.932812395065405
 21
2.887004118969171
 31
0.0
  0
LINE
  5
755
330
17
100
AcDbEntity
  8
IMAGE
100
AcDbLine
 10
3.01197310373977
 20
3.175025925563163
 30
0.0
 11
3.085802786289953
 21
2.893550260840628
 31
0.0
  0
LINE
  5
756
330
17
100
AcDbEntity
  8
IMAGE
100
AcDbLine
 10
3.298063123621704
 20
3.165797215244399
 30
0.0
 11
3.27169080370378
 21
2.887004118969171
 31
0.0
  0
LINE
  5
757
330
17
100
AcDbEntity
  8
IMAGE
100
AcDbLine
 10
3.594847676453655
 20
3.205765797959525
 30
0.0
 11
3.44292181403063
 21
2.887004118969171
 31
0.0
  0
LINE
  5
758
330
17
100
AcDbEntity
  8
IMAGE
100
AcDbLine
 10
3.297806421302443
 20
3.172790451857069
 30
0.0
 11
3.366207225628727
 21
2.887004118969182
 31
0.0
  0
LINE
  5
759
330
17
100
AcDbEntity
  8
IMAGE
100
AcDbLine
 10
3.364217930708094
 20
3.170411570403789
 30
0.0
 11
3.390787379280088
 21
2.887004118969171
 31
0.0
  0
LINE
  5
75A
330
17
100
AcDbEntity
  8
IMAGE
100
AcDbLine
 10
3.506254991134231
 20
3.227749362027816
 30
0.0
 11
3.506254991134231
 21
2.887004118969171
 31
0.0
  0
LINE
  5
75B
330
17
100
AcDbEntity
  8
IMAGE
100
AcDbLine
 10
3.363235127542907
 20
3.128823323720471
 30
0.0
 11
3.558723816830458
 21
2.887004118969171
 31
0.0
  0
LINE
  5
75C
330
17
100
AcDbEntity
  8
IMAGE
100
AcDbLine
 10
3.585415699808596
 20
3.175025925563163
 30
0.0
 11
3.65924538235878
 21
2.893550260840628
 31
0.0
  0
LINE
  5
75D
330
17
100
AcDbEntity
  8
IMAGE
100
AcDbLine
 10
3.400841493433155
 20
3.188868991041328
 30
0.0
 11
3.437654282710252
 21
2.887004118969171
 31
0.0
  0
LINE
  5
75E
330
17
100
AcDbEntity
  8
IMAGE
100
AcDbLine
 10
3.854516214684377
 20
2.88727965909117
 30
0.0
 11
2.395105229053869
 21
2.88727965909117
 31
0.0
  0
LINE
  5
75F
330
17
100
AcDbEntity
  8
IMAGE
100
AcDbLine
 10
1.928333414931748
 20
3.194774015925366
 30
0.0
 11
1.902663183005105
 21
2.887004118969182
 31
0.0
  0
LINE
  5
760
330
17
100
AcDbEntity
  8
IMAGE
100
AcDbLine
 10
1.987272267435332
 20
3.194774015925366
 30
0.0
 11
1.961602035508689
 21
2.887004118969182
 31
0.0
  0
LINE
  5
761
330
17
100
AcDbEntity
  8
IMAGE
100
AcDbLine
 10
1.956417696424069
 20
3.175025925563163
 30
0.0
 11
2.030247378974251
 21
2.893550260840628
 31
0.0
  0
LINE
  5
762
330
17
100
AcDbEntity
  8
IMAGE
100
AcDbLine
 10
2.024604119008663
 20
3.227749362027816
 30
0.0
 11
2.024604119008663
 21
2.887004118969171
 31
0.0
  0
LINE
  5
763
330
17
100
AcDbEntity
  8
IMAGE
100
AcDbLine
 10
1.712904637545046
 20
3.188868991041328
 30
0.0
 11
1.749717426822139
 21
2.887004118969171
 31
0.0
  0
LINE
  5
764
330
17
100
AcDbEntity
  8
IMAGE
100
AcDbLine
 10
1.818318135246118
 20
3.227749362027816
 30
0.0
 11
1.818318135246118
 21
2.887004118969171
 31
0.0
  0
LINE
  5
765
330
17
100
AcDbEntity
  8
IMAGE
100
AcDbLine
 10
1.877256987749704
 20
3.227749362027816
 30
0.0
 11
1.877256987749704
 21
2.887004118969171
 31
0.0
  0
LINE
  5
766
330
17
100
AcDbEntity
  8
IMAGE
100
AcDbLine
 10
1.771843490048628
 20
3.188868991041328
 30
0.0
 11
1.808656279325723
 21
2.887004118969171
 31
0.0
  0
LINE
  5
767
330
17
100
AcDbEntity
  8
IMAGE
100
AcDbLine
 10
1.73423712415838
 20
3.128823323720471
 30
0.0
 11
1.929725813445931
 21
2.887004118969171
 31
0.0
  0
LINE
  5
768
330
17
100
AcDbEntity
  8
IMAGE
100
AcDbLine
 10
1.846720937167243
 20
3.147339794606855
 30
0.0
 11
1.918103299842091
 21
2.887004118969171
 31
0.0
  0
LINE
  5
769
330
17
100
AcDbEntity
  8
IMAGE
100
AcDbLine
 10
1.052290283982749
 20
3.194774015925366
 30
0.0
 11
1.026620052056106
 21
2.887004118969182
 31
0.0
  0
LINE
  5
76A
330
17
100
AcDbEntity
  8
IMAGE
100
AcDbLine
 10
1.111229136486332
 20
3.194774015925366
 30
0.0
 11
1.085558904559689
 21
2.887004118969182
 31
0.0
  0
LINE
  5
76B
330
17
100
AcDbEntity
  8
IMAGE
100
AcDbLine
 10
0.8368615065960474
 20
3.188868991041328
 30
0.0
 11
0.8736742958731403
 21
2.887004118969171
 31
0.0
  0
LINE
  5
76C
330
17
100
AcDbEntity
  8
IMAGE
100
AcDbLine
 10
0.9422750042971193
 20
3.227749362027816
 30
0.0
 11
0.9422750042971193
 21
2.887004118969171
 31
0.0
  0
LINE
  5
76D
330
17
100
AcDbEntity
  8
IMAGE
100
AcDbLine
 10
1.001213856800704
 20
3.227749362027816
 30
0.0
 11
1.001213856800704
 21
2.887004118969171
 31
0.0
  0
LINE
  5
76E
330
17
100
AcDbEntity
  8
IMAGE
100
AcDbLine
 10
0.8958003590996293
 20
3.188868991041328
 30
0.0
 11
0.9326131483767239
 21
2.887004118969171
 31
0.0
  0
LINE
  5
76F
330
17
100
AcDbEntity
  8
IMAGE
100
AcDbLine
 10
0.8581939932093812
 20
3.128823323720471
 30
0.0
 11
1.053682682496931
 21
2.887004118969171
 31
0.0
  0
LINE
  5
770
330
17
100
AcDbEntity
  8
IMAGE
100
AcDbLine
 10
0.9706778062182442
 20
3.147339794606855
 30
0.0
 11
1.042060168893092
 21
2.887004118969171
 31
0.0
  0
LINE
  5
771
330
17
100
AcDbEntity
  8
IMAGE
100
AcDbLine
 10
0.7151111788951605
 20
3.194774015925366
 30
0.0
 11
0.6894409469685174
 21
2.887004118969182
 31
0.0
  0
LINE
  5
772
330
17
100
AcDbEntity
  8
IMAGE
100
AcDbLine
 10
0.7740500313987442
 20
3.194774015925366
 30
0.0
 11
0.7483797994721011
 21
2.887004118969182
 31
0.0
  0
LINE
  5
773
330
17
100
AcDbEntity
  8
IMAGE
100
AcDbLine
 10
0.7431954603874813
 20
3.175025925563163
 30
0.0
 11
0.8170251429376628
 21
2.893550260840628
 31
0.0
  0
LINE
  5
774
330
17
100
AcDbEntity
  8
IMAGE
100
AcDbLine
 10
0.811381882972075
 20
3.227749362027816
 30
0.0
 11
0.811381882972075
 21
2.887004118969171
 31
0.0
  0
LINE
  5
775
330
17
100
AcDbEntity
  8
IMAGE
100
AcDbLine
 10
0.4996824015084587
 20
3.188868991041328
 30
0.0
 11
0.5364951907855515
 21
2.887004118969171
 31
0.0
  0
LINE
  5
776
330
17
100
AcDbEntity
  8
IMAGE
100
AcDbLine
 10
0.6050958992095305
 20
3.227749362027816
 30
0.0
 11
0.6050958992095305
 21
2.887004118969171
 31
0.0
  0
LINE
  5
777
330
17
100
AcDbEntity
  8
IMAGE
100
AcDbLine
 10
0.664034751713116
 20
3.227749362027816
 30
0.0
 11
0.664034751713116
 21
2.887004118969171
 31
0.0
  0
LINE
  5
778
330
17
100
AcDbEntity
  8
IMAGE
100
AcDbLine
 10
0.5586212540120405
 20
3.188868991041328
 30
0.0
 11
0.5954340432891352
 21
2.887004118969171
 31
0.0
  0
LINE
  5
779
330
17
100
AcDbEntity
  8
IMAGE
100
AcDbLine
 10
0.5210148881217924
 20
3.128823323720471
 30
0.0
 11
0.7165035774093431
 21
2.887004118969171
 31
0.0
  0
LINE
  5
77A
330
17
100
AcDbEntity
  8
IMAGE
100
AcDbLine
 10
0.6334987011306554
 20
3.147339794606855
 30
0.0
 11
0.7048810638055036
 21
2.887004118969171
 31
0.0
  0
LINE
  5
77B
330
17
100
AcDbEntity
  8
IMAGE
100
AcDbLine
 10
1.619569075558559
 20
3.188868991041328
 30
0.0
 11
1.656381864835654
 21
2.887004118969171
 31
0.0
  0
LINE
  5
77C
330
17
100
AcDbEntity
  8
IMAGE
100
AcDbLine
 10
1.666043720756049
 20
3.227749362027816
 30
0.0
 11
1.666043720756049
 21
2.887004118969171
 31
0.0
  0
LINE
  5
77D
330
17
100
AcDbEntity
  8
IMAGE
100
AcDbLine
 10
1.560630223054978
 20
3.188868991041328
 30
0.0
 11
1.59744301233207
 21
2.887004118969171
 31
0.0
  0
LINE
  5
77E
330
17
100
AcDbEntity
  8
IMAGE
100
AcDbLine
 10
1.581962709668311
 20
3.128823323720471
 30
0.0
 11
1.777451398955862
 21
2.887004118969171
 31
0.0
  0
LINE
  5
77F
330
17
100
AcDbEntity
  8
IMAGE
100
AcDbLine
 10
2.644753246974365
 20
3.205765797959525
 30
0.0
 11
2.492827384551336
 21
2.887004118969171
 31
0.0
  0
LINE
  5
780
330
17
100
AcDbEntity
  8
IMAGE
100
AcDbLine
 10
2.512734911351598
 20
3.216757579993673
 30
0.0
 11
2.433279431578645
 21
2.887004118969171
 31
0.0
  0
LINE
  5
781
330
17
100
AcDbEntity
  8
IMAGE
100
AcDbLine
 10
2.703692099477949
 20
3.205765797959525
 30
0.0
 11
2.551766237054921
 21
2.887004118969171
 31
0.0
  0
LINE
  5
782
330
17
100
AcDbEntity
  8
IMAGE
100
AcDbLine
 10
2.57167376385518
 20
3.216757579993673
 30
0.0
 11
2.492218284082228
 21
2.887004118969171
 31
0.0
  0
LINE
  5
783
330
17
100
AcDbEntity
  8
IMAGE
100
AcDbLine
 10
2.588946162765828
 20
3.227749362027816
 30
0.0
 11
2.588946162765828
 21
2.887004118969171
 31
0.0
  0
LINE
  5
784
330
17
100
AcDbEntity
  8
IMAGE
100
AcDbLine
 10
2.698961442451456
 20
3.194774015925366
 30
0.0
 11
2.673291210524812
 21
2.887004118969182
 31
0.0
  0
LINE
  5
785
330
17
100
AcDbEntity
  8
IMAGE
100
AcDbLine
 10
2.44335735787029
 20
3.175025925563163
 30
0.0
 11
2.517187040420474
 21
2.893550260840628
 31
0.0
  0
LINE
  5
786
330
17
100
AcDbEntity
  8
IMAGE
100
AcDbLine
 10
1.513395538490494
 20
3.175025925563163
 30
0.0
 11
1.587225221040677
 21
2.893550260840628
 31
0.0
  0
LINE
  5
787
330
17
100
AcDbEntity
  8
IMAGE
100
AcDbLine
 10
1.582773091971801
 20
3.216757579993673
 30
0.0
 11
1.503317612198848
 21
2.887004118969171
 31
0.0
  0
LINE
  5
788
330
17
100
AcDbEntity
  8
IMAGE
100
AcDbLine
 10
1.475105229053868
 20
2.887279659091171
 30
0.0
 11
2.070105229053869
 21
2.88727965909117
 31
0.0
  0
LWPOLYLINE
  5
789
330
17
100
AcDbEntity
  8
IMAGE
100
AcDbPolyline
 90
        4
 70
     0
 43
0.0
 10
1.750332795037736
 20
6.401092755232122
 10
1.760082442063745
 20
6.308022729824481
 42
-0.0497106571012026
 10
1.778127885847903
 20
6.124029859820317
 42
0.0622874697930023
 10
1.816023297814846
 20
6.00833229439949
 42
2.448142703935495
  0
LWPOLYLINE
  5
78F
330
17
100
AcDbEntity
  8
IMAGE
100
AcDbPolyline
 90
        4
 70
     0
 43
0.0
 10
1.786932095153763
 20
6.401117233088074
 42
0.0499642919368491
 10
1.823241495308296
 20
6.275553402760824
 42
-0.1175363805237545
 10
1.855723284129886
 20
6.161910733072867
 42
0.1206115308190757
 10
1.890009647299572
 20
6.00833229439949
 42
-7.306452278592476
  0
LWPOLYLINE
  5
795
330
17
100
AcDbEntity
  8
IMAGE
100
AcDbPolyline
 90
        4
 70
     0
 43
0.0
 10
1.76705457204224
 20
6.402844462322858
 10
1.776723308367186
 20
6.310546809595332
 42
-0.0490666023724778
 10
1.794942306479782
 20
6.12565834778085
 42
0.0656548109305031
 10
1.834688914949507
 20
6.00833229439949
 42
0.0614335692585178
  0
LWPOLYLINE
  5
79B
330
17
100
AcDbEntity
  8
IMAGE
100
AcDbPolyline
 90
        4
 70
     0
 43
0.0
 10
1.803091641225609
 20
6.404085280332502
 42
0.0495508518431181
 10
1.838099521004472
 20
6.28264705053642
 42
-0.1170187693099134
 10
1.872160709574689
 20
6.162092774458492
 42
0.1276386399388418
 10
1.908461780557043
 20
6.00833229439949
 42
0.1210289707052949
  0
ARC
  5
7A1
330
17
100
AcDbEntity
  8
IMAGE
100
AcDbCircle
 10
0.5686748264245458
 20
5.749161564780417
 30
0.0
 40
0.0086785395885068
100
AcDbArc
 50
89.237141846974
 51
229.1148612359164
  0
ARC
  5
7A2
330
17
100
AcDbEntity
  8
IMAGE
100
AcDbCircle
 10
0.5679873276267755
 20
5.697528831108916
 30
0.0
 40
0.0086785395885068
100
AcDbArc
 50
89.237141846974
 51
229.1148612359164
  0
ARC
  5
7A3
330
17
100
AcDbEntity
  8
IMAGE
100
AcDbCircle
 10
0.5672998288293783
 20
5.645896097437267
 30
0.0
 40
0.0086785395885068
100
AcDbArc
 50
89.237141846974
 51
229.1148612359164
  0
LWPOLYLINE
  5
7A4
330
17
100
AcDbEntity
  8
IMAGE
100
AcDbPolyline
 90
        2
 70
     0
 43
0.0
 10
0.5674153748457491
 20
5.65457386780225
 10
0.7053890159825557
 20
5.610631681237894
  0
LINE
  5
7A8
330
17
100
AcDbEntity
  8
IMAGE
100
AcDbLine
 10
1.475105229053868
 20
2.19751215705171
 30
0.0
 11
1.475105229053868
 21
1.702120292643594
 31
0.0
  0
LINE
  5
7A9
330
17
100
AcDbEntity
  8
IMAGE
100
AcDbLine
 10
1.150105229053868
 20
3.372041617769653
 30
0.0
 11
1.150105229053868
 21
1.702120292643594
 31
0.0
  0
LWPOLYLINE
  5
7AA
330
17
100
AcDbEntity
  8
IMAGE
100
AcDbPolyline
 90
        2
 70
     0
 43
0.0
 10
1.052695954769644
 20
5.679566973516651
 42
0.2175770950899512
 10
0.9223946624733564
 20
5.596682996032273
 42
0.7150309199883806
  0
LWPOLYLINE
  5
7AE
330
17
100
AcDbEntity
  8
IMAGE
100
AcDbPolyline
 90
        2
 70
     0
 43
0.0
 10
1.054957089557619
 20
5.663293451981228
 42
0.2175770950899519
 10
0.936175478684734
 20
5.58773708421505
 42
0.2175770950899519
  0
LWPOLYLINE
  5
7B2
330
17
100
AcDbEntity
  8
IMAGE
100
AcDbPolyline
 90
        2
 70
     0
 43
0.0
 10
1.110676027362666
 20
5.663807510304531
 10
1.054957089557619
 20
5.663293451981228
  0
LINE
  5
7B6
330
17
100
AcDbEntity
  8
IMAGE
  6
ByBlock
100
AcDbLine
 10
3.065169697615778
 20
1.38727965909117
 30
0.0
 11
2.947669697615778
 21
1.38727965909117
 31
0.0
  0
LINE
  5
7B7
330
17
100
AcDbEntity
  8
IMAGE
  6
ByBlock
100
AcDbLine
 10
3.127669697615778
 20
1.56727965909117
 30
0.0
 11
3.127669697615778
 21
1.762966285859017
 31
0.0
  0
SOLID
  5
7B8
330
17
100
AcDbEntity
  8
IMAGE
  6
ByBlock
100
AcDbTrace
 10
3.097669697615778
 20
2.70727965909117
 30
0.0
 11
3.157669697615778
 21
2.70727965909117
 31
0.0
 12
3.127669697615778
 22
2.88727965909117
 32
0.0
 13
3.127669697615778
 23
2.88727965909117
 33
0.0
  0
SOLID
  5
7B9
330
17
100
AcDbEntity
  8
IMAGE
  6
ByBlock
100
AcDbTrace
 10
3.097669697615778
 20
1.56727965909117
 30
0.0
 11
3.157669697615778
 21
1.56727965909117
 31
0.0
 12
3.127669697615778
 22
1.38727965909117
 32
0.0
 13
3.127669697615778
 23
1.38727965909117
 33
0.0
  0
TEXT
  5
7BA
330
17
100
AcDbEntity
  8
IMAGE
  6
ByBlock
100
AcDbText
 10
2.98005064999673
 20
2.083194442081456
 30
0.0
 40
0.1
  1
%%P6"
  7
ROMANS
 72
     4
 11
3.127669697615778
 21
2.142718251605265
 31
0.0
100
AcDbText
  0
LWPOLYLINE
  5
7BC
330
17
100
AcDbEntity
  8
IMAGE
100
AcDbPolyline
 90
        2
 70
     0
 43
0.0
 10
0.940693472724908
 20
6.344359873171344
 10
0.9007408581690297
 20
6.342511628983454
  0
LWPOLYLINE
  5
7C0
330
17
100
AcDbEntity
  8
IMAGE
100
AcDbPolyline
 90
        2
 70
     0
 43
0.0
 10
1.017666121293155
 20
6.236336407031241
 10
0.8993658605742387
 20
6.239246161640155
  0
LWPOLYLINE
  5
7C4
330
17
100
AcDbEntity
  8
IMAGE
100
AcDbPolyline
 90
        2
 70
     0
 43
0.0
 10
1.018353620090541
 20
6.287969140702887
 10
0.9000533593716271
 20
6.290878895311805
  0
LWPOLYLINE
  5
7C8
330
17
100
AcDbEntity
  8
IMAGE
100
AcDbPolyline
 90
        2
 70
     0
 43
0.0
 10
0.9441267891892623
 20
6.365039618381813
 10
0.8434905388220473
 20
6.360744852321523
  0
LWPOLYLINE
  5
7CC
330
17
100
AcDbEntity
  8
IMAGE
100
AcDbPolyline
 90
        2
 70
     0
 43
0.0
 10
0.9611033007435645
 20
6.306202364040948
 10
0.8428030400246553
 20
6.309112118649873
  0
LWPOLYLINE
  5
7D0
330
17
100
AcDbEntity
  8
IMAGE
100
AcDbPolyline
 90
        2
 70
     0
 43
0.0
 10
0.9604158019461673
 20
6.254569630369306
 10
0.8421155412272581
 20
6.257479384978227
  0
LWPOLYLINE
  5
7D4
330
17
100
AcDbEntity
  8
IMAGE
100
AcDbPolyline
 90
        2
 70
     0
 43
0.0
 10
0.9597283031487753
 20
6.202936896697656
 10
0.8414280424298643
 20
6.205846651306578
  0
LWPOLYLINE
  5
7D8
330
17
100
AcDbEntity
  8
IMAGE
100
AcDbPolyline
 90
        2
 70
     0
 43
0.0
 10
0.8370070015674995
 20
6.293873170416818
 10
1.017666121293155
 20
6.236336407031241
  0
LWPOLYLINE
  5
7DC
330
17
100
AcDbEntity
  8
IMAGE
100
AcDbPolyline
 90
        2
 70
     0
 43
0.0
 10
0.8428030400246553
 20
6.309112118649873
 10
1.023462159750403
 20
6.251575355264249
  0
LWPOLYLINE
  5
7E0
330
17
100
AcDbEntity
  8
IMAGE
100
AcDbPolyline
 90
        2
 70
     0
 43
0.0
 10
0.8376945003649021
 20
6.345505904088464
 10
1.018353620090541
 20
6.287969140702887
  0
LWPOLYLINE
  5
7E4
330
17
100
AcDbEntity
  8
IMAGE
100
AcDbPolyline
 90
        2
 70
     0
 43
0.0
 10
0.8434905388220473
 20
6.360744852321523
 10
1.0241496585478
 20
6.303208088935895
  0
LWPOLYLINE
  5
7E8
330
17
100
AcDbEntity
  8
IMAGE
100
AcDbPolyline
 90
        2
 70
     0
 43
0.0
 10
0.8421155412272581
 20
6.257479384978227
 10
1.022774660953015
 20
6.1999426215926
  0
LWPOLYLINE
  5
7EC
330
17
100
AcDbEntity
  8
IMAGE
100
AcDbPolyline
 90
        2
 70
     0
 43
0.0
 10
1.013541128508036
 20
5.926540005001636
 10
0.8952408677891215
 20
5.929449759610554
  0
LWPOLYLINE
  5
7F0
330
17
100
AcDbEntity
  8
IMAGE
100
AcDbPolyline
 90
        2
 70
     0
 43
0.0
 10
1.014916126102827
 20
6.029805472344928
 10
0.8966158653839107
 20
6.032715226953846
  0
LWPOLYLINE
  5
7F4
330
17
100
AcDbEntity
  8
IMAGE
100
AcDbPolyline
 90
        2
 70
     0
 43
0.0
 10
1.014228627305422
 20
5.978172738673282
 10
0.8959283665865081
 20
5.981082493282204
  0
LWPOLYLINE
  5
7F8
330
17
100
AcDbEntity
  8
IMAGE
100
AcDbPolyline
 90
        2
 70
     0
 43
0.0
 10
1.016291123697987
 20
6.133070939688084
 10
0.8979908629790765
 20
6.135980694297002
  0
LWPOLYLINE
  5
7FC
330
17
100
AcDbEntity
  8
IMAGE
100
AcDbPolyline
 90
        2
 70
     0
 43
0.0
 10
1.015603624900595
 20
6.081438206016435
 10
0.8973033641816757
 20
6.084347960625357
  0
LWPOLYLINE
  5
800
330
17
100
AcDbEntity
  8
IMAGE
100
AcDbPolyline
 90
        2
 70
     0
 43
0.0
 10
0.9556033103636563
 20
5.893140494668059
 10
0.8373030496447471
 20
5.89605024927697
  0
LWPOLYLINE
  5
804
330
17
100
AcDbEntity
  8
IMAGE
100
AcDbPolyline
 90
        2
 70
     0
 43
0.0
 10
0.95629080916105
 20
5.944773228339701
 10
0.837990548442139
 20
5.947682982948623
  0
LWPOLYLINE
  5
808
330
17
100
AcDbEntity
  8
IMAGE
100
AcDbPolyline
 90
        2
 70
     0
 43
0.0
 10
0.9569783079584455
 20
5.996405962011347
 10
0.8386780472395363
 20
5.999315716620269
  0
LWPOLYLINE
  5
80C
330
17
100
AcDbEntity
  8
IMAGE
100
AcDbPolyline
 90
        2
 70
     0
 43
0.0
 10
0.9576658067558268
 20
6.048038695683
 10
0.8393655460369283
 20
6.050948450291918
  0
LWPOLYLINE
  5
810
330
17
100
AcDbEntity
  8
IMAGE
100
AcDbPolyline
 90
        2
 70
     0
 43
0.0
 10
0.9583533055536131
 20
6.099671429354503
 10
0.8400530448346986
 20
6.102581183963425
  0
LWPOLYLINE
  5
814
330
17
100
AcDbEntity
  8
IMAGE
100
AcDbPolyline
 90
        2
 70
     0
 43
0.0
 10
0.8328820087823805
 20
5.984076768387217
 10
1.013541128508036
 20
5.926540005001636
  0
LWPOLYLINE
  5
818
330
17
100
AcDbEntity
  8
IMAGE
100
AcDbPolyline
 90
        2
 70
     0
 43
0.0
 10
0.837990548442139
 20
5.947682982948623
 10
1.018649668167897
 20
5.890146219563002
  0
LWPOLYLINE
  5
81C
330
17
100
AcDbEntity
  8
IMAGE
100
AcDbPolyline
 90
        2
 70
     0
 43
0.0
 10
0.8393655460369283
 20
6.050948450291918
 10
1.020024665762681
 20
5.993411686906298
  0
LWPOLYLINE
  5
820
330
17
100
AcDbEntity
  8
IMAGE
100
AcDbPolyline
 90
        2
 70
     0
 43
0.0
 10
0.8335695075797831
 20
6.035709502058863
 10
1.014228627305422
 20
5.978172738673282
  0
LWPOLYLINE
  5
824
330
17
100
AcDbEntity
  8
IMAGE
100
AcDbPolyline
 90
        2
 70
     0
 43
0.0
 10
0.8386780472395363
 20
5.999315716620269
 10
1.019337166965284
 20
5.941778953234648
  0
LWPOLYLINE
  5
828
330
17
100
AcDbEntity
  8
IMAGE
100
AcDbPolyline
 90
        2
 70
     0
 43
0.0
 10
0.8342570063775534
 20
6.08734223573037
 10
1.014916126103196
 20
6.029805472344789
  0
LWPOLYLINE
  5
82C
330
17
100
AcDbEntity
  8
IMAGE
100
AcDbPolyline
 90
        2
 70
     0
 43
0.0
 10
0.8400530448346986
 20
6.102581183963425
 10
1.020712164560453
 20
6.045044420577801
  0
LWPOLYLINE
  5
830
330
17
100
AcDbEntity
  8
IMAGE
100
AcDbPolyline
 90
        2
 70
     0
 43
0.0
 10
0.8349445051749507
 20
6.138974969402016
 10
1.015603624900595
 20
6.081438206016435
  0
LWPOLYLINE
  5
834
330
17
100
AcDbEntity
  8
IMAGE
100
AcDbPolyline
 90
        2
 70
     0
 43
0.0
 10
0.9590408043509162
 20
6.15130416302616
 10
0.8407405436320958
 20
6.154213917635071
  0
LWPOLYLINE
  5
838
330
17
100
AcDbEntity
  8
IMAGE
100
AcDbPolyline
 90
        2
 70
     0
 43
0.0
 10
0.8407405436320958
 20
6.154213917635071
 10
1.021399663357849
 20
6.096677154249447
  0
LWPOLYLINE
  5
83C
330
17
100
AcDbEntity
  8
IMAGE
100
AcDbPolyline
 90
        2
 70
     0
 43
0.0
 10
1.011478632115478
 20
5.771641803986834
 10
0.8931783713965566
 20
5.774551558595752
  0
LWPOLYLINE
  5
840
330
17
100
AcDbEntity
  8
IMAGE
100
AcDbPolyline
 90
        2
 70
     0
 43
0.0
 10
1.012166130912868
 20
5.82327453765848
 10
0.893865870193961
 20
5.826184292267401
  0
LWPOLYLINE
  5
844
330
17
100
AcDbEntity
  8
IMAGE
100
AcDbPolyline
 90
        2
 70
     0
 43
0.0
 10
0.8359280520495795
 20
5.79278478193382
 10
0.9739016931863861
 20
5.748842595369464
  0
LWPOLYLINE
  5
848
330
17
100
AcDbEntity
  8
IMAGE
100
AcDbPolyline
 90
        2
 70
     0
 43
0.0
 10
0.9542283127684941
 20
5.789875027324902
 10
0.8359280520495795
 20
5.79278478193382
  0
LWPOLYLINE
  5
84C
330
17
100
AcDbEntity
  8
IMAGE
100
AcDbPolyline
 90
        2
 70
     0
 43
0.0
 10
0.8301320135924344
 20
5.777545833700769
 10
0.9640543704888118
 20
5.734893910163843
  0
LWPOLYLINE
  5
850
330
17
100
AcDbEntity
  8
IMAGE
100
AcDbPolyline
 90
        2
 70
     0
 43
0.0
 10
0.9549158115657972
 20
5.841507760996552
 10
0.8366155508469768
 20
5.84441751560547
  0
LWPOLYLINE
  5
854
330
17
100
AcDbEntity
  8
IMAGE
100
AcDbPolyline
 90
        2
 70
     0
 43
0.0
 10
0.8366155508469768
 20
5.84441751560547
 10
1.017274670572732
 20
5.786880752219842
  0
LWPOLYLINE
  5
858
330
17
100
AcDbEntity
  8
IMAGE
100
AcDbPolyline
 90
        2
 70
     0
 43
0.0
 10
0.8308195123898334
 20
5.829178567372411
 10
1.011478632115478
 20
5.771641803986834
  0
LWPOLYLINE
  5
85C
330
17
100
AcDbEntity
  8
IMAGE
100
AcDbPolyline
 90
        2
 70
     0
 43
0.0
 10
0.8321945099849957
 20
5.932444034715568
 10
1.012853629710637
 20
5.874907271329987
  0
LWPOLYLINE
  5
860
330
17
100
AcDbEntity
  8
IMAGE
100
AcDbPolyline
 90
        2
 70
     0
 43
0.0
 10
1.012853629710637
 20
5.874907271329987
 10
0.8945533689917278
 20
5.877817025938901
  0
LWPOLYLINE
  5
864
330
17
100
AcDbEntity
  8
IMAGE
100
AcDbPolyline
 90
        2
 70
     0
 43
0.0
 10
0.8373030496447471
 20
5.89605024927697
 10
1.0179621693705
 20
5.838513485891353
  0
LWPOLYLINE
  5
868
330
17
100
AcDbEntity
  8
IMAGE
100
AcDbPolyline
 90
        2
 70
     0
 43
0.0
 10
0.8315070111875966
 20
5.880811301043926
 10
1.012166130913245
 20
5.823274537658337
  0
LWPOLYLINE
  5
86C
330
17
100
AcDbEntity
  8
IMAGE
100
AcDbPolyline
 90
        2
 70
     0
 43
0.0
 10
1.016978622495757
 20
6.184703673359591
 10
0.8986783617768468
 20
6.187613427968506
  0
LWPOLYLINE
  5
870
330
17
100
AcDbEntity
  8
IMAGE
100
AcDbPolyline
 90
        2
 70
     0
 43
0.0
 10
0.8363195027701111
 20
6.242240436745173
 10
1.016978622495757
 20
6.184703673359591
  0
LWPOLYLINE
  5
874
330
17
100
AcDbEntity
  8
IMAGE
100
AcDbPolyline
 90
        2
 70
     0
 43
0.0
 10
0.8356320039727156
 20
6.190607703073527
 10
1.016291123698364
 20
6.133070939687946
  0
LWPOLYLINE
  5
878
330
17
100
AcDbEntity
  8
IMAGE
100
AcDbPolyline
 90
        2
 70
     0
 43
0.0
 10
0.8414280424298643
 20
6.205846651306578
 10
1.022087162155619
 20
6.148309887920958
  0
ARC
  5
87C
330
17
100
AcDbEntity
  8
IMAGE
100
AcDbCircle
 10
0.8358125060332087
 20
5.784107011568837
 30
0.0
 40
0.0086785395885068
100
AcDbArc
 50
89.237141846974
 51
229.1148612359164
  0
ARC
  5
87D
330
17
100
AcDbEntity
  8
IMAGE
100
AcDbCircle
 10
0.8365000048306059
 20
5.835739745240487
 30
0.0
 40
0.0086785395885068
100
AcDbArc
 50
89.237141846974
 51
229.1148612359164
  0
ARC
  5
87E
330
17
100
AcDbEntity
  8
IMAGE
100
AcDbCircle
 10
0.8371875036283762
 20
5.887372478911987
 30
0.0
 40
0.0086785395885068
100
AcDbArc
 50
89.237141846974
 51
229.1148612359164
  0
ARC
  5
87F
330
17
100
AcDbEntity
  8
IMAGE
100
AcDbCircle
 10
0.8392500000205574
 20
6.042270679926939
 30
0.0
 40
0.0086785395885068
100
AcDbArc
 50
89.237141846974
 51
229.1148612359164
  0
ARC
  5
880
330
17
100
AcDbEntity
  8
IMAGE
100
AcDbCircle
 10
0.8399374988183348
 20
6.093903413598439
 30
0.0
 40
0.0086785395885068
100
AcDbArc
 50
89.237141846974
 51
229.1148612359164
  0
ARC
  5
881
330
17
100
AcDbEntity
  8
IMAGE
100
AcDbCircle
 10
0.8378750024257682
 20
5.93900521258364
 30
0.0
 40
0.0086785395885068
100
AcDbArc
 50
89.237141846974
 51
229.1148612359164
  0
ARC
  5
882
330
17
100
AcDbEntity
  8
IMAGE
100
AcDbCircle
 10
0.8385625012231672
 20
5.990637946255282
 30
0.0
 40
0.0086785395885068
100
AcDbArc
 50
89.237141846974
 51
229.1148612359164
  0
ARC
  5
883
330
17
100
AcDbEntity
  8
IMAGE
100
AcDbCircle
 10
0.8406249976157196
 20
6.145536147270092
 30
0.0
 40
0.0086785395885068
100
AcDbArc
 50
89.237141846974
 51
229.1148612359164
  0
ARC
  5
884
330
17
100
AcDbEntity
  8
IMAGE
100
AcDbCircle
 10
0.8413124964134953
 20
6.197168880941599
 30
0.0
 40
0.0086785395885068
100
AcDbArc
 50
89.237141846974
 51
229.1148612359164
  0
ARC
  5
885
330
17
100
AcDbEntity
  8
IMAGE
100
AcDbCircle
 10
0.8426874940082845
 20
6.30043434828489
 30
0.0
 40
0.0086785395885068
100
AcDbArc
 50
89.237141846974
 51
229.1148612359164
  0
ARC
  5
886
330
17
100
AcDbEntity
  8
IMAGE
100
AcDbCircle
 10
0.8433749928056782
 20
6.352067081956536
 30
0.0
 40
0.0086785395885068
100
AcDbArc
 50
89.237141846974
 51
229.1148612359164
  0
ARC
  5
887
330
17
100
AcDbEntity
  8
IMAGE
100
AcDbCircle
 10
0.8419999952108854
 20
6.248801614613241
 30
0.0
 40
0.0086785395885068
100
AcDbArc
 50
89.237141846974
 51
229.1148612359164
  0
ARC
  5
888
330
17
100
AcDbEntity
  8
IMAGE
100
AcDbCircle
 10
1.017094168512132
 20
6.193381443724574
 30
0.0
 40
0.0086785395885068
100
AcDbArc
 50
269.237141846974
 51
49.11486123591977
  0
ARC
  5
889
330
17
100
AcDbEntity
  8
IMAGE
100
AcDbCircle
 10
1.012969175727013
 20
5.883585041694966
 30
0.0
 40
0.0086785395885068
100
AcDbArc
 50
269.237141846974
 51
49.11486123591977
  0
ARC
  5
88A
330
17
100
AcDbEntity
  8
IMAGE
100
AcDbCircle
 10
1.011594178131847
 20
5.78031957435182
 30
0.0
 40
0.0086785395885068
100
AcDbArc
 50
269.237141846974
 51
49.11486123591977
  0
ARC
  5
88B
330
17
100
AcDbEntity
  8
IMAGE
100
AcDbCircle
 10
1.012281676929239
 20
5.831952308023466
 30
0.0
 40
0.0086785395885068
100
AcDbArc
 50
269.237141846974
 51
49.11486123591977
  0
ARC
  5
88C
330
17
100
AcDbEntity
  8
IMAGE
100
AcDbCircle
 10
1.013656674524401
 20
5.935217775366623
 30
0.0
 40
0.0086785395885068
100
AcDbArc
 50
269.237141846974
 51
49.11486123591977
  0
ARC
  5
88D
330
17
100
AcDbEntity
  8
IMAGE
100
AcDbCircle
 10
1.01503167211919
 20
6.038483242709911
 30
0.0
 40
0.0086785395885068
100
AcDbArc
 50
269.237141846974
 51
49.11486123591977
  0
ARC
  5
88E
330
17
100
AcDbEntity
  8
IMAGE
100
AcDbCircle
 10
1.015719170916968
 20
6.090115976381421
 30
0.0
 40
0.0086785395885068
100
AcDbArc
 50
269.237141846974
 51
49.11486123591977
  0
ARC
  5
88F
330
17
100
AcDbEntity
  8
IMAGE
100
AcDbCircle
 10
1.016406669714358
 20
6.141748710053067
 30
0.0
 40
0.0086785395885068
100
AcDbArc
 50
269.237141846974
 51
49.11486123591977
  0
ARC
  5
890
330
17
100
AcDbEntity
  8
IMAGE
100
AcDbCircle
 10
1.014344173321804
 20
5.986850509038265
 30
0.0
 40
0.0086785395885068
100
AcDbArc
 50
269.237141846974
 51
49.11486123591977
  0
ARC
  5
891
330
17
100
AcDbEntity
  8
IMAGE
100
AcDbCircle
 10
1.017781667309519
 20
6.24501417739622
 30
0.0
 40
0.0086785395885068
100
AcDbArc
 50
269.237141846974
 51
49.11486123591977
  0
ARC
  5
892
330
17
100
AcDbEntity
  8
IMAGE
100
AcDbCircle
 10
1.018469166106923
 20
6.29664691106787
 30
0.0
 40
0.0086785395885068
100
AcDbArc
 50
269.237141846974
 51
49.11486123591977
  0
LWPOLYLINE
  5
893
330
17
100
AcDbEntity
  8
IMAGE
100
AcDbPolyline
 90
        4
 70
     0
 43
0.0
 10
0.944126789189262
 20
6.365039618381812
 42
0.0436921255260824
 10
1.064434946960239
 20
6.392884886785011
 42
-0.3298495823388952
 10
1.122842033920416
 20
6.380773633962626
 42
-0.0948277335684701
 10
1.134864971751149
 20
6.344269974257956
 42
-0.0986598717667563
  0
LWPOLYLINE
  5
899
330
17
100
AcDbEntity
  8
IMAGE
100
AcDbPolyline
 90
        4
 70
     0
 43
0.0
 10
0.940693472724908
 20
6.344359873171344
 42
0.0443012735294208
 10
1.066812742742212
 20
6.377672872064201
 42
-0.2762499180314624
 10
1.108481063708415
 20
6.372792232565422
 42
-0.0885508772604087
 10
1.118270460266427
 20
6.344269974257956
 42
-0.094827733568472
  0
LWPOLYLINE
  5
89F
330
17
100
AcDbEntity
  8
IMAGE
100
AcDbPolyline
 90
        2
 70
     0
 43
0.0
 10
0.9649057877612364
 20
5.735094362054778
 42
-0.2004974341906411
 10
1.010116768520165
 20
5.668386594722957
 42
0.3399680826994033
  0
LWPOLYLINE
  5
8A3
330
17
100
AcDbEntity
  8
IMAGE
100
AcDbPolyline
 90
        2
 70
     0
 43
0.0
 10
0.9739016931863861
 20
5.748842595369464
 42
-0.195850185549789
 10
1.025770995928724
 20
5.673765234180023
 42
0.3413803161041624
  0
LWPOLYLINE
  5
8A7
330
17
100
AcDbEntity
  8
IMAGE
100
AcDbPolyline
 90
        2
 70
     0
 43
0.0
 10
0.9368191295394485
 20
5.588816930716468
 42
0.0571519575617042
 10
0.905811058933196
 20
5.512311010073986
  0
LWPOLYLINE
  5
8AB
330
17
100
AcDbEntity
  8
IMAGE
100
AcDbPolyline
 90
        2
 70
     0
 43
0.0
 10
0.9223946624733564
 20
5.596682996032273
 42
0.0768395567863182
 10
0.8831646507617902
 20
5.487818648448936
  0
LWPOLYLINE
  5
8AF
330
17
100
AcDbEntity
  8
IMAGE
100
AcDbPolyline
 90
        2
 70
     0
 43
0.0
 10
0.7053890159825553
 20
5.610631681237895
 42
-0.0804264163515023
 10
0.8248156290500629
 20
5.403515884709506
 42
0.018777834044139
  0
LWPOLYLINE
  5
8B3
330
17
100
AcDbEntity
  8
IMAGE
100
AcDbPolyline
 90
        2
 70
     0
 43
0.0
 10
0.6955416932849814
 20
5.596682996032273
 42
-0.0839737511215415
 10
0.8145978976448359
 20
5.383698826579544
 42
0.0187745769042696
  0
TEXT
  5
8C7
330
17
100
AcDbEntity
  8
TEXT_BUBBLES
100
AcDbText
 10
4.753372593417307
 20
4.49030831070362
 30
0.0
 40
0.1250000018625
  1
  PVC SCH 40 MALE ADAPTER
  7
ROMANS
100
AcDbText
  0
TEXT
  5
8CB
330
17
100
AcDbEntity
  8
TEXT_BUBBLES
100
AcDbText
 10
4.753372593417307
 20
2.93780830116737
 30
0.0
 40
0.1250000018625
  1
PVC SCH 40 ELL
  7
ROMANS
100
AcDbText
  0
LINE
  5
8CC
330
17
100
AcDbEntity
  8
IMAGE
  6
ByBlock
100
AcDbLine
 10
3.127669697615778
 20
2.721060299921013
 30
0.0
 11
3.127669697615778
 21
2.282718251605265
 31
0.0
  0
TEXT
  5
8CD
330
17
100
AcDbEntity
  8
TEXT_BUBBLES
100
AcDbText
 10
4.753372593417307
 20
2.74030831070362
 30
0.0
 40
0.1250000018625
  1
  (1 OF 2)
  7
ROMANS
100
AcDbText
  0
SOLID
  5
8CE
330
17
100
AcDbEntity
  8
IMAGE
100
AcDbTrace
 10
3.024416950798644
 20
1.188259826422191
 30
0.0
 11
3.024416950798644
 21
1.248259826422192
 31
0.0
 12
2.844416950798644
 22
1.218259826422191
 32
0.0
 13
2.844416950798644
 23
1.218259826422191
 33
0.0
  0
LINE
  5
8CF
330
17
100
AcDbEntity
  8
IMAGE
100
AcDbLine
 10
3.024416950798644
 20
1.218259826422191
 30
0.0
 11
3.254077793997499
 21
1.218259826422191
 31
0.0
  0
TEXT
  5
8D0
330
17
100
AcDbEntity
  8
TEXT_BUBBLES
100
AcDbText
 10
4.753372593417307
 20
2.21530831070362
 30
0.0
 40
0.1250000018625
  1
  (1 OF 2)
  7
ROMANS
100
AcDbText
  0
TEXT
  5
8D1
330
17
100
AcDbEntity
  8
TEXT_LEADERS
100
AcDbText
 10
4.76
 20
1.918786474689899
 30
0.0
 40
0.125
  1
PVC LATERAL PIPE
  7
ROMANS
100
AcDbText
  0
TEXT
  5
8D2
330
17
100
AcDbEntity
  8
TEXT_LEADERS
100
AcDbText
 10
4.755081908821898
 20
5.660564674692749
 30
0.0
 40
0.125
  1
REMOTE CONTROL VALVE:
  7
ROMANS
100
AcDbText
  0
TEXT
  5
8D3
330
17
100
AcDbEntity
  8
TEXT_LEADERS
100
AcDbText
 10
4.76
 20
6.108005263200153
 30
0.0
 40
0.125
  1
WATERPROOF CONNECTION: 
  7
ROMANS
100
AcDbText
  0
TEXT
  5
8D4
330
17
100
AcDbEntity
  8
TEXT_LEADERS
100
AcDbText
 10
4.76
 20
6.613149816541789
 30
0.0
 40
0.125
  1
  OF WIRE, COILED
  7
ROMANS
100
AcDbText
  0
TEXT
  5
8D5
330
17
100
AcDbEntity
  8
TEXT_LEADERS
100
AcDbText
 10
4.76
 20
6.797827430344915
 30
0.0
 40
0.125
  1
30-INCH LINEAR LENGTH
  7
ROMANS
100
AcDbText
  0
TEXT
  5
8D6
330
17
100
AcDbEntity
  8
TEXT_LEADERS
100
AcDbText
 10
4.76
 20
3.248093016726526
 30
0.0
 40
0.125
  1
FINISH GRADE/TOP OF MULCH
  7
ROMANS
100
AcDbText
  0
TEXT
  5
8D7
330
17
100
AcDbEntity
  8
TEXT_LEADERS
100
AcDbText
 10
4.76
 20
4.210918557529986
 30
0.0
 40
0.125
  1
UV RADIATION RESISTANT
  7
ROMANS
100
AcDbText
  0
TEXT
  5
8D8
330
17
100
AcDbEntity
  8
TEXT_LEADERS
100
AcDbText
 10
4.76
 20
4.877048835691004
 30
0.0
 40
0.125
  1
UV RADIATION RESISTANT
  7
ROMANS
100
AcDbText
  0
TEXT
  5
8DA
330
17
100
AcDbEntity
  8
TEXT_LEADERS
100
AcDbText
 10
4.76
 20
2.42250993327169
 30
0.0
 40
0.125
  1
PVC SCH 40 ELL
  7
ROMANS
100
AcDbText
  0
TEXT
  5
8DB
330
17
100
AcDbEntity
  8
TEXT_LEADERS
100
AcDbText
 10
4.76
 20
1.701795477578792
 30
0.0
 40
0.125
  1
  (1 OF 2)
  7
ROMANS
100
AcDbText
  0
TEXT
  5
8DC
330
17
100
AcDbEntity
  8
TEXT_LEADERS
100
AcDbText
 10
4.76
 20
2.218792058384263
 30
0.0
 40
0.125
  1
  (1 OF 2)
  7
ROMANS
100
AcDbText
  0
TEXT
  5
8DD
330
17
100
AcDbEntity
  8
TEXT_LEADERS
100
AcDbText
 10
4.76
 20
5.929380162068389
 30
0.0
 40
0.125
  1
  RAIN BIRD SPLICE-1 (1 OF 2)
  7
ROMANS
100
AcDbText
  0
TEXT
  5
8DE
330
17
100
AcDbEntity
  8
TEXT_LEADERS
100
AcDbText
 10
4.76
 20
4.685694224552966
 30
0.0
 40
0.125
  1
  PVC SCH 40 MALE ADAPTER
  7
ROMANS
100
AcDbText
  0
TEXT
  5
8DF
330
17
100
AcDbEntity
  8
TEXT_LEADERS
100
AcDbText
 10
4.76
 20
6.355265306397444
 30
0.0
 40
0.125
  1
ID TAG: RAIN BIRD VID SERIES
  7
ROMANS
100
AcDbText
  0
CIRCLE
  5
8FE
330
17
100
AcDbEntity
  8
TEXT_BUBBLES
100
AcDbCircle
 10
4.515881669599138
 20
2.473662548917618
 30
0.0
 40
0.15625
  0
TEXT
  5
8FF
330
17
100
AcDbEntity
  8
TEXT_BUBBLES
100
AcDbText
 10
4.387905479122947
 20
2.411162548917618
 30
0.0
 40
0.125
  1
10
  7
ROMANS
 72
     4
 11
4.515881669599138
 21
2.473662548917618
 31
0.0
100
AcDbText
  0
CIRCLE
  5
900
330
17
100
AcDbEntity
  8
TEXT_BUBBLES
100
AcDbCircle
 10
2.24517714441651
 20
6.727632796619929
 30
0.0
 40
0.15625
  0
TEXT
  5
901
330
17
100
AcDbEntity
  8
TEXT_BUBBLES
100
AcDbText
 10
2.194581906321272
 20
6.665132796619929
 30
0.0
 40
0.125
  1
1
  7
ROMANS
 72
     4
 11
2.24517714441651
 21
6.727632796619929
 31
0.0
100
AcDbText
  0
TEXT
  5
902
330
17
100
AcDbEntity
  8
TEXT_BUBBLES
100
AcDbText
 10
4.459334050551519
 20
2.936162548917617
 30
0.0
 40
0.125
  1
9
  7
ROMANS
 72
     4
 11
4.515881669599138
 21
2.998662548917617
 31
0.0
100
AcDbText
  0
CIRCLE
  5
903
330
17
100
AcDbEntity
  8
TEXT_BUBBLES
100
AcDbCircle
 10
4.515881669599138
 20
2.998662548917617
 30
0.0
 40
0.15625
  0
TEXT
  5
904
330
17
100
AcDbEntity
  8
TEXT_BUBBLES
100
AcDbText
 10
4.456357860075328
 20
3.286162548917618
 30
0.0
 40
0.125
  1
8
  7
ROMANS
 72
     4
 11
4.515881669599138
 21
3.348662548917618
 31
0.0
100
AcDbText
  0
CIRCLE
  5
905
330
17
100
AcDbEntity
  8
TEXT_BUBBLES
100
AcDbCircle
 10
4.515881669599138
 20
3.348662548917618
 30
0.0
 40
0.15625
  0
TEXT
  5
906
330
17
100
AcDbEntity
  8
TEXT_BUBBLES
100
AcDbText
 10
4.456357860075328
 20
3.986162548917619
 30
0.0
 40
0.125
  1
7
  7
ROMANS
 72
     4
 11
4.515881669599138
 21
4.048662548917619
 31
0.0
100
AcDbText
  0
CIRCLE
  5
907
330
17
100
AcDbEntity
  8
TEXT_BUBBLES
100
AcDbCircle
 10
4.515881669599138
 20
4.048662548917619
 30
0.0
 40
0.15625
  0
TEXT
  5
908
330
17
100
AcDbEntity
  8
TEXT_BUBBLES
100
AcDbText
 10
4.453381669599138
 20
4.686162548917618
 30
0.0
 40
0.125
  1
6
  7
ROMANS
 72
     4
 11
4.515881669599138
 21
4.748662548917618
 31
0.0
100
AcDbText
  0
CIRCLE
  5
909
330
17
100
AcDbEntity
  8
TEXT_BUBBLES
100
AcDbCircle
 10
4.515881669599138
 20
4.748662548917618
 30
0.0
 40
0.15625
  0
TEXT
  5
90A
330
17
100
AcDbEntity
  8
TEXT_BUBBLES
100
AcDbText
 10
4.455090985003729
 20
5.658918922442998
 30
0.0
 40
0.125
  1
4
  7
ROMANS
 72
     4
 11
4.517590985003729
 21
5.721418922442998
 31
0.0
100
AcDbText
  0
CIRCLE
  5
90B
330
17
100
AcDbEntity
  8
TEXT_BUBBLES
100
AcDbCircle
 10
4.517590985003729
 20
5.721418922442998
 30
0.0
 40
0.15625
  0
TEXT
  5
90C
330
17
100
AcDbEntity
  8
TEXT_BUBBLES
100
AcDbText
 10
4.45806717547992
 20
6.708918922442997
 30
0.0
 40
0.125
  1
2
  7
ROMANS
 72
     4
 11
4.517590985003729
 21
6.771418922442997
 31
0.0
100
AcDbText
  0
CIRCLE
  5
90D
330
17
100
AcDbEntity
  8
TEXT_BUBBLES
100
AcDbCircle
 10
4.517590985003729
 20
6.771418922442997
 30
0.0
 40
0.15625
  0
TEXT
  5
90E
330
17
100
AcDbEntity
  8
TEXT_BUBBLES
100
AcDbText
 10
4.466995746908491
 20
7.058918922442996
 30
0.0
 40
0.125
  1
1
  7
ROMANS
 72
     4
 11
4.517590985003729
 21
7.121418922442996
 31
0.0
100
AcDbText
  0
CIRCLE
  5
90F
330
17
100
AcDbEntity
  8
TEXT_BUBBLES
100
AcDbCircle
 10
4.517590985003729
 20
7.121418922442996
 30
0.0
 40
0.15625
  0
TEXT
  5
910
330
17
100
AcDbEntity
  8
TEXT_BUBBLES
100
AcDbText
 10
4.45806717547992
 20
6.183918922442997
 30
0.0
 40
0.125
  1
3
  7
ROMANS
 72
     4
 11
4.517590985003729
 21
6.246418922442997
 31
0.0
100
AcDbText
  0
CIRCLE
  5
911
330
17
100
AcDbEntity
  8
TEXT_BUBBLES
100
AcDbCircle
 10
4.517590985003729
 20
6.246418922442997
 30
0.0
 40
0.15625
  0
CIRCLE
  5
924
330
17
100
AcDbEntity
  8
TEXT_BUBBLES
100
AcDbCircle
 10
2.716618794564203
 20
6.727632796619929
 30
0.0
 40
0.15625
  0
TEXT
  5
925
330
17
100
AcDbEntity
  8
TEXT_BUBBLES
100
AcDbText
 10
2.657094985040393
 20
6.665132796619929
 30
0.0
 40
0.125
  1
2
  7
ROMANS
 72
     4
 11
2.716618794564203
 21
6.727632796619929
 31
0.0
100
AcDbText
  0
CIRCLE
  5
926
330
17
100
AcDbEntity
  8
TEXT_BUBBLES
100
AcDbCircle
 10
3.187919993046428
 20
6.727632796619929
 30
0.0
 40
0.15625
  0
TEXT
  5
927
330
17
100
AcDbEntity
  8
TEXT_BUBBLES
100
AcDbText
 10
3.128396183522619
 20
6.665132796619929
 30
0.0
 40
0.125
  1
3
  7
ROMANS
 72
     4
 11
3.187919993046428
 21
6.727632796619929
 31
0.0
100
AcDbText
  0
TEXT
  5
928
330
17
100
AcDbEntity
  8
TEXT_BUBBLES
100
AcDbText
 10
3.838278550818857
 20
5.643752262254173
 30
0.0
 40
0.125
  1
4
  7
ROMANS
 72
     4
 11
3.900778550818857
 21
5.706252262254173
 31
0.0
100
AcDbText
  0
CIRCLE
  5
929
330
17
100
AcDbEntity
  8
TEXT_BUBBLES
100
AcDbCircle
 10
3.900778550818857
 20
5.706252262254173
 30
0.0
 40
0.15625
  0
TEXT
  5
92A
330
17
100
AcDbEntity
  8
TEXT_BUBBLES
100
AcDbText
 10
3.838278550818857
 20
4.617697224223709
 30
0.0
 40
0.125
  1
6
  7
ROMANS
 72
     4
 11
3.900778550818857
 21
4.680197224223709
 31
0.0
100
AcDbText
  0
CIRCLE
  5
92B
330
17
100
AcDbEntity
  8
TEXT_BUBBLES
100
AcDbCircle
 10
3.900778550818857
 20
4.680197224223709
 30
0.0
 40
0.15625
  0
TEXT
  5
92C
330
17
100
AcDbEntity
  8
TEXT_BUBBLES
100
AcDbText
 10
3.841254741295048
 20
3.208448322347784
 30
0.0
 40
0.125
  1
8
  7
ROMANS
 72
     4
 11
3.900778550818857
 21
3.270948322347784
 31
0.0
100
AcDbText
  0
CIRCLE
  5
92D
330
17
100
AcDbEntity
  8
TEXT_BUBBLES
100
AcDbCircle
 10
3.900778550818857
 20
3.270948322347784
 30
0.0
 40
0.15625
  0
TEXT
  5
92E
330
17
100
AcDbEntity
  8
TEXT_BUBBLES
100
AcDbText
 10
3.841254741295048
 20
4.26482730065626
 30
0.0
 40
0.125
  1
7
  7
ROMANS
 72
     4
 11
3.900778550818857
 21
4.32732730065626
 31
0.0
100
AcDbText
  0
CIRCLE
  5
92F
330
17
100
AcDbEntity
  8
TEXT_BUBBLES
100
AcDbCircle
 10
3.900778550818857
 20
4.32732730065626
 30
0.0
 40
0.15625
  0
TEXT
  5
930
330
17
100
AcDbEntity
  8
TEXT_BUBBLES
100
AcDbText
 10
3.844230931771238
 20
2.024610485648822
 30
0.0
 40
0.125
  1
9
  7
ROMANS
 72
     4
 11
3.900778550818857
 21
2.087110485648822
 31
0.0
100
AcDbText
  0
CIRCLE
  5
931
330
17
100
AcDbEntity
  8
TEXT_BUBBLES
100
AcDbCircle
 10
3.900778550818857
 20
2.087110485648822
 30
0.0
 40
0.15625
  0
TEXT
  5
932
330
17
100
AcDbEntity
  8
TEXT_BUBBLES
100
AcDbText
 10
3.772802360342667
 20
1.628978310697631
 30
0.0
 40
0.125
  1
10
  7
ROMANS
 72
     4
 11
3.900778550818857
 21
1.691478310697631
 31
0.0
100
AcDbText
  0
CIRCLE
  5
933
330
17
100
AcDbEntity
  8
TEXT_BUBBLES
100
AcDbCircle
 10
3.900778550818857
 20
1.691478310697631
 30
0.0
 40
0.15625
  0
TEXT
  5
935
330
17
100
AcDbEntity
  8
TEXT_LEADERS
100
AcDbText
 10
4.76
 20
5.257331151100445
 30
0.0
 40
0.125
  1
INSTALL 6-INCH MIN. ABOVE
  7
ROMANS
100
AcDbText
  0
TEXT
  5
936
330
17
100
AcDbEntity
  8
TEXT_LEADERS
100
AcDbText
 10
4.76
 20
5.067719220948956
 30
0.0
 40
0.125
  1
  HIGHEST POINT OF DISCHARGE
  7
ROMANS
100
AcDbText
  0
CIRCLE
  5
943
330
17
100
AcDbEntity
  8
TEXT_BUBBLES
100
AcDbCircle
 10
3.900778550818857
 20
5.055742641995969
 30
0.0
 40
0.15625
  0
TEXT
  5
944
330
17
100
AcDbEntity
  8
TEXT_BUBBLES
100
AcDbText
 10
3.841254741295048
 20
4.993242641995969
 30
0.0
 40
0.125
  1
5
  7
ROMANS
 72
     4
 11
3.900778550818857
 21
5.055742641995969
 31
0.0
100
AcDbText
  0
TEXT
  5
945
330
17
100
AcDbEntity
  8
TEXT_BUBBLES
100
AcDbText
 10
4.753372593417307
 20
5.21280830116737
 30
0.0
 40
0.1250000018625
  1
INSTALL 6-INCH MIN. ABOVE 
  7
ROMANS
100
AcDbText
  0
CIRCLE
  5
946
330
17
100
AcDbEntity
  8
TEXT_BUBBLES
100
AcDbCircle
 10
4.515881669599138
 20
5.273662548917618
 30
0.0
 40
0.15625
  0
TEXT
  5
947
330
17
100
AcDbEntity
  8
TEXT_BUBBLES
100
AcDbText
 10
4.456357860075328
 20
5.211162548917618
 30
0.0
 40
0.125
  1
5
  7
ROMANS
 72
     4
 11
4.515881669599138
 21
5.273662548917618
 31
0.0
100
AcDbText
  0
TEXT
  5
948
330
17
100
AcDbEntity
  8
TEXT_BUBBLES
100
AcDbText
 10
4.753372593417307
 20
5.01530831070362
 30
0.0
 40
0.1250000018625
  1
  HIGHEST POINT OF DISCHARGE
  7
ROMANS
100
AcDbText
  0
LINE
  5
949
330
17
100
AcDbEntity
  8
IMAGE
100
AcDbLine
 10
3.205693436895646
 20
3.227749362027816
 30
0.0
 11
3.205693436895646
 21
2.887004118969171
 31
0.0
  0
LINE
  5
94A
330
17
100
AcDbEntity
  8
IMAGE
100
AcDbLine
 10
3.145485741499689
 20
3.172790451857069
 30
0.0
 11
3.213886545825974
 21
2.887004118969182
 31
0.0
  0
LINE
  5
94B
330
17
100
AcDbEntity
  8
IMAGE
100
AcDbLine
 10
3.14574244381895
 20
3.165797215244399
 30
0.0
 11
3.119370123901027
 21
2.887004118969171
 31
0.0
  0
LINE
  5
94C
330
17
100
AcDbEntity
  8
IMAGE
100
AcDbLine
 10
3.242555889942317
 20
3.205765797959525
 30
0.0
 11
3.090630027519288
 21
2.887004118969171
 31
0.0
  0
LINE
  5
94D
330
17
100
AcDbEntity
  8
IMAGE
100
AcDbLine
 10
3.250276246803127
 20
3.165797215244399
 30
0.0
 11
3.223903926885204
 21
2.887004118969171
 31
0.0
  0
LINE
  5
94E
330
17
100
AcDbEntity
  8
IMAGE
100
AcDbLine
 10
3.347089692926494
 20
3.205765797959525
 30
0.0
 11
3.195163830503465
 21
2.887004118969171
 31
0.0
  0
TEXT
  5
94F
330
17
100
AcDbEntity
  8
TEXT_LEADERS
100
AcDbText
 10
4.76
 20
4.00288664709206
 30
0.0
 40
0.125
  1
  PVC SCH 40 PIPE
  7
ROMANS
100
AcDbText
  0
LWPOLYLINE
  5
969
330
17
100
AcDbEntity
  8
INSTRUCT-CALLOUT
100
AcDbPolyline
 90
        4
 70
     1
 43
0.0
 10
9.970427288287536
 20
9.407911873422213
 10
9.970427288287536
 20
7.618554346744408
 10
15.51004827751512
 20
7.618554346744408
 10
15.51004827751512
 20
9.407911873422213
  0
TEXT
  5
96F
330
17
100
AcDbEntity
  8
INSTRUCT-CALLOUT
100
AcDbText
 10
10.38366781321506
 20
9.479306236818715
 30
0.0
 40
0.1250000018625
  1
CHOOSING EQUIPMENT CALLOUT METHOD
  7
ROMANS
100
AcDbText
  0
TEXT
  5
970
330
17
100
AcDbEntity
  8
INSTRUCT-CALLOUT
100
AcDbText
 10
10.09273060190666
 20
9.011667407475108
 30
0.0
 40
0.1250000018625
  1
CHOOSE EITHER LEADERS OR BUBBLE CALLOUTS
  7
ROMANS
100
AcDbText
  0
TEXT
  5
971
330
17
100
AcDbEntity
  8
INSTRUCT-CALLOUT
100
AcDbText
 10
10.09273060190666
 20
8.809292353116358
 30
0.0
 40
0.1250000018625
  1
BY TURNING ON THE APPROPRIATE LAYER:
  7
ROMANS
100
AcDbText
  0
TEXT
  5
972
330
17
100
AcDbEntity
  8
INSTRUCT-CALLOUT
100
AcDbText
 10
10.63816026723519
 20
8.388020735022388
 30
0.0
 40
0.1250000018625
  1
TEXT_LEADERS         TEXT_BUBBLES
  7
ROMANS
100
AcDbText
  0
LINE
  5
973
330
17
100
AcDbEntity
  8
INSTRUCT-CALLOUT
100
AcDbLine
 10
11.02206608218118
 20
8.07243166789537
 30
0.0
 11
11.19240176450446
 21
8.072431667895369
 31
0.0
  0
LINE
  5
974
330
17
100
AcDbEntity
  8
INSTRUCT-CALLOUT
100
AcDbLine
 10
10.66235306408327
 20
7.922742040637516
 30
0.0
 11
11.02206608218118
 21
8.07243166789537
 31
0.0
  0
SOLID
  5
975
330
17
100
AcDbEntity
  8
INSTRUCT-CALLOUT
100
AcDbTrace
 10
10.76908556100868
 20
7.926539947964878
 30
0.0
 11
10.74027070489402
 21
7.995783749615934
 31
0.0
 12
10.54694672799817
 22
7.874717280446406
 32
0.0
 13
10.54694672799817
 23
7.874717280446406
 33
0.0
  0
TEXT
  5
976
330
17
100
AcDbEntity
  8
INSTRUCT-CALLOUT
100
AcDbText
 10
11.22487018577587
 20
7.991493406152994
 30
0.0
 40
0.1250000018625
  1
ITEM 1
  7
ROMANS
100
AcDbText
  0
SOLID
  5
977
330
17
100
AcDbEntity
  8
INSTRUCT-CALLOUT
100
AcDbTrace
 10
13.44717222107046
 20
7.943322491154126
 30
0.0
 11
13.46692508813839
 21
7.87097040588634
 31
0.0
 12
13.23999239880107
 22
7.847887847316462
 32
0.0
 13
13.23999239880107
 23
7.847887847316462
 33
0.0
  0
LINE
  5
978
330
17
100
AcDbEntity
  8
INSTRUCT-CALLOUT
100
AcDbLine
 10
13.36057920758071
 20
7.880809292429669
 30
0.0
 11
13.68043097873677
 21
7.968132131760442
 31
0.0
  0
TEXT
  5
979
330
17
100
AcDbEntity
  8
INSTRUCT-CALLOUT
100
AcDbText
 10
13.78056925161608
 20
7.946783938151948
 30
0.0
 40
0.125
  1
1
  7
ROMANS
 72
     4
 11
13.83116448971132
 21
8.009283938151948
 31
0.0
100
AcDbText
  0
CIRCLE
  5
97A
330
17
100
AcDbEntity
  8
INSTRUCT-CALLOUT
100
AcDbCircle
 10
13.83116448971132
 20
8.009283938151948
 30
0.0
 40
0.15625
  0
TEXT
  5
97B
330
17
100
AcDbEntity
  8
INSTRUCT-CALLOUT
100
AcDbText
 10
10.0192114723089
 20
7.179519275825144
 30
0.0
 40
0.1250000018625
  1
LAYER "INSTRUCT-CALLOUT".
  7
ROMANS
100
AcDbText
  0
TEXT
  5
97C
330
17
100
AcDbEntity
  8
INSTRUCT-CALLOUT
100
AcDbText
 10
10.0192114723089
 20
7.381894330185144
 30
0.0
 40
0.1250000018625
  1
TO TURN OFF THIS INSTRUCTION BOX, TURN OFF
  7
ROMANS
100
AcDbText
  0
LINE
  5
97D
330
17
100
AcDbEntity
  8
IMAGE
  6
ByBlock
100
AcDbLine
 10
3.127669697615778
 20
1.883246834132381
 30
0.0
 11
3.127669697615778
 21
2.002718251605265
 31
0.0
  0
TEXT
  5
97E
330
17
100
AcDbEntity
  8
TEXT_BUBBLES
100
AcDbText
 10
4.753372593417307
 20
3.790308310703621
 30
0.0
 40
0.1250000018625
  1
  PVC SCH 40 PIPE
  7
ROMANS
100
AcDbText
  0
TEXT
  5
97F
330
17
100
AcDbEntity
  8
TEXT_LEADERS
100
AcDbText
 10
4.76
 20
3.786459100100563
 30
0.0
 40
0.125
  1
  (1 OF 2)
  7
ROMANS
100
AcDbText
  0
TEXT
  5
980
330
17
100
AcDbEntity
  8
TEXT_LEADERS
100
AcDbText
 10
4.76
 20
4.483221400436826
 30
0.0
 40
0.125
  1
  (1 OF 2)
  7
ROMANS
100
AcDbText
  0
TEXT
  5
981
330
17
100
AcDbEntity
  8
TEXT_BUBBLES
100
AcDbText
 10
4.753372593417307
 20
4.292808320239871
 30
0.0
 40
0.1250000018625
  1
  (1 OF 2)
  7
ROMANS
100
AcDbText
  0
TEXT
  5
982
330
17
100
AcDbEntity
  8
TEXT_BUBBLES
100
AcDbText
 10
4.753372593417307
 20
3.59280832023987
 30
0.0
 40
0.1250000018625
  1
  (1 OF 2)
  7
ROMANS
100
AcDbText
  0
LWPOLYLINE
  5
985
330
17
100
AcDbEntity
  8
IMAGE
100
AcDbPolyline
 90
        4
 70
     0
 43
0.0
 10
1.028236942963492
 20
5.657348035787666
 42
-0.2155895764235923
 10
0.9945971642338673
 20
5.563526324797906
 42
0.3413803161041624
 10
0.8062375056476216
 20
5.024703923020991
 42
-0.0205742495409678
 10
0.8216855407556074
 20
4.955688033793009
  0
LWPOLYLINE
  5
98B
330
17
100
AcDbEntity
  8
IMAGE
100
AcDbPolyline
 90
        4
 70
     0
 43
0.0
 10
1.01212781695311
 20
5.651459314207176
 42
-0.1997391550797789
 10
0.9840137305046713
 20
5.576237693028958
 42
0.3399680826994033
 10
0.7904917384905608
 20
5.019986432211338
 42
-0.0200202585885173
 10
0.8052716428606252
 20
4.954118610890438
  0
LWPOLYLINE
  5
991
330
17
100
AcDbEntity
  8
IMAGE
100
AcDbPolyline
 90
        3
 70
     0
 43
0.0
 10
0.8222261031017874
 20
5.361125271418033
 42
-0.0589864255868714
 10
0.8550075383063266
 20
5.192271822245703
 42
0.0025549600763586
 10
0.8762661892197769
 20
4.960906789282104
 42
-0.0285932302768027
  0
LWPOLYLINE
  5
996
330
17
100
AcDbEntity
  8
IMAGE
100
AcDbPolyline
 90
        3
 70
     0
 43
0.0
 10
0.8323935035641268
 20
5.382605300464015
 42
-0.0647769831178409
 10
0.8713848359483032
 20
5.193588997095428
 42
0.0025540828451996
 10
0.8926214710420339
 20
4.962470607580115
 42
-0.0286119368899678
  0
LWPOLYLINE
  5
99B
330
17
100
AcDbEntity
  8
IMAGE
100
AcDbPolyline
 90
        3
 70
     0
 43
0.0
 10
0.8783385398556433
 20
5.455838809576027
 42
0.1110175958952391
 10
0.8972462562371861
 20
5.290790952417944
 10
0.9301707075843049
 20
4.966060896259902
  0
LWPOLYLINE
  5
9A0
330
17
100
AcDbEntity
  8
IMAGE
100
AcDbPolyline
 90
        3
 70
     0
 43
0.0
 10
0.8984827917304492
 20
5.480391477911942
 42
0.1309729951508315
 10
0.9133951983452638
 20
5.294392377107638
 10
0.9465262406143231
 20
4.967624738577266
  0
TEXT
  5
9B7
330
17
100
AcDbEntity
  8
INSTRUCT-OPTION
100
AcDbText
 10
10.09561146699642
 20
5.120056141807799
 30
0.0
 40
0.1250000018625
  1
  OPTION-100
  7
ROMANS
100
AcDbText
  0
TEXT
  5
9B9
330
17
100
AcDbEntity
  8
INSTRUCT-OPTION
100
AcDbText
 10
9.999095948876236
 20
4.740432581948592
 30
0.0
 40
0.1250000018625
  1
TO TURN OFF THIS INSTRUCTION BOX, TURN OFF
  7
ROMANS
100
AcDbText
  0
LWPOLYLINE
  5
9BA
330
17
100
AcDbEntity
  8
INSTRUCT-OPTION
100
AcDbPolyline
 90
        4
 70
     1
 43
0.0
 10
9.983368124300859
 20
6.621528015406125
 10
9.983368124300859
 20
4.964104220433265
 10
15.52298911352844
 20
4.964104220433265
 10
15.52298911352844
 20
6.621528015406125
  0
TEXT
  5
9BB
330
17
100
AcDbEntity
  8
INSTRUCT-OPTION
100
AcDbText
 10
10.10567717888399
 20
5.786421597747898
 30
0.0
 40
0.1250000018625
  1
TURNING ON THE APPROPRIATE LAYER:
  7
ROMANS
100
AcDbText
  0
TEXT
  5
9BC
330
17
100
AcDbEntity
  8
INSTRUCT-OPTION
100
AcDbText
 10
10.10567717888399
 20
5.988796354084147
 30
0.0
 40
0.1250000018625
  1
SELECT THE DESIRED MODEL NUMBER BY
  7
ROMANS
100
AcDbText
  0
TEXT
  5
9BD
330
17
100
AcDbEntity
  8
INSTRUCT-OPTION
100
AcDbText
 10
9.999095948876236
 20
4.538057527588592
 30
0.0
 40
0.1250000018625
  1
LAYER "INSTRUCT-OPTION".
  7
ROMANS
100
AcDbText
  0
TEXT
  5
9BE
330
17
100
AcDbEntity
  8
INSTRUCT-OPTION
100
AcDbText
 10
10.10567717888399
 20
6.222488493276888
 30
0.0
 40
0.1250000018625
  1
%%uMODEL NUMBER:
  7
ROMANS
100
AcDbText
  0
TEXT
  5
9BF
330
17
100
AcDbEntity
  8
INSTRUCT-OPTION
100
AcDbText
 10
10.49577769216231
 20
6.676400869427407
 30
0.0
 40
0.1250000018625
  1
CHOOSING MODELS AND OPTIONAL FEATURES
  7
ROMANS
100
AcDbText
  0
TEXT
  5
9C0
330
17
100
AcDbEntity
  8
INSTRUCT-OPTION
100
AcDbText
 10
10.09561146699642
 20
5.341421531675903
 30
0.0
 40
0.1250000018625
  1
  OPTION-075
  7
ROMANS
100
AcDbText
  0
TEXT
  5
9C1
330
17
100
AcDbEntity
  8
OPTION-100
100
AcDbText
 10
4.755081908821898
 20
5.47909283896426
 30
0.0
 40
0.125
  1
  RAIN BIRD 100-ASVF
  7
ROMANS
100
AcDbText
  0
TEXT
  5
9C4
330
17
100
AcDbEntity
  8
OPTION-075
100
AcDbText
 10
4.755081908821898
 20
5.47909283896426
 30
0.0
 40
0.125
  1
  RAIN BIRD 075-ASVF
  7
ROMANS
100
AcDbText
  0
HATCH
  5
9CB
330
17
100
AcDbEntity
  8
IMAGE
100
AcDbHatch
 10
0.0
 20
0.0
 30
0.0
210
0.0
220
0.0
230
1.0
  2
EARTH
 70
     0
 71
     0
 91
        1
 92
        1
 93
       10
 72
     1
 10
1.150105229053868
 20
2.887279659091171
 11
0.488326430041102
 21
2.88727965909117
 72
     1
 10
0.488326430041102
 20
2.88727965909117
 11
0.4913925622112317
 21
2.832281726816841
 72
     1
 10
0.4913925622112317
 20
2.832281726816841
 11
0.5021240248066832
 21
2.708148461175532
 72
     1
 10
0.5021240248066832
 20
2.708148461175532
 11
0.5327852895864958
 21
2.61160037996235
 72
     1
 10
0.5327852895864958
 20
2.61160037996235
 11
0.5511820826072693
 21
2.56869012572698
 72
     1
 10
0.5511820826072693
 20
2.56869012572698
 11
0.739748954923563
 21
2.51045476494994
 72
     1
 10
0.739748954923563
 20
2.51045476494994
 11
0.8577949011698358
 21
2.455284432828122
 72
     1
 10
0.8577949011698358
 20
2.455284432828122
 11
1.021832744585836
 21
2.435361810854441
 72
     1
 10
1.021832744585836
 20
2.435361810854441
 11
1.150105229053868
 21
2.433829305710439
 72
     1
 10
1.150105229053868
 20
2.433829305710439
 11
1.150105229053868
 21
2.887279659091171
 97
        0
 75
     0
 76
     1
 52
45.0
 41
0.65
 77
     0
 78
     6
 53
45.0
 43
0.0
 44
0.0
 45
0.0
 46
0.2298097038856279
 79
     2
 49
0.1625
 49
-0.1625
 53
45.0
 43
-0.0430893194785553
 44
0.0430893194785553
 45
0.0
 46
0.2298097038856279
 79
     2
 49
0.1625
 49
-0.1625
 53
45.0
 43
-0.0861786389571105
 44
0.0861786389571105
 45
0.0
 46
0.2298097038856279
 79
     2
 49
0.1625
 49
-0.1625
 53
135.0
 43
-0.0861786389571105
 44
0.114904851942814
 45
-0.2298097038856279
 46
0.0
 79
     2
 49
0.1625
 49
-0.1625
 53
135.0
 43
-0.0430893194785552
 44
0.1579941714213692
 45
-0.2298097038856279
 46
0.0
 79
     2
 49
0.1625
 49
-0.1625
 53
135.0
 43
0.0
 44
0.2010834908999244
 45
-0.2298097038856279
 46
0.0
 79
     2
 49
0.1625
 49
-0.1625
 98
        1
 10
0.0
 20
0.0
  0
HATCH
  5
9CC
330
17
100
AcDbEntity
  8
IMAGE
100
AcDbHatch
 10
0.0
 20
0.0
 30
0.0
210
0.0
220
0.0
230
1.0
  2
EARTH
 70
     0
 71
     0
 91
        1
 92
        1
 93
        7
 72
     1
 10
1.475105229053868
 20
2.887279659091171
 11
1.475105229053868
 21
2.435361810854442
 72
     1
 10
1.475105229053868
 20
2.435361810854442
 11
1.515479397840366
 21
2.412374178592756
 72
     1
 10
1.515479397840366
 20
2.412374178592756
 11
1.696380939731337
 21
2.412374178592756
 72
     1
 10
1.696380939731337
 20
2.412374178592756
 11
1.946270398528731
 21
2.41084165508154
 72
     1
 10
1.946270398528731
 20
2.41084165508154
 11
2.070105229053869
 21
2.413906683736758
 72
     1
 10
2.070105229053869
 20
2.413906683736758
 11
2.070105229053869
 21
2.88727965909117
 72
     1
 10
2.070105229053869
 20
2.88727965909117
 11
1.475105229053868
 21
2.887279659091171
 97
        0
 75
     0
 76
     1
 52
45.0
 41
0.65
 77
     0
 78
     6
 53
45.0
 43
0.0
 44
0.0
 45
0.0
 46
0.2298097038856279
 79
     2
 49
0.1625
 49
-0.1625
 53
45.0
 43
-0.0430893194785553
 44
0.0430893194785553
 45
0.0
 46
0.2298097038856279
 79
     2
 49
0.1625
 49
-0.1625
 53
45.0
 43
-0.0861786389571105
 44
0.0861786389571105
 45
0.0
 46
0.2298097038856279
 79
     2
 49
0.1625
 49
-0.1625
 53
135.0
 43
-0.0861786389571105
 44
0.114904851942814
 45
-0.2298097038856279
 46
0.0
 79
     2
 49
0.1625
 49
-0.1625
 53
135.0
 43
-0.0430893194785552
 44
0.1579941714213692
 45
-0.2298097038856279
 46
0.0
 79
     2
 49
0.1625
 49
-0.1625
 53
135.0
 43
0.0
 44
0.2010834908999244
 45
-0.2298097038856279
 46
0.0
 79
     2
 49
0.1625
 49
-0.1625
 98
        1
 10
0.0
 20
0.0
  0
HATCH
  5
9CD
330
17
100
AcDbEntity
  8
IMAGE
100
AcDbHatch
 10
0.0
 20
0.0
 30
0.0
210
0.0
220
0.0
230
1.0
  2
EARTH
 70
     0
 71
     0
 91
        1
 92
        1
 93
       10
 72
     1
 10
2.395105229053869
 20
2.88727965909117
 11
2.395105229053869
 21
2.478284591529018
 72
     1
 10
2.395105229053869
 20
2.478284591529018
 11
2.473047171696464
 21
2.47981709667302
 72
     1
 10
2.473047171696464
 20
2.47981709667302
 11
2.660080977927691
 21
2.493609679703475
 72
     1
 10
2.660080977927691
 20
2.493609679703475
 11
2.848647878704721
 21
2.52732488470761
 72
     1
 10
2.848647878704721
 20
2.52732488470761
 11
2.936032531710445
 21
2.574832672742203
 72
     1
 10
2.936032531710445
 20
2.574832672742203
 11
3.006553457780459
 21
2.659120676068933
 72
     1
 10
3.006553457780459
 20
2.659120676068933
 11
3.052545383410919
 21
2.729616114732426
 72
     1
 10
3.052545383410919
 20
2.729616114732426
 11
3.090872007076793
 21
2.80777407911593
 72
     1
 10
3.090872007076793
 20
2.80777407911593
 11
3.098537309041379
 21
2.88727965909117
 72
     1
 10
3.098537309041379
 20
2.88727965909117
 11
2.395105229053869
 21
2.88727965909117
 97
        0
 75
     0
 76
     1
 52
45.0
 41
0.65
 77
     0
 78
     6
 53
45.0
 43
0.0
 44
0.0
 45
0.0
 46
0.2298097038856279
 79
     2
 49
0.1625
 49
-0.1625
 53
45.0
 43
-0.0430893194785553
 44
0.0430893194785553
 45
0.0
 46
0.2298097038856279
 79
     2
 49
0.1625
 49
-0.1625
 53
45.0
 43
-0.0861786389571105
 44
0.0861786389571105
 45
0.0
 46
0.2298097038856279
 79
     2
 49
0.1625
 49
-0.1625
 53
135.0
 43
-0.0861786389571105
 44
0.114904851942814
 45
-0.2298097038856279
 46
0.0
 79
     2
 49
0.1625
 49
-0.1625
 53
135.0
 43
-0.0430893194785552
 44
0.1579941714213692
 45
-0.2298097038856279
 46
0.0
 79
     2
 49
0.1625
 49
-0.1625
 53
135.0
 43
0.0
 44
0.2010834908999244
 45
-0.2298097038856279
 46
0.0
 79
     2
 49
0.1625
 49
-0.1625
 98
        1
 10
0.0
 20
0.0
  0
HATCH
  5
9CE
330
17
100
AcDbEntity
  8
IMAGE
100
AcDbHatch
 10
0.0
 20
0.0
 30
0.0
210
0.0
220
0.0
230
1.0
  2
EARTH
 70
     0
 71
     0
 91
        1
 92
        1
 93
       11
 72
     1
 10
3.172124395742258
 20
2.88727965909117
 11
3.185921962047103
 21
2.830761729744832
 72
     1
 10
3.185921962047103
 20
2.830761729744832
 11
3.224248585712977
 21
2.767928835168572
 72
     1
 10
3.224248585712977
 20
2.767928835168572
 11
3.264108247003179
 21
2.735746153675652
 72
     1
 10
3.264108247003179
 20
2.735746153675652
 11
3.395951759554296
 21
2.729616114732426
 72
     1
 10
3.395951759554296
 20
2.729616114732426
 11
3.464939647999987
 21
2.721953570645194
 72
     1
 10
3.464939647999987
 20
2.721953570645194
 11
3.543125904495322
 21
2.735746153675652
 72
     1
 10
3.543125904495322
 20
2.735746153675652
 11
3.602915396430624
 21
2.748006213194891
 72
     1
 10
3.602915396430624
 20
2.748006213194891
 11
3.671903284876311
 21
2.787851457142249
 72
     1
 10
3.671903284876311
 20
2.787851457142249
 11
3.725560540932093
 21
2.849151828207297
 72
     1
 10
3.725560540932093
 20
2.849151828207297
 11
3.757754871796972
 21
2.88727965909117
 72
     1
 10
3.757754871796972
 20
2.88727965909117
 11
3.172124395742258
 21
2.88727965909117
 97
        0
 75
     0
 76
     1
 52
45.0
 41
0.65
 77
     0
 78
     6
 53
45.0
 43
0.0
 44
0.0
 45
0.0
 46
0.2298097038856279
 79
     2
 49
0.1625
 49
-0.1625
 53
45.0
 43
-0.0430893194785553
 44
0.0430893194785553
 45
0.0
 46
0.2298097038856279
 79
     2
 49
0.1625
 49
-0.1625
 53
45.0
 43
-0.0861786389571105
 44
0.0861786389571105
 45
0.0
 46
0.2298097038856279
 79
     2
 49
0.1625
 49
-0.1625
 53
135.0
 43
-0.0861786389571105
 44
0.114904851942814
 45
-0.2298097038856279
 46
0.0
 79
     2
 49
0.1625
 49
-0.1625
 53
135.0
 43
-0.0430893194785552
 44
0.1579941714213692
 45
-0.2298097038856279
 46
0.0
 79
     2
 49
0.1625
 49
-0.1625
 53
135.0
 43
0.0
 44
0.2010834908999244
 45
-0.2298097038856279
 46
0.0
 79
     2
 49
0.1625
 49
-0.1625
 98
        1
 10
0.0
 20
0.0
  0
LEADER
  5
9EE
330
17
100
AcDbEntity
  8
TEXT_LEADERS
100
AcDbLeader
  3
STANDARD
 76
     3
 10
0.9394137082323306
 20
6.36483848230948
 30
0.0
 10
1.770610486016832
 20
6.867350604027523
 30
0.0
 10
4.729742534378447
 20
6.867350604027524
 30
0.0
  0
LEADER
  5
9F0
330
17
100
AcDbEntity
  8
TEXT_LEADERS
100
AcDbLeader
  3
STANDARD
 76
     3
 10
2.441081841054081
 20
4.080989654937058
 30
0.0
 10
4.291159382852951
 20
4.932598087117249
 30
0.0
 10
4.729742534378447
 20
4.932598087117249
 30
0.0
  0
LEADER
  5
9F1
330
17
100
AcDbEntity
  8
TEXT_LEADERS
100
AcDbLeader
  3
STANDARD
 76
     3
 10
2.616632423290041
 20
4.38727965909117
 30
0.0
 10
4.429742534378449
 20
5.293718201811028
 30
0.0
 10
4.729742534378447
 20
5.293718201811028
 30
0.0
  0
LEADER
  5
9F3
330
17
100
AcDbEntity
  8
TEXT_LEADERS
100
AcDbLeader
  3
STANDARD
 76
     3
 10
3.583142550840713
 20
2.88727965909117
 30
0.0
 10
4.429742534378449
 20
3.310525247239116
 30
0.0
 10
4.729742534378447
 20
3.310525247239116
 30
0.0
  0
LEADER
  5
9F5
330
17
100
AcDbEntity
  8
TEXT_LEADERS
100
AcDbLeader
  3
STANDARD
 76
     3
 10
2.495895900297325
 20
4.735221449073721
 30
0.0
 10
4.424824443200346
 20
5.699561765057154
 30
0.0
 10
4.724824443200344
 20
5.699561765057154
 30
0.0
  0
LEADER
  5
9F7
330
17
100
AcDbEntity
  8
TEXT_LEADERS
100
AcDbLeader
  3
STANDARD
 76
     3
 10
2.395105229053869
 20
3.257958937030113
 30
0.0
 10
4.429742534378449
 20
4.275146841241157
 30
0.0
 10
4.729742534378447
 20
4.275146841241157
 30
0.0
  0
LEADER
  5
9F8
330
17
100
AcDbEntity
  8
TEXT_LEADERS
100
AcDbLeader
  3
STANDARD
 76
     3
 10
2.468710037410307
 20
1.499729525570414
 30
0.0
 10
4.429742534378449
 20
2.480119755544379
 30
0.0
 10
4.729742534378447
 20
2.480119755544379
 30
0.0
  0
LEADER
  5
9F9
330
17
100
AcDbEntity
  8
TEXT_LEADERS
100
AcDbLeader
  3
STANDARD
 76
     3
 10
3.276150842766612
 20
1.38727965909117
 30
0.0
 10
4.429742534378449
 20
1.964001373587959
 30
0.0
 10
4.729742534378447
 20
1.964001373587959
 30
0.0
  0
LEADER
  5
9FE
330
17
100
AcDbEntity
  8
TEXT_LEADERS
100
AcDbLeader
  3
STANDARD
 76
     3
 10
1.361766446083225
 20
5.962095690534222
 30
0.0
 10
1.928987638338423
 20
6.179623628056522
 30
0.0
 10
4.729742534378447
 20
6.179623628056521
 30
0.0
  0
LEADER
  5
9FF
330
17
100
AcDbEntity
  8
TEXT_LEADERS
100
AcDbLeader
  3
STANDARD
 76
     2
 10
1.515487755315534
 20
6.415812688677821
 30
0.0
 10
4.729742534378447
 20
6.415812688677821
 30
0.0
  0
INSERT
  5
A15
330
17
100
AcDbEntity
  8
TITLE
100
AcDbBlockReference
 66
     1
  2
titleblock
 10
-0.4736665948844271
 20
-0.6780787826663092
 30
0.0
  0
ATTRIB
  5
A16
330
A15
100
AcDbEntity
  8
TITLE
100
AcDbText
 10
0.0318890089179149
 20
0.1061483138120581
 30
0.0
 40
0.2
  1
D
  7
L200
 72
     4
 11
0.1327757756300568
 21
0.2061483138120581
 31
0.0
100
AcDbAttribute
  2
D
 70
     0
  0
ATTRIB
  5
A17
330
A15
100
AcDbEntity
  8
TITLE
100
AcDbText
 10
0.7577757756300571
 20
0.6656335200804415
 30
0.0
 40
0.2
  1

  7
L200
100
AcDbAttribute
  2
TITLE1
 70
     0
  0
ATTRIB
  5
A18
330
A15
100
AcDbEntity
  8
TITLE
100
AcDbText
 10
0.7577757756300571
 20
0.3061483138120583
 30
0.0
 40
0.2
  1
ELECTRIC REMOTE-CONTROL VALVE
  7
L200
100
AcDbAttribute
  2
TITLE2
 70
     0
  0
ATTRIB
  5
A19
330
A15
100
AcDbEntity
  8
TITLE
100
AcDbText
 10
2.239979156283885
 20
-0.0852860162079903
 30
0.0
 40
0.2
  1
ASVF Series
  7
L200
100
AcDbAttribute
  2
TITLE3
 70
     0
  0
ATTRIB
  5
A1A
330
A15
100
AcDbEntity
  8
TITLE
100
AcDbText
 10
2.239979156283885
 20
-0.408822701849535
 30
0.0
 40
0.2
  1

  7
L200
100
AcDbAttribute
  2
TITLE4
 70
     0
  0
ATTRIB
  5
A1B
330
A15
100
AcDbEntity
  8
TITLE
 62
     7
100
AcDbText
 10
7.215929187462905
 20
0.2915240088783308
 30
0.0
 40
0.08
  1
1-20-04
  7
L80
 72
     2
 11
7.787357758891476
 21
0.2915240088783308
 31
0.0
100
AcDbAttribute
  2
REVISED
 70
     0
  0
ATTRIB
  5
A1C
330
A15
100
AcDbEntity
  8
TITLE
 62
     7
100
AcDbText
 10
-0.2097242243699433
 20
-0.5933671346455878
 30
0.0
 40
0.08
  1
V-ASVF.DWG
  7
L80
100
AcDbAttribute
  2
DWG-NAME
 70
     0
  0
ATTRIB
  5
A1D
330
A15
100
AcDbEntity
  8
TITLE
 62
     7
100
AcDbText
 10
0.7577757756300571
 20
0.0224849967291803
 30
0.0
 40
0.1
  1
N.T.S.
  7
L100
100
AcDbAttribute
  2
SCALE
 70
     0
  0
SEQEND
  5
A1E
330
A15
100
AcDbEntity
  8
HATCH
  0
LEADER
  5
A22
330
17
100
AcDbEntity
  8
TEXT_BUBBLES
100
AcDbLeader
  3
STANDARD
 76
     2
 10
2.669445184337976
 20
4.38727965909117
 30
0.0
 10
3.744528550818857
 20
5.055742641995969
 30
0.0
  0
LEADER
  5
A24
330
17
100
AcDbEntity
  8
TEXT_BUBBLES
100
AcDbLeader
  3
STANDARD
 76
     2
 10
1.234622155637154
 20
5.668275581540247
 30
0.0
 10
3.187919993046428
 20
6.571382796619929
 30
0.0
  0
LEADER
  5
A25
330
17
100
AcDbEntity
  8
TEXT_BUBBLES
100
AcDbLeader
  3
STANDARD
 76
     2
 10
1.360810920419898
 20
5.99618011565679
 30
0.0
 10
2.716618794564203
 20
6.571382796619929
 30
0.0
  0
LEADER
  5
A26
330
17
100
AcDbEntity
  8
TEXT_BUBBLES
100
AcDbLeader
  3
STANDARD
 76
     2
 10
1.515487755315534
 20
6.340724292003731
 30
0.0
 10
2.24517714441651
 20
6.571382796619929
 30
0.0
  0
LEADER
  5
A27
330
17
100
AcDbEntity
  8
TEXT_BUBBLES
100
AcDbLeader
  3
STANDARD
 76
     2
 10
2.395105229053869
 20
3.493286830816572
 30
0.0
 10
3.744528550818857
 20
4.32732730065626
 30
0.0
  0
LEADER
  5
A28
330
17
100
AcDbEntity
  8
TEXT_BUBBLES
100
AcDbLeader
  3
STANDARD
 76
     2
 10
3.341137475015808
 20
1.38727965909117
 30
0.0
 10
3.744528550818857
 20
1.691478310697631
 30
0.0
  0
LEADER
  5
A29
330
17
100
AcDbEntity
  8
TEXT_BUBBLES
100
AcDbLeader
  3
STANDARD
 76
     2
 10
2.441081841054082
 20
1.588908585613523
 30
0.0
 10
3.744528550818857
 20
2.087110485648822
 30
0.0
  0
LEADER
  5
A2A
330
17
100
AcDbEntity
  8
TEXT_BUBBLES
100
AcDbLeader
  3
STANDARD
 76
     2
 10
3.390265928722081
 20
2.888280456472086
 30
0.0
 10
3.744528550818857
 20
3.270948322347784
 30
0.0
  0
LEADER
  5
A2C
330
17
100
AcDbEntity
  8
TEXT_BUBBLES
100
AcDbLeader
  3
STANDARD
 76
     2
 10
2.559235222320445
 20
4.913643333006783
 30
0.0
 10
3.744528550818857
 20
5.706252262254173
 30
0.0
  0
LINE
  5
A2D
330
17
100
AcDbEntity
  8
IMAGE
100
AcDbLine
 10
2.488218193940627
 20
4.387279659091169
 30
0.0
 11
2.703916045574553
 21
4.390627330965118
 31
0.0
  0
LEADER
  5
A2E
330
17
100
AcDbEntity
  8
TEXT_BUBBLES
100
AcDbLeader
  3
STANDARD
 76
     2
 10
2.438989985844203
 20
4.06675958704316
 30
0.0
 10
3.744528550818857
 20
4.680197224223709
 30
0.0
  0
ENDSEC
  0
SECTION
  2
OBJECTS
  0
DICTIONARY
  5
C
330
0
100
AcDbDictionary
281
     1
  3
ACAD_GROUP
350
D
  3
ACAD_LAYOUT
350
9DF
  3
ACAD_MLINESTYLE
350
1A
  3
ACAD_PLOTSETTINGS
350
9E0
  3
ACAD_PLOTSTYLENAME
350
9DD
  3
ACDBVARIABLEDICTIONARY
350
2F
  3
BNS_SELSET
350
9D8
  0
DICTIONARY
  5
D
102
{ACAD_REACTORS
330
C
102
}
330
C
100
AcDbDictionary
281
     1
  0
DICTIONARY
  5
9DF
102
{ACAD_REACTORS
330
C
102
}
330
C
100
AcDbDictionary
281
     1
  3
Layout1
350
9E2
  3
Model
350
9E1
  0
DICTIONARY
  5
1A
102
{ACAD_REACTORS
330
C
102
}
330
C
100
AcDbDictionary
281
     1
  3
STANDARD
350
1B
  0
DICTIONARY
  5
9E0
102
{ACAD_REACTORS
330
C
102
}
330
C
100
AcDbDictionary
281
     1
  3
1055 B&W Full Shaded Draft
350
AD9
  3
1055 B&W Full Shaded Final
350
ADA
  3
1055 Color Full Shaded Draft
350
ADB
  3
1055 Color Full Shaded Final
350
ADC
  3
1055 PLUS B&W Full Shaded Draft
350
ADD
  3
1055 PLUS B&W Full Shaded Final
350
ADE
  3
1055 PLUS Color Full Shaded Draft
350
ADF
  3
1055 PLUS Color Full Shaded Final
350
AE0
  3
1055-B&W-Shaded-Draft
350
AE1
  3
1055-B&W-Shaded-Final
350
AE2
  3
1055-Color-Shaded-Draft
350
AE3
  3
1055-Color-Shaded-Final
350
AE4
  3
1055-PLUS-B&W-Shaded-Draft
350
AE5
  3
1055-PLUS-B&W-Shaded-Final
350
AE6
  3
1055-PLUS-Color-Shaded-Draft
350
AE7
  3
1055-PLUS-Color-Shaded-Final
350
AE8
  3
2200 Color Inkjet
350
AE9
  3
2200-Color-Inkjet
350
AEA
  3
24x36 PDF
350
AEB
  3
8500 B&W Shaded 11x17
350
AEC
  3
8500 B&W Shaded 8.5x11
350
AED
  3
8500 Color Shaded 11x17
350
AEE
  3
8500 Color Shaded 8.5x11
350
AEF
  3
8500-B&W-Shaded-11x17
350
AF0
  3
8500-B&W-Shaded-8.5x11
350
AF1
  3
8500-Color-Shaded-11x17
350
AF2
  3
8500-Color-Shaded-8.5x11
350
AF3
  3
Laser Jet 5 Shaded 11x17
350
AF4
  3
Laser Jet 5 Shaded 8.5x11
350
AF5
  3
LaserJet5-Shaded-11x17
350
AF6
  3
LaserJet5-Shaded-8.5x11
350
AF7
  3
Oki Doki B&W Shaded 11x17
350
AF8
  3
Oki Doki B&W Shaded 8.5x11
350
AF9
  3
Oki Doki Color Laser
350
AFA
  3
Oki Doki Color Shaded 11x17
350
AFB
  3
Oki Doki Color Shaded 8.5x11
350
AFC
  3
Oki-Doki-B&W-Shaded-11x17
350
AFD
  3
Oki-Doki-B&W-Shaded-8.5x11
350
AFE
  3
Oki-Doki-Color-Laser
350
AFF
  3
Oki-Doki-Color-Shaded-11x17
350
B00
  3
Oki-Doki-Color-Shaded-8.5x11
350
B01
  0
ACDBDICTIONARYWDFLT
  5
9DD
102
{ACAD_REACTORS
330
C
102
}
330
C
100
AcDbDictionary
281
     1
  3
Normal
350
9DE
100
AcDbDictionaryWithDefault
340
9DE
  0
DICTIONARY
  5
2F
102
{ACAD_REACTORS
330
C
102
}
330
C
100
AcDbDictionary
281
     1
  3
DIMADEC
350
30
  3
DIMASSOC
350
9E8
  3
SORTENTS
350
9CA
  0
DICTIONARY
  5
9D8
102
{ACAD_REACTORS
330
C
102
}
330
0
100
AcDbDictionary
281
     1
  3
BNS_SS01
350
9D9
  3
BNS_SS02
350
9DA
  0
LAYOUT
  5
9E2
102
{ACAD_REACTORS
330
9DF
102
}
330
9DF
100
AcDbPlotSettings
  1

  2
S:\AutoCAD 2002\Plotters\1055B&WDraftShaded.pc3
  4

  6

 40
0.0
 41
0.0
 42
0.0
 43
0.0
 44
0.0
 45
0.0
 46
0.0
 47
0.0
 48
0.0
 49
0.0
140
0.0
141
0.0
142
1.0
143
1.0
 70
   688
 72
     0
 73
     0
 74
     5
  7
TRexLJ5Shaded2.ctb
 75
    16
147
1.0
148
0.0
149
0.0
100
AcDbLayout
  1
Layout1
 70
     1
 71
     1
 10
0.0
 20
0.0
 11
12.0
 21
9.0
 12
0.0
 22
0.0
 32
0.0
 14
1.000000000000000E+20
 24
1.000000000000000E+20
 34
1.000000000000000E+20
 15
-1.000000000000000E+20
 25
-1.000000000000000E+20
 35
-1.000000000000000E+20
146
0.0
 13
0.0
 23
0.0
 33
0.0
 16
1.0
 26
0.0
 36
0.0
 17
0.0
 27
1.0
 37
0.0
 76
     0
330
14
  0
LAYOUT
  5
9E1
102
{ACAD_REACTORS
330
9DF
102
}
330
9DF
100
AcDbPlotSettings
  1

  2
8500ColorShaded.pc3
  4
11x17
  6

 40
3.174999952316284
 41
3.174999952316284
 42
3.17498779296875
 43
3.17498779296875
 44
279.3999938964843
 45
431.8000183105469
 46
1.778
 47
0.0
 48
180360.0524337165
 49
80033.77936194791
140
180369.1574725906
141
80037.61796031875
142
1.0
143
0.9844775412132706
 70
 28340
 72
     0
 73
     1
 74
     1
  7
8500ColorShaded.ctb
 75
     0
147
1.015767204569846
148
12.03113151006444
149
17.22320107972425
100
AcDbLayout
  1
Model
 70
     1
 71
     0
 10
0.0
 20
0.0
 11
12.0
 21
9.0
 12
0.0
 22
0.0
 32
0.0
 14
0.0
 24
0.0
 34
0.0
 15
0.0
 25
0.0
 35
0.0
146
0.0
 13
0.0
 23
0.0
 33
0.0
 16
1.0
 26
0.0
 36
0.0
 17
0.0
 27
1.0
 37
0.0
 76
     0
330
17
  0
MLINESTYLE
  5
1B
102
{ACAD_REACTORS
330
1A
102
}
330
1A
100
AcDbMlineStyle
  2
STANDARD
 70
     0
  3

 62
   256
 51
90.0
 52
90.0
 71
     2
 49
0.5
 62
   256
  6
BYLAYER
 49
-0.5
 62
   256
  6
BYLAYER
  0
PLOTSETTINGS
  5
AD9
102
{ACAD_REACTORS
330
9E0
102
}
330
9E0
100
AcDbPlotSettings
  1
1055 B&W Full Shaded Draft
  2
1055B&WDraftShaded.pc3
  4
User607
  6
ps1
 40
0.0
 41
0.0
 42
0.0
 43
0.0
 44
901.7000122070312
 45
1155.700073242187
 46
0.0
 47
0.0
 48
180377.877572
 49
80019.819395
140
180380.8390819999
141
80022.26069
142
1.0
143
1.0
 70
   688
 72
     0
 73
     2
 74
     3
  7
1055B&WFullDraftShaded.ctb
 75
    16
147
1.0
148
-4581603.303200401
149
-2032962.095032944
  0
PLOTSETTINGS
  5
ADA
102
{ACAD_REACTORS
330
9E0
102
}
330
9E0
100
AcDbPlotSettings
  1
1055 B&W Full Shaded Final
  2
1055B&WFinalShaded.pc3
  4
User257
  6
PS1
 40
4.995333194732666
 41
8.297271728515625
 42
4.99530029296875
 43
8.29736328125
 44
911.6906738281249
 45
1172.294677734375
 46
0.0
 47
0.0
 48
180377.877572
 49
80019.819395
140
180380.8390819999
141
80022.26069
142
1.0
143
1.0
 70
   688
 72
     0
 73
     3
 74
     3
  7
1055B&WFullFinalShaded.ctb
 75
    16
147
1.0
148
-4581603.303200401
149
-2032962.095032944
  0
PLOTSETTINGS
  5
ADB
102
{ACAD_REACTORS
330
9E0
102
}
330
9E0
100
AcDbPlotSettings
  1
1055 Color Full Shaded Draft
  2
1055ColorDraftShaded.pc3
  4
User607
  6
PS1
 40
0.0
 41
0.0
 42
0.0
 43
0.0
 44
901.7000122070312
 45
1155.700073242187
 46
0.0
 47
0.0
 48
180377.877572
 49
80019.819395
140
180380.8390819999
141
80022.26069
142
1.0
143
1.0
 70
   688
 72
     0
 73
     2
 74
     3
  7
1055ColorFullDraftShaded.ctb
 75
    16
147
1.0
148
-4581603.303200401
149
-2032962.095032944
  0
PLOTSETTINGS
  5
ADC
102
{ACAD_REACTORS
330
9E0
102
}
330
9E0
100
AcDbPlotSettings
  1
1055 Color Full Shaded Final
  2
1055ColorFinalShaded.pc3
  4
User607
  6
PS1
 40
0.0
 41
0.0
 42
0.0
 43
0.0
 44
901.7000122070312
 45
1155.700073242187
 46
0.0
 47
0.0
 48
180377.877572
 49
80019.819395
140
180380.8390819999
141
80022.26069
142
1.0
143
1.0
 70
   688
 72
     0
 73
     2
 74
     3
  7
1055ColorFullFinalShaded.ctb
 75
    16
147
1.0
148
-4581603.303200401
149
-2032962.095032944
  0
PLOTSETTINGS
  5
ADD
102
{ACAD_REACTORS
330
9E0
102
}
330
9E0
100
AcDbPlotSettings
  1
1055 PLUS B&W Full Shaded Draft
  2
1055_PLUS_B&WDraftShaded.pc3
  4
User257
  6
ps1
 40
4.995333194732666
 41
8.297393798828125
 42
4.99530029296875
 43
8.29736328125
 44
901.6152954101562
 45
1155.615356445312
 46
0.0
 47
0.0
 48
180377.877572
 49
80019.819395
140
180380.8390819999
141
80022.26069
142
1.0
143
1.0
 70
   688
 72
     0
 73
     3
 74
     5
  7
1055B&WFullDraftShaded.ctb
 75
    16
147
1.0
148
-4581603.303200401
149
-2032962.095032944
  0
PLOTSETTINGS
  5
ADE
102
{ACAD_REACTORS
330
9E0
102
}
330
9E0
100
AcDbPlotSettings
  1
1055 PLUS B&W Full Shaded Final
  2
1055_PLUS_B&WFinalShaded.pc3
  4
User257
  6
PS1
 40
4.995333194732666
 41
8.297271728515625
 42
4.99530029296875
 43
8.29736328125
 44
901.6576538085937
 45
1155.657592773437
 46
0.0
 47
0.0
 48
180377.877572
 49
80019.819395
140
180380.8390819999
141
80022.26069
142
1.0
143
1.0
 70
   688
 72
     0
 73
     3
 74
     5
  7
1055B&WFullFinalShaded.ctb
 75
    16
147
1.0
148
-4581603.303200401
149
-2032962.095032944
  0
PLOTSETTINGS
  5
ADF
102
{ACAD_REACTORS
330
9E0
102
}
330
9E0
100
AcDbPlotSettings
  1
1055 PLUS Color Full Shaded Draft
  2
1055_PLUS_ColorDraftShaded.pc3
  4
User257
  6
PS1
 40
4.995333194732666
 41
8.297393798828125
 42
4.99530029296875
 43
8.29736328125
 44
901.6152954101562
 45
1155.615356445312
 46
0.0
 47
0.0
 48
180377.877572
 49
80019.819395
140
180380.8390819999
141
80022.26069
142
1.0
143
1.0
 70
   688
 72
     0
 73
     3
 74
     5
  7
1055ColorFullDraftShaded.ctb
 75
    16
147
1.0
148
-4581603.303200401
149
-2032962.095032944
  0
PLOTSETTINGS
  5
AE0
102
{ACAD_REACTORS
330
9E0
102
}
330
9E0
100
AcDbPlotSettings
  1
1055 PLUS Color Full Shaded Final
  2
1055_PLUS_ColorFinalShaded.pc3
  4
User257
  6
PS1
 40
4.995333194732666
 41
8.297271728515625
 42
4.99530029296875
 43
8.29736328125
 44
901.6576538085937
 45
1155.657592773437
 46
0.0
 47
0.0
 48
180377.877572
 49
80019.819395
140
180380.8390819999
141
80022.26069
142
1.0
143
1.0
 70
   688
 72
     0
 73
     3
 74
     5
  7
1055ColorFullFinalShaded.ctb
 75
    16
147
1.0
148
-4581603.303200401
149
-2032962.095032944
  0
PLOTSETTINGS
  5
AE1
102
{ACAD_REACTORS
330
9E0
102
}
330
9E0
100
AcDbPlotSettings
  1
1055-B&W-Shaded-Draft
  2
1055B&WDraftShaded.pc3
  4
User257
  6

 40
4.995333194732666
 41
8.297393798828125
 42
4.99530029296875
 43
8.29736328125
 44
901.6152954101562
 45
1155.615356445312
 46
0.0
 47
0.0
 48
180360.0524337165
 49
80033.77936194791
140
180369.1574725906
141
80037.61796031875
142
1.0
143
30.0
 70
  1696
 72
     0
 73
     1
 74
     1
  7
1055B&WFullDraftShaded.ctb
 75
     0
147
0.0333333333333333
148
-190.0773302744904
149
-129.2444057835751
  0
PLOTSETTINGS
  5
AE2
102
{ACAD_REACTORS
330
9E0
102
}
330
9E0
100
AcDbPlotSettings
  1
1055-B&W-Shaded-Final
  2
1055B&WFinalShaded.pc3
  4
User607
  6

 40
0.0
 41
0.0
 42
0.0
 43
0.0
 44
901.7000122070312
 45
1155.700073242187
 46
0.0
 47
0.0
 48
180360.0524337165
 49
80033.77936194791
140
180369.1574725906
141
80037.61796031875
142
1.0
143
30.0
 70
  1696
 72
     0
 73
     1
 74
     1
  7
1055B&WFullFinalShaded.ctb
 75
     0
147
0.0333333333333333
148
-190.0773302744904
149
-129.2444057835751
  0
PLOTSETTINGS
  5
AE3
102
{ACAD_REACTORS
330
9E0
102
}
330
9E0
100
AcDbPlotSettings
  1
1055-Color-Shaded-Draft
  2
1055ColorDraftShaded.pc3
  4
User257
  6

 40
4.995333194732666
 41
8.297393798828125
 42
4.99530029296875
 43
8.29736328125
 44
901.6152954101562
 45
1155.615356445312
 46
0.0
 47
0.0
 48
180360.0524337165
 49
80033.77936194791
140
180369.1574725906
141
80037.61796031875
142
1.0
143
30.0
 70
  1696
 72
     0
 73
     1
 74
     1
  7
1055ColorFullDraftShaded.ctb
 75
     0
147
0.0333333333333333
148
-190.0773302744904
149
-129.2444057835751
  0
PLOTSETTINGS
  5
AE4
102
{ACAD_REACTORS
330
9E0
102
}
330
9E0
100
AcDbPlotSettings
  1
1055-Color-Shaded-Final
  2
1055ColorDraftShaded.pc3
  4
User257
  6

 40
4.995333194732666
 41
8.297393798828125
 42
4.99530029296875
 43
8.29736328125
 44
901.6152954101562
 45
1155.615356445312
 46
0.0
 47
0.0
 48
180360.0524337165
 49
80033.77936194791
140
180369.1574725906
141
80037.61796031875
142
1.0
143
30.0
 70
  1696
 72
     0
 73
     1
 74
     1
  7
1055ColorFullFinalShaded.ctb
 75
     0
147
0.0333333333333333
148
-190.0773302744904
149
-129.2444057835751
  0
PLOTSETTINGS
  5
AE5
102
{ACAD_REACTORS
330
9E0
102
}
330
9E0
100
AcDbPlotSettings
  1
1055-PLUS-B&W-Shaded-Draft
  2
1055_PLUS_B&WDraftShaded.pc3
  4
User257
  6

 40
4.995333194732666
 41
8.297393798828125
 42
4.99530029296875
 43
8.29736328125
 44
901.6152954101562
 45
1155.615356445312
 46
0.0
 47
0.0
 48
180360.0524337165
 49
80033.77936194791
140
180369.1574725906
141
80037.61796031875
142
1.0
143
30.0
 70
  1696
 72
     0
 73
     1
 74
     0
  7
1055B&WFullDraftShaded.ctb
 75
     0
147
0.0333333333333333
148
0.9506237099442845
149
8.593888772447144
  0
PLOTSETTINGS
  5
AE6
102
{ACAD_REACTORS
330
9E0
102
}
330
9E0
100
AcDbPlotSettings
  1
1055-PLUS-B&W-Shaded-Final
  2
1055_PLUS_B&WFinalShaded.pc3
  4
User257
  6

 40
4.995333194732666
 41
8.297271728515625
 42
4.99530029296875
 43
8.29736328125
 44
901.6576538085937
 45
1155.657592773437
 46
0.0
 47
0.0
 48
180360.0524337165
 49
80033.77936194791
140
180369.1574725906
141
80037.61796031875
142
1.0
143
30.0
 70
  1696
 72
     0
 73
     1
 74
     0
  7
1055B&WFullFinalShaded.ctb
 75
     0
147
0.0333333333333333
148
0.9506237099442845
149
8.593888772447144
  0
PLOTSETTINGS
  5
AE7
102
{ACAD_REACTORS
330
9E0
102
}
330
9E0
100
AcDbPlotSettings
  1
1055-PLUS-Color-Shaded-Draft
  2
1055_PLUS_ColorDraftShaded.pc3
  4
User257
  6

 40
4.995333194732666
 41
8.297393798828125
 42
4.99530029296875
 43
8.29736328125
 44
901.6152954101562
 45
1155.615356445312
 46
0.0
 47
0.0
 48
180360.0524337165
 49
80033.77936194791
140
180369.1574725906
141
80037.61796031875
142
1.0
143
30.0
 70
  1696
 72
     0
 73
     1
 74
     0
  7
1055ColorFullDraftShaded.ctb
 75
     0
147
0.0333333333333333
148
0.9506237099442845
149
8.593888772447144
  0
PLOTSETTINGS
  5
AE8
102
{ACAD_REACTORS
330
9E0
102
}
330
9E0
100
AcDbPlotSettings
  1
1055-PLUS-Color-Shaded-Final
  2
1055_PLUS_ColorFinalShaded.pc3
  4
User257
  6

 40
4.995333194732666
 41
8.297271728515625
 42
4.99530029296875
 43
8.29736328125
 44
901.6576538085937
 45
1155.657592773437
 46
0.0
 47
0.0
 48
180360.0524337165
 49
80033.77936194791
140
180369.1574725906
141
80037.61796031875
142
1.0
143
30.0
 70
  1696
 72
     0
 73
     1
 74
     0
  7
1055ColorFullFinalShaded.ctb
 75
     0
147
0.0333333333333333
148
0.9506237099442845
149
8.593888772447144
  0
PLOTSETTINGS
  5
AE9
102
{ACAD_REACTORS
330
9E0
102
}
330
9E0
100
AcDbPlotSettings
  1
2200 Color Inkjet
  2
HP  2200 Color Inkjet.pc3
  4
Letter
  6
PS1
 40
7.143749713897705
 41
12.47775650024414
 42
7.14373779296875
 43
3.17498779296875
 44
215.8999938964843
 45
279.3999938964843
 46
0.0
 47
0.0
 48
180377.877572
 49
80019.819395
140
180380.8390819999
141
80022.26069
142
1.0
143
0.3486331030131726
 70
   688
 72
     0
 73
     1
 74
     3
  7
Color.ctb
 75
     0
147
2.868344948764708
148
-4581603.303200401
149
-2032962.095032944
  0
PLOTSETTINGS
  5
AEA
102
{ACAD_REACTORS
330
9E0
102
}
330
9E0
100
AcDbPlotSettings
  1
2200-Color-Inkjet
  2
HP  2200 Color Inkjet.pc3
  4
Letter
  6

 40
7.143749713897705
 41
12.47775650024414
 42
7.14373779296875
 43
3.17498779296875
 44
215.8999938964843
 45
279.3999938964843
 46
0.0
 47
0.0
 48
180360.0524337165
 49
80033.77936194791
140
180369.1574725906
141
80037.61796031875
142
1.0
143
0.069393053089765
 70
  1712
 72
     0
 73
     1
 74
     1
  7
Color.ctb
 75
     0
147
14.41066440334347
148
-190.0773302744904
149
-129.2444057835751
  0
PLOTSETTINGS
  5
AEB
102
{ACAD_REACTORS
330
9E0
102
}
330
9E0
100
AcDbPlotSettings
  1
24x36 PDF
  2
Bluebeam PDF Printer.pc3
  4
User128
  6
PS1
 40
3.174999952316284
 41
3.174999952316284
 42
3.17498779296875
 43
3.17498779296875
 44
609.5999755859375
 45
914.3999633789062
 46
270.5099999999999
 47
416.3059999999999
 48
180377.877572
 49
80019.819395
140
180380.8390819999
141
80022.26069
142
1.0
143
1.0
 70
   692
 72
     0
 73
     1
 74
     4
  7
1055B&WFullDraftShaded.ctb
 75
    16
147
1.0
148
-4581598.0903288
149
-2032503.412632999
  0
PLOTSETTINGS
  5
AEC
102
{ACAD_REACTORS
330
9E0
102
}
330
9E0
100
AcDbPlotSettings
  1
8500 B&W Shaded 11x17
  2
8500B&WShaded.pc3
  4
11x17
  6
PS1
 40
5.027083396911621
 41
5.027085304260253
 42
5.027099609375
 43
5.027069091796875
 44
279.3999938964843
 45
431.7999877929687
 46
0.0
 47
92.964
 48
180377.877572
 49
80019.819395
140
180380.8390819999
141
80022.26069
142
1.0
143
0.0116192543742624
 70
   692
 72
     0
 73
     1
 74
     3
  7
8500B&WShaded.ctb
 75
     0
147
86.06404230335863
148
-4581651.879813895
149
-2032998.63613423
  0
PLOTSETTINGS
  5
AED
102
{ACAD_REACTORS
330
9E0
102
}
330
9E0
100
AcDbPlotSettings
  1
8500 B&W Shaded 8.5x11
  2
8500B&WShaded.pc3
  4
Letter
  6
PS1
 40
5.027083396911621
 41
5.027085304260253
 42
5.027084350585937
 43
5.027069091796875
 44
215.8999938964843
 45
279.3999938964843
 46
0.0
 47
44.44999999999999
 48
180377.877572
 49
80019.819395
140
180380.8390819999
141
80022.26069
142
1.0
143
0.0152035994604527
 70
   692
 72
     0
 73
     1
 74
     3
  7
8500B&WShaded.ctb
 75
     0
147
65.77389799048455
148
-4581651.879813895
149
-2032998.63613423
  0
PLOTSETTINGS
  5
AEE
102
{ACAD_REACTORS
330
9E0
102
}
330
9E0
100
AcDbPlotSettings
  1
8500 Color Shaded 11x17
  2
8500ColorShaded.pc3
  4
11x17
  6
PS1
 40
5.027083396911621
 41
5.027085304260253
 42
5.027099609375
 43
5.027069091796875
 44
279.3999938964843
 45
431.7999877929687
 46
0.0
 47
92.964
 48
180377.877572
 49
80019.819395
140
180380.8390819999
141
80022.26069
142
1.0
143
0.0116192543742624
 70
   692
 72
     0
 73
     1
 74
     3
  7
8500ColorShaded.ctb
 75
     0
147
86.06404230335863
148
-4581651.879813895
149
-2032998.63613423
  0
PLOTSETTINGS
  5
AEF
102
{ACAD_REACTORS
330
9E0
102
}
330
9E0
100
AcDbPlotSettings
  1
8500 Color Shaded 8.5x11
  2
8500ColorShaded.pc3
  4
Letter
  6
PS1
 40
5.027083396911621
 41
5.027085304260253
 42
5.027084350585937
 43
5.027069091796875
 44
215.8999938964843
 45
279.3999938964843
 46
0.0
 47
44.44999999999999
 48
180377.877572
 49
80019.819395
140
180380.8390819999
141
80022.26069
142
1.0
143
0.0152035994604527
 70
   692
 72
     0
 73
     1
 74
     3
  7
8500ColorShaded.ctb
 75
     0
147
65.77389799048455
148
-4581651.879813895
149
-2032998.63613423
  0
PLOTSETTINGS
  5
AF0
102
{ACAD_REACTORS
330
9E0
102
}
330
9E0
100
AcDbPlotSettings
  1
8500-B&W-Shaded-11x17
  2
8500B&WShaded.pc3
  4
11x17
  6

 40
5.027083396911621
 41
5.027085304260253
 42
5.027099609375
 43
5.027069091796875
 44
279.3999938964843
 45
431.7999877929687
 46
0.0
 47
0.0
 48
180360.0524337165
 49
80033.77936194791
140
180369.1574725906
141
80037.61796031875
142
1.0
143
0.0519425466957002
 70
  1712
 72
     0
 73
     1
 74
     1
  7
8500B&WShaded.ctb
 75
     0
147
19.252040256293
148
-190.0773302744904
149
-129.2444057835751
  0
PLOTSETTINGS
  5
AF1
102
{ACAD_REACTORS
330
9E0
102
}
330
9E0
100
AcDbPlotSettings
  1
8500-B&W-Shaded-8.5x11
  2
8500B&WShaded.pc3
  4
Letter
  6

 40
5.027083396911621
 41
5.027085304260253
 42
5.027084350585937
 43
5.027069091796875
 44
215.8999938964843
 45
279.3999938964843
 46
0.0
 47
0.0
 48
180360.0524337165
 49
80033.77936194791
140
180369.1574725906
141
80037.61796031875
142
1.0
143
0.0679659511256221
 70
  1712
 72
     0
 73
     1
 74
     1
  7
8500B&WShaded.ctb
 75
     0
147
14.71324955273106
148
-190.0773302744904
149
-129.2444057835751
  0
PLOTSETTINGS
  5
AF2
102
{ACAD_REACTORS
330
9E0
102
}
330
9E0
100
AcDbPlotSettings
  1
8500-Color-Shaded-11x17
  2
8500ColorShaded.pc3
  4
11x17
  6

 40
5.027083396911621
 41
5.027085304260253
 42
5.027099609375
 43
5.027069091796875
 44
279.3999938964843
 45
431.7999877929687
 46
0.0
 47
0.0
 48
180360.0524337165
 49
80033.77936194791
140
180369.1574725906
141
80037.61796031875
142
1.0
143
0.0519425466957002
 70
  1712
 72
     0
 73
     1
 74
     1
  7
8500ColorShaded.ctb
 75
     0
147
19.252040256293
148
-190.0773302744904
149
-129.2444057835751
  0
PLOTSETTINGS
  5
AF3
102
{ACAD_REACTORS
330
9E0
102
}
330
9E0
100
AcDbPlotSettings
  1
8500-Color-Shaded-8.5x11
  2
8500ColorShaded.pc3
  4
Letter
  6

 40
5.027083396911621
 41
5.027085304260253
 42
5.027084350585937
 43
5.027069091796875
 44
215.8999938964843
 45
279.3999938964843
 46
0.0
 47
0.0
 48
180360.0524337165
 49
80033.77936194791
140
180369.1574725906
141
80037.61796031875
142
1.0
143
0.0679659511256221
 70
  1712
 72
     0
 73
     1
 74
     1
  7
8500ColorShaded.ctb
 75
     0
147
14.71324955273106
148
-190.0773302744904
149
-129.2444057835751
  0
PLOTSETTINGS
  5
AF4
102
{ACAD_REACTORS
330
9E0
102
}
330
9E0
100
AcDbPlotSettings
  1
Laser Jet 5 Shaded 11x17
  2
LaserJet5Shaded.pc3
  4
11x17
  6
PS1
 40
7.143749713897705
 41
5.873736858367919
 42
7.143768310546875
 43
7.14373779296875
 44
279.3999938964843
 45
431.7999877929687
 46
0.0
 47
29.71799999999999
 48
180377.877572
 49
80019.819395
140
180380.8390819999
141
80022.26069
142
1.0
143
0.2557442899420743
 70
   692
 72
     0
 73
     1
 74
     3
  7
LaserJet5Shaded.ctb
 75
     0
147
3.910155727138614
148
-4581603.303200401
149
-2032962.095032944
  0
PLOTSETTINGS
  5
AF5
102
{ACAD_REACTORS
330
9E0
102
}
330
9E0
100
AcDbPlotSettings
  1
Laser Jet 5 Shaded 8.5x11
  2
LaserJet5Shaded.pc3
  4
Letter
  6
PS1
 40
7.143749713897705
 41
6.974400997161865
 42
7.14373779296875
 43
6.297088623046875
 44
215.8999938964843
 45
279.3999938964843
 46
2.794
 47
0.0
 48
180377.877572
 49
80019.819395
140
180380.8390819999
141
80022.26069
142
1.0
143
0.345513616778612
 70
   692
 72
     0
 73
     1
 74
     3
  7
LaserJet5Shaded.ctb
 75
     0
147
2.894241938489939
148
-4581603.303200401
149
-2032962.095032944
  0
PLOTSETTINGS
  5
AF6
102
{ACAD_REACTORS
330
9E0
102
}
330
9E0
100
AcDbPlotSettings
  1
LaserJet5-Shaded-11x17
  2
LaserJet5Shaded.pc3
  4
11x17
  6

 40
7.143749713897705
 41
5.873736858367919
 42
7.143768310546875
 43
7.14373779296875
 44
279.3999938964843
 45
431.7999877929687
 46
0.0
 47
0.0
 48
180360.0524337165
 49
80033.77936194791
140
180369.1574725906
141
80037.61796031875
142
1.0
143
0.0527719690046124
 70
  1712
 72
     0
 73
     1
 74
     1
  7
LaserJet5Shaded.ctb
 75
     0
147
18.9494540162524
148
-190.0773302744904
149
-129.2444057835751
  0
PLOTSETTINGS
  5
AF7
102
{ACAD_REACTORS
330
9E0
102
}
330
9E0
100
AcDbPlotSettings
  1
LaserJet5-Shaded-8.5x11
  2
LaserJet5Shaded.pc3
  4
Letter
  6

 40
7.143749713897705
 41
6.974400997161865
 42
7.14373779296875
 43
6.297088623046875
 44
215.8999938964843
 45
279.3999938964843
 46
0.0
 47
0.0
 48
180360.0524337165
 49
80033.77936194791
140
180369.1574725906
141
80037.61796031875
142
1.0
143
0.069393053089765
 70
  1712
 72
     0
 73
     1
 74
     1
  7
LaserJet5Shaded.ctb
 75
     0
147
14.41066440334347
148
-190.0773302744904
149
-129.2444057835751
  0
PLOTSETTINGS
  5
AF8
102
{ACAD_REACTORS
330
9E0
102
}
330
9E0
100
AcDbPlotSettings
  1
Oki Doki B&W Shaded 11x17
  2
OKI DOKI Color Laser.pc3
  4
Tabloid
  6
PS1
 40
5.027083396911621
 41
5.027085304260253
 42
5.027099609375
 43
5.027069091796875
 44
279.3999938964843
 45
431.7999877929687
 46
0.0
 47
47.49799999999999
 48
180377.877572
 49
80019.819395
140
180380.8390819999
141
80022.26069
142
1.0
143
0.2302203728173071
 70
   692
 72
     0
 73
     1
 74
     4
  7
OKIB&WShaded.ctb
 75
     0
147
4.343664236846477
148
-4581598.0903288
149
-2032503.412632999
  0
PLOTSETTINGS
  5
AF9
102
{ACAD_REACTORS
330
9E0
102
}
330
9E0
100
AcDbPlotSettings
  1
Oki Doki B&W Shaded 8.5x11
  2
OKI DOKI Color Laser.pc3
  4
Letter
  6
PS1
 40
5.027083396911621
 41
5.027085304260253
 42
5.027084350585937
 43
5.027069091796875
 44
215.8999938964843
 45
279.3999938964843
 46
0.0
 47
9.906
 48
180377.877572
 49
80019.819395
140
180380.8390819999
141
80022.26069
142
1.0
143
0.3012394963745367
 70
   692
 72
     0
 73
     1
 74
     4
  7
OKIB&WShaded.ctb
 75
     0
147
3.319617819161008
148
-4581598.0903288
149
-2032503.412632999
  0
PLOTSETTINGS
  5
AFA
102
{ACAD_REACTORS
330
9E0
102
}
330
9E0
100
AcDbPlotSettings
  1
Oki Doki Color Laser
  2
OKI DOKI Color Laser.pc3
  4
Letter
  6
PS1
 40
5.027083396911621
 41
5.027085304260253
 42
5.027084350585937
 43
5.027069091796875
 44
215.8999938964843
 45
279.3999938964843
 46
71.88199999999999
 47
97.02799999999999
 48
180377.877572
 49
80019.819395
140
180380.8390819999
141
80022.26069
142
1.0
143
1.0
 70
   692
 72
     0
 73
     1
 74
     4
  7
Color.ctb
 75
    16
147
1.0
148
-4581598.0903288
149
-2032503.412632999
  0
PLOTSETTINGS
  5
AFB
102
{ACAD_REACTORS
330
9E0
102
}
330
9E0
100
AcDbPlotSettings
  1
Oki Doki Color Shaded 11x17
  2
OKI DOKI Color Laser.pc3
  4
Tabloid
  6
PS1
 40
5.027083396911621
 41
5.027085304260253
 42
5.027099609375
 43
5.027069091796875
 44
279.3999938964843
 45
431.7999877929687
 46
0.0
 47
47.49799999999999
 48
180377.877572
 49
80019.819395
140
180380.8390819999
141
80022.26069
142
1.0
143
0.2302203728173071
 70
   692
 72
     0
 73
     1
 74
     4
  7
OKIColorShaded.ctb
 75
     0
147
4.343664236846477
148
-4581598.0903288
149
-2032503.412632999
  0
PLOTSETTINGS
  5
AFC
102
{ACAD_REACTORS
330
9E0
102
}
330
9E0
100
AcDbPlotSettings
  1
Oki Doki Color Shaded 8.5x11
  2
OKI DOKI Color Laser.pc3
  4
Letter
  6
PS1
 40
5.027083396911621
 41
5.027085304260253
 42
5.027084350585937
 43
5.027069091796875
 44
215.8999938964843
 45
279.3999938964843
 46
0.0
 47
9.906
 48
180377.877572
 49
80019.819395
140
180380.8390819999
141
80022.26069
142
1.0
143
0.3012394963745367
 70
   692
 72
     0
 73
     1
 74
     4
  7
OKIColorShaded.ctb
 75
     0
147
3.319617819161008
148
-4581598.0903288
149
-2032503.412632999
  0
PLOTSETTINGS
  5
AFD
102
{ACAD_REACTORS
330
9E0
102
}
330
9E0
100
AcDbPlotSettings
  1
Oki-Doki-B&W-Shaded-11x17
  2
OKI DOKI Color Laser.pc3
  4
Tabloid
  6

 40
5.027083396911621
 41
5.027085304260253
 42
5.027099609375
 43
5.027069091796875
 44
279.3999938964843
 45
431.7999877929687
 46
45.72
 47
0.0
 48
180360.0524337165
 49
80033.77936194791
140
180369.1574725906
141
80037.61796031875
142
1.0
143
0.5483586774064594
 70
  1716
 72
     0
 73
     1
 74
     4
  7
OKIB&WShaded.ctb
 75
     0
147
1.823623918435361
148
-4581145.331816398
149
-2032857.995793476
  0
PLOTSETTINGS
  5
AFE
102
{ACAD_REACTORS
330
9E0
102
}
330
9E0
100
AcDbPlotSettings
  1
Oki-Doki-B&W-Shaded-8.5x11
  2
OKI DOKI Color Laser.pc3
  4
Letter
  6

 40
5.027083396911621
 41
5.027085304260253
 42
5.027084350585937
 43
5.027069091796875
 44
215.8999938964843
 45
279.3999938964843
 46
46.228
 47
0.0
 48
180360.0524337165
 49
80033.77936194791
140
180369.1574725906
141
80037.61796031875
142
1.0
143
0.8586284006917006
 70
  1716
 72
     0
 73
     1
 74
     4
  7
OKIB&WShaded.ctb
 75
     0
147
1.16464817515285
148
-4581145.331816398
149
-2032857.995793476
  0
PLOTSETTINGS
  5
AFF
102
{ACAD_REACTORS
330
9E0
102
}
330
9E0
100
AcDbPlotSettings
  1
Oki-Doki-Color-Laser
  2
OKI DOKI Color Laser.pc3
  4
Letter
  6

 40
5.027083396911621
 41
5.027085304260253
 42
5.027084350585937
 43
5.027069091796875
 44
215.8999938964843
 45
279.3999938964843
 46
17.018
 47
0.0
 48
180360.0524337165
 49
80033.77936194791
140
180369.1574725906
141
80037.61796031875
142
1.0
143
1.429088128819241
 70
  1716
 72
     0
 73
     1
 74
     0
  7
Color.ctb
 75
     0
147
0.6997469084193093
148
0.9506237099442977
149
8.593888772447144
  0
PLOTSETTINGS
  5
B00
102
{ACAD_REACTORS
330
9E0
102
}
330
9E0
100
AcDbPlotSettings
  1
Oki-Doki-Color-Shaded-11x17
  2
OKI DOKI Color Laser.pc3
  4
Tabloid
  6

 40
5.027083396911621
 41
5.027085304260253
 42
5.027099609375
 43
5.027069091796875
 44
279.3999938964843
 45
431.7999877929687
 46
45.72
 47
0.0
 48
180360.0524337165
 49
80033.77936194791
140
180369.1574725906
141
80037.61796031875
142
1.0
143
0.5483586774064594
 70
  1716
 72
     0
 73
     1
 74
     4
  7
OKIColorShaded.ctb
 75
     0
147
1.823623918435361
148
-4581145.331816398
149
-2032857.995793476
  0
PLOTSETTINGS
  5
B01
102
{ACAD_REACTORS
330
9E0
102
}
330
9E0
100
AcDbPlotSettings
  1
Oki-Doki-Color-Shaded-8.5x11
  2
OKI DOKI Color Laser.pc3
  4
Letter
  6

 40
5.027083396911621
 41
5.027085304260253
 42
5.027084350585937
 43
5.027069091796875
 44
215.8999938964843
 45
279.3999938964843
 46
46.228
 47
0.0
 48
180360.0524337165
 49
80033.77936194791
140
180369.1574725906
141
80037.61796031875
142
1.0
143
0.8586284006917006
 70
  1716
 72
     0
 73
     1
 74
     4
  7
OKIColorShaded.ctb
 75
     0
147
1.16464817515285
148
-4581145.331816398
149
-2032857.995793476
  0
ACDBPLACEHOLDER
  5
9DE
102
{ACAD_REACTORS
330
9DD
102
}
330
9DD
  0
DICTIONARYVAR
  5
30
102
{ACAD_REACTORS
330
2F
102
}
330
2F
100
DictionaryVariables
280
     0
  1
0
  0
DICTIONARYVAR
  5
9E8
102
{ACAD_REACTORS
330
2F
102
}
330
2F
100
DictionaryVariables
280
     0
  1
1
  0
DICTIONARYVAR
  5
9CA
102
{ACAD_REACTORS
330
2F
102
}
330
2F
100
DictionaryVariables
280
     0
  1
1
  0
XRECORD
  5
9D9
102
{ACAD_REACTORS
330
9D8
102
}
330
0
100
AcDbXrecord
280
     1
330
9B9
  0
XRECORD
  5
9DA
102
{ACAD_REACTORS
330
9D8
102
}
330
0
100
AcDbXrecord
280
     1
330
9BB
330
9BC
  0
ENDSEC
  0
EOF
