  0
SECTION
  2
HEADER
  9
$ACADVER
  1
AC1015
  9
$ACADMAINTVER
 70
    13
  9
$DWGCODEPAGE
  3
ANSI_1252
  9
$INSBASE
 10
0.0
 20
0.0
 30
0.0
  9
$EXTMIN
 10
0.2563512241031129
 20
-1.583308965384857
 30
0.0
  9
$EXTMAX
 10
16.7463512241031
 20
8.856691034615142
 30
0.03
  9
$LIMMIN
 10
0.0
 20
0.0
  9
$LIMMAX
 10
12.0
 20
9.0
  9
$ORTHOMODE
 70
     1
  9
$REGENMODE
 70
     1
  9
$FILLMODE
 70
     1
  9
$QTEXTMODE
 70
     0
  9
$MIRRTEXT
 70
     0
  9
$LTSCALE
 40
1.0
  9
$ATTMODE
 70
     1
  9
$TEXTSIZE
 40
0.1
  9
$TRACEWID
 40
0.05
  9
$TEXTSTYLE
  7
ROMANS
  9
$CLAYER
  8
OPTION-NOZ-ROTARY
  9
$CELTYPE
  6
ByLayer
  9
$CECOLOR
 62
   256
  9
$CELTSCALE
 40
1.0
  9
$DISPSILH
 70
     0
  9
$DIMSCALE
 40
1.0
  9
$DIMASZ
 40
0.18
  9
$DIMEXO
 40
0.0625
  9
$DIMDLI
 40
0.38
  9
$DIMRND
 40
0.0
  9
$DIMDLE
 40
0.0
  9
$DIMEXE
 40
0.18
  9
$DIMTP
 40
0.0
  9
$DIMTM
 40
0.0
  9
$DIMTXT
 40
0.18
  9
$DIMCEN
 40
0.09
  9
$DIMTSZ
 40
0.0
  9
$DIMTOL
 70
     0
  9
$DIMLIM
 70
     0
  9
$DIMTIH
 70
     1
  9
$DIMTOH
 70
     1
  9
$DIMSE1
 70
     0
  9
$DIMSE2
 70
     0
  9
$DIMTAD
 70
     0
  9
$DIMZIN
 70
     0
  9
$DIMBLK
  1

  9
$DIMASO
 70
     1
  9
$DIMSHO
 70
     1
  9
$DIMPOST
  1

  9
$DIMAPOST
  1

  9
$DIMALT
 70
     0
  9
$DIMALTD
 70
     2
  9
$DIMALTF
 40
25.4
  9
$DIMLFAC
 40
1.0
  9
$DIMTOFL
 70
     0
  9
$DIMTVP
 40
0.0
  9
$DIMTIX
 70
     0
  9
$DIMSOXD
 70
     0
  9
$DIMSAH
 70
     0
  9
$DIMBLK1
  1

  9
$DIMBLK2
  1

  9
$DIMSTYLE
  2
STANDARD
  9
$DIMCLRD
 70
     0
  9
$DIMCLRE
 70
     0
  9
$DIMCLRT
 70
     0
  9
$DIMTFAC
 40
1.0
  9
$DIMGAP
 40
0.09
  9
$DIMJUST
 70
     0
  9
$DIMSD1
 70
     0
  9
$DIMSD2
 70
     0
  9
$DIMTOLJ
 70
     1
  9
$DIMTZIN
 70
     0
  9
$DIMALTZ
 70
     0
  9
$DIMALTTZ
 70
     0
  9
$DIMUPT
 70
     0
  9
$DIMDEC
 70
     4
  9
$DIMTDEC
 70
     4
  9
$DIMALTU
 70
     2
  9
$DIMALTTD
 70
     2
  9
$DIMTXSTY
  7
STANDARD
  9
$DIMAUNIT
 70
     0
  9
$DIMADEC
 70
     0
  9
$DIMALTRND
 40
0.0
  9
$DIMAZIN
 70
     0
  9
$DIMDSEP
 70
    46
  9
$DIMATFIT
 70
     3
  9
$DIMFRAC
 70
     0
  9
$DIMLDRBLK
  1

  9
$DIMLUNIT
 70
     2
  9
$DIMLWD
 70
    -2
  9
$DIMLWE
 70
    -2
  9
$DIMTMOVE
 70
     2
  9
$LUNITS
 70
     2
  9
$LUPREC
 70
     4
  9
$SKETCHINC
 40
0.1
  9
$FILLETRAD
 40
0.0
  9
$AUNITS
 70
     0
  9
$AUPREC
 70
     0
  9
$MENU
  1
ACAD
  9
$ELEVATION
 40
0.0
  9
$PELEVATION
 40
0.0
  9
$THICKNESS
 40
0.0
  9
$LIMCHECK
 70
     0
  9
$CHAMFERA
 40
0.0
  9
$CHAMFERB
 40
0.0
  9
$CHAMFERC
 40
0.0
  9
$CHAMFERD
 40
0.0
  9
$SKPOLY
 70
     0
  9
$TDCREATE
 40
2451134.664492268
  9
$TDUCREATE
 40
2451134.914492268
  9
$TDUPDATE
 40
2453109.630554490
  9
$TDUUPDATE
 40
2453109.880554491
  9
$TDINDWG
 40
0.1467116319
  9
$TDUSRTIMER
 40
0.1467116319
  9
$USRTIMER
 70
     1
  9
$ANGBASE
 50
0.0
  9
$ANGDIR
 70
     0
  9
$PDMODE
 70
     0
  9
$PDSIZE
 40
0.0
  9
$PLINEWID
 40
0.0
  9
$SPLFRAME
 70
     0
  9
$SPLINETYPE
 70
     6
  9
$SPLINESEGS
 70
     8
  9
$HANDSEED
  5
BAE
  9
$SURFTAB1
 70
     6
  9
$SURFTAB2
 70
     6
  9
$SURFTYPE
 70
     6
  9
$SURFU
 70
     6
  9
$SURFV
 70
     6
  9
$UCSBASE
  2

  9
$UCSNAME
  2

  9
$UCSORG
 10
0.0
 20
0.0
 30
0.0
  9
$UCSXDIR
 10
1.0
 20
0.0
 30
0.0
  9
$UCSYDIR
 10
0.0
 20
1.0
 30
0.0
  9
$UCSORTHOREF
  2

  9
$UCSORTHOVIEW
 70
     0
  9
$UCSORGTOP
 10
0.0
 20
0.0
 30
0.0
  9
$UCSORGBOTTOM
 10
0.0
 20
0.0
 30
0.0
  9
$UCSORGLEFT
 10
0.0
 20
0.0
 30
0.0
  9
$UCSORGRIGHT
 10
0.0
 20
0.0
 30
0.0
  9
$UCSORGFRONT
 10
0.0
 20
0.0
 30
0.0
  9
$UCSORGBACK
 10
0.0
 20
0.0
 30
0.0
  9
$PUCSBASE
  2

  9
$PUCSNAME
  2

  9
$PUCSORG
 10
0.0
 20
0.0
 30
0.0
  9
$PUCSXDIR
 10
1.0
 20
0.0
 30
0.0
  9
$PUCSYDIR
 10
0.0
 20
1.0
 30
0.0
  9
$PUCSORTHOREF
  2

  9
$PUCSORTHOVIEW
 70
     0
  9
$PUCSORGTOP
 10
0.0
 20
0.0
 30
0.0
  9
$PUCSORGBOTTOM
 10
0.0
 20
0.0
 30
0.0
  9
$PUCSORGLEFT
 10
0.0
 20
0.0
 30
0.0
  9
$PUCSORGRIGHT
 10
0.0
 20
0.0
 30
0.0
  9
$PUCSORGFRONT
 10
0.0
 20
0.0
 30
0.0
  9
$PUCSORGBACK
 10
0.0
 20
0.0
 30
0.0
  9
$USERI1
 70
     0
  9
$USERI2
 70
     0
  9
$USERI3
 70
     0
  9
$USERI4
 70
     0
  9
$USERI5
 70
     0
  9
$USERR1
 40
0.0
  9
$USERR2
 40
0.0
  9
$USERR3
 40
0.0
  9
$USERR4
 40
0.0
  9
$USERR5
 40
0.0
  9
$WORLDVIEW
 70
     1
  9
$SHADEDGE
 70
     3
  9
$SHADEDIF
 70
    70
  9
$TILEMODE
 70
     1
  9
$MAXACTVP
 70
    16
  9
$PINSBASE
 10
0.0
 20
0.0
 30
0.0
  9
$PLIMCHECK
 70
     0
  9
$PEXTMIN
 10
1.000000000000000E+20
 20
1.000000000000000E+20
 30
1.000000000000000E+20
  9
$PEXTMAX
 10
-1.000000000000000E+20
 20
-1.000000000000000E+20
 30
-1.000000000000000E+20
  9
$PLIMMIN
 10
0.0
 20
0.0
  9
$PLIMMAX
 10
12.0
 20
9.0
  9
$UNITMODE
 70
     0
  9
$VISRETAIN
 70
     0
  9
$PLINEGEN
 70
     1
  9
$PSLTSCALE
 70
     1
  9
$TREEDEPTH
 70
  3020
  9
$CMLSTYLE
  2
Standard
  9
$CMLJUST
 70
     0
  9
$CMLSCALE
 40
1.0
  9
$PROXYGRAPHICS
 70
     1
  9
$MEASUREMENT
 70
     0
  9
$CELWEIGHT
370
    -1
  9
$ENDCAPS
280
     0
  9
$JOINSTYLE
280
     0
  9
$LWDISPLAY
290
     0
  9
$INSUNITS
 70
     0
  9
$HYPERLINKBASE
  1

  9
$STYLESHEET
  1
8500ColorShaded.ctb
  9
$XEDIT
290
     1
  9
$CEPSNTYPE
380
     0
  9
$PSTYLEMODE
290
     1
  9
$FINGERPRINTGUID
  2
{B793E538-94A9-41F8-80B6-323E955D10E3}
  9
$VERSIONGUID
  2
{8EFC6226-FB4F-4B16-A904-E00E9FE72C34}
  9
$EXTNAMES
290
     1
  9
$PSVPSCALE
 40
0.0
  9
$OLESTARTUP
290
     1
  0
ENDSEC
  0
SECTION
  2
CLASSES
  0
CLASS
  1
ACDBDICTIONARYWDFLT
  2
AcDbDictionaryWithDefault
  3
AutoCAD 2000
 90
        0
280
     0
281
     0
  0
CLASS
  1
ACDBPLACEHOLDER
  2
AcDbPlaceHolder
  3
AutoCAD 2000
 90
        0
280
     0
281
     0
  0
CLASS
  1
LAYOUT
  2
AcDbLayout
  3
AutoCAD 2000
 90
        0
280
     0
281
     0
  0
CLASS
  1
DICTIONARYVAR
  2
AcDbDictionaryVar
  3
AutoCAD 2000
 90
        0
280
     0
281
     0
  0
ENDSEC
  0
SECTION
  2
TABLES
  0
TABLE
  2
VPORT
  5
597
330
0
100
AcDbSymbolTable
 70
     2
  0
VPORT
  5
BAD
330
597
100
AcDbSymbolTableRecord
100
AcDbViewportTableRecord
  2
*Active
 70
     0
 10
0.0
 20
0.0
 11
1.0
 21
1.0
 12
8.5018384616372
 22
4.103814292723765
 13
0.0
 23
0.0
 14
0.14
 24
0.14
 15
0.0
 25
0.0
 16
0.0
 26
0.0
 36
1.0
 17
0.0
 27
0.0
 37
0.0
 40
11.46973499813175
 41
1.505548705302096
 42
50.0
 43
0.0
 44
0.0
 50
0.0
 51
0.0
 71
     0
 72
  5000
 73
     1
 74
     1
 75
     0
 76
     0
 77
     0
 78
     0
281
     0
 65
     1
110
0.0
120
0.0
130
0.0
111
1.0
121
0.0
131
0.0
112
0.0
122
1.0
132
0.0
 79
     0
146
0.0
  0
ENDTAB
  0
TABLE
  2
LTYPE
  5
594
330
0
100
AcDbSymbolTable
 70
     1
  0
LTYPE
  5
5A2
330
594
100
AcDbSymbolTableRecord
100
AcDbLinetypeTableRecord
  2
ByBlock
 70
     0
  3

 72
    65
 73
     0
 40
0.0
  0
LTYPE
  5
5A3
330
594
100
AcDbSymbolTableRecord
100
AcDbLinetypeTableRecord
  2
ByLayer
 70
     0
  3

 72
    65
 73
     0
 40
0.0
  0
LTYPE
  5
5A4
330
594
100
AcDbSymbolTableRecord
100
AcDbLinetypeTableRecord
  2
CONTINUOUS
 70
     0
  3
Solid line
 72
    65
 73
     0
 40
0.0
  0
ENDTAB
  0
TABLE
  2
LAYER
  5
591
102
{ACAD_XDICTIONARY
360
5ED
102
}
330
0
100
AcDbSymbolTable
 70
    12
  0
LAYER
  5
59F
330
591
100
AcDbSymbolTableRecord
100
AcDbLayerTableRecord
  2
0
 70
     0
 62
     7
  6
CONTINUOUS
370
    -3
390
59E
  0
LAYER
  5
5B7
330
591
100
AcDbSymbolTableRecord
100
AcDbLayerTableRecord
  2
TEXT_BUBBLES
 70
     0
 62
     6
  6
CONTINUOUS
370
    -3
390
59E
  0
LAYER
  5
5B8
330
591
100
AcDbSymbolTableRecord
100
AcDbLayerTableRecord
  2
IMAGE
 70
     0
 62
     7
  6
CONTINUOUS
370
    -3
390
59E
  0
LAYER
  5
5BB
330
591
100
AcDbSymbolTableRecord
100
AcDbLayerTableRecord
  2
TEXT_LEADERS
 70
     0
 62
    -5
  6
CONTINUOUS
370
    -3
390
59E
  0
LAYER
  5
5BC
330
591
100
AcDbSymbolTableRecord
100
AcDbLayerTableRecord
  2
OPTION-NOZ-VAN
 70
     0
 62
    -1
  6
CONTINUOUS
370
    -3
390
59E
  0
LAYER
  5
5BE
330
591
100
AcDbSymbolTableRecord
100
AcDbLayerTableRecord
  2
OPTION-NOZ-PLASTIC
 70
     0
 62
    -1
  6
CONTINUOUS
370
    -3
390
59E
  0
LAYER
  5
5BF
330
591
100
AcDbSymbolTableRecord
100
AcDbLayerTableRecord
  2
INSTRUCT-OPTION
 70
     0
 62
     7
  6
CONTINUOUS
370
    -3
390
59E
  0
LAYER
  5
5C0
330
591
100
AcDbSymbolTableRecord
100
AcDbLayerTableRecord
  2
INSTRUCT-CALLOUT
 70
     0
 62
     4
  6
CONTINUOUS
370
    -3
390
59E
  0
LAYER
  5
5C2
330
591
100
AcDbSymbolTableRecord
100
AcDbLayerTableRecord
  2
OPTION-NOZ-U-SERIES
 70
     0
 62
    -1
  6
CONTINUOUS
370
    -3
390
59E
  0
LAYER
  5
5C7
330
591
100
AcDbSymbolTableRecord
100
AcDbLayerTableRecord
  2
OPTION-SAM
 70
     0
 62
    -1
  6
CONTINUOUS
370
    -3
390
59E
  0
LAYER
  5
5E9
330
591
100
AcDbSymbolTableRecord
100
AcDbLayerTableRecord
  2
TITLE
 70
     0
 62
     4
  6
CONTINUOUS
370
    -3
390
59E
  0
LAYER
  5
BA5
330
591
100
AcDbSymbolTableRecord
100
AcDbLayerTableRecord
  2
OPTION-NOZ-ROTARY
 70
     0
 62
     1
  6
CONTINUOUS
370
    -3
390
59E
  0
ENDTAB
  0
TABLE
  2
STYLE
  5
592
330
0
100
AcDbSymbolTable
 70
     5
  0
STYLE
  5
5A0
330
592
100
AcDbSymbolTableRecord
100
AcDbTextStyleTableRecord
  2
STANDARD
 70
     0
 40
0.0
 41
1.0
 50
0.0
 71
     0
 42
0.2
  3
txt
  4

  0
STYLE
  5
5B3
330
592
100
AcDbSymbolTableRecord
100
AcDbTextStyleTableRecord
  2
ROMANS
 70
     0
 40
0.0
 41
1.0
 50
0.0
 71
     0
 42
0.1
  3
ROMANS.SHX
  4

  0
STYLE
  5
5EA
330
592
100
AcDbSymbolTableRecord
100
AcDbTextStyleTableRecord
  2
L100
 70
     0
 40
0.1
 41
1.0
 50
0.0
 71
     0
 42
0.1
  3
romans.shx
  4

  0
STYLE
  5
5EB
330
592
100
AcDbSymbolTableRecord
100
AcDbTextStyleTableRecord
  2
L200
 70
     0
 40
0.2
 41
1.0
 50
0.0
 71
     0
 42
0.081
  3
ARIAL.TTF
  4

1001
ACAD
1000
Arial
1071
       34
  0
STYLE
  5
5EC
330
592
100
AcDbSymbolTableRecord
100
AcDbTextStyleTableRecord
  2
L80
 70
     0
 40
0.08
 41
1.0
 50
0.0
 71
     0
 42
0.08
  3
ROMANS
  4

  0
ENDTAB
  0
TABLE
  2
VIEW
  5
595
330
0
100
AcDbSymbolTable
 70
     0
  0
ENDTAB
  0
TABLE
  2
UCS
  5
596
330
0
100
AcDbSymbolTable
 70
     0
  0
ENDTAB
  0
TABLE
  2
APPID
  5
598
330
0
100
AcDbSymbolTable
 70
     1
  0
APPID
  5
5A1
330
598
100
AcDbSymbolTableRecord
100
AcDbRegAppTableRecord
  2
ACAD
 70
     0
  0
ENDTAB
  0
TABLE
  2
DIMSTYLE
  5
599
330
0
100
AcDbSymbolTable
 70
     1
100
AcDbDimStyleTable
 71
     0
  0
DIMSTYLE
105
5B6
330
599
100
AcDbSymbolTableRecord
100
AcDbDimStyleTableRecord
  2
STANDARD
 70
     0
279
     2
340
5A0
  0
ENDTAB
  0
TABLE
  2
BLOCK_RECORD
  5
590
330
0
100
AcDbSymbolTable
 70
     2
  0
BLOCK_RECORD
  5
5AD
330
590
100
AcDbSymbolTableRecord
100
AcDbBlockTableRecord
  2
*Model_Space
340
5B0
  0
BLOCK_RECORD
  5
5A9
330
590
100
AcDbSymbolTableRecord
100
AcDbBlockTableRecord
  2
*Paper_Space
340
5AC
  0
BLOCK_RECORD
  5
5DB
330
590
100
AcDbSymbolTableRecord
100
AcDbBlockTableRecord
  2
titleblock
340
0
102
{BLKREFS
331
65D
102
}
  0
BLOCK_RECORD
  5
A17
330
590
100
AcDbSymbolTableRecord
100
AcDbBlockTableRecord
  2
*X1
340
0
102
{BLKREFS
331
B8B
102
}
  0
ENDTAB
  0
ENDSEC
  0
SECTION
  2
BLOCKS
  0
BLOCK
  5
5CA
330
5AD
100
AcDbEntity
  8
0
100
AcDbBlockBegin
  2
*Model_Space
 70
     0
 10
0.0
 20
0.0
 30
0.0
  3
*Model_Space
  1

  0
ENDBLK
  5
5CB
330
5AD
100
AcDbEntity
  8
0
100
AcDbBlockEnd
  0
BLOCK
  5
5C8
330
5A9
100
AcDbEntity
 67
     1
  8
0
100
AcDbBlockBegin
  2
*Paper_Space
 70
     0
 10
0.0
 20
0.0
 30
0.0
  3
*Paper_Space
  1

  0
ENDBLK
  5
5C9
330
5A9
100
AcDbEntity
 67
     1
  8
0
100
AcDbBlockEnd
  0
BLOCK
  5
5E7
330
5DB
100
AcDbEntity
  8
0
100
AcDbBlockBegin
  2
titleblock
 70
     2
 10
0.0
 20
0.0
 30
0.0
  3
titleblock
  1

  0
LWPOLYLINE
  5
5DC
330
5DB
100
AcDbEntity
  8
IMAGE
100
AcDbPolyline
 90
        4
 70
     1
 43
0.0
 10
0.0
 20
0.0
 10
16.48999999999999
 20
0.0000000000000001
 10
16.48999999999999
 20
10.44
 10
0.0
 20
10.44
  0
ATTDEF
  5
5DD
330
5DB
100
AcDbEntity
  8
TITLE
100
AcDbText
 10
0.5055556038023421
 20
0.7842270964783673
 30
0.0
 40
0.2
  1
D
  7
L200
 72
     4
 11
0.6064423705144839
 21
0.8842270964783672
 31
0.0
100
AcDbAttributeDefinition
  3
#
  2
D
 70
     0
  0
ATTDEF
  5
5DE
330
5DB
100
AcDbEntity
  8
TITLE
100
AcDbText
 10
1.231442370514484
 20
1.34371230274675
 30
0.0
 40
0.2
  1

  7
L200
100
AcDbAttributeDefinition
  3
DETAIL TITLE TOP LINE
  2
TITLE1
 70
     0
  0
ATTDEF
  5
5DF
330
5DB
100
AcDbEntity
  8
TITLE
100
AcDbText
 10
1.231442370514484
 20
0.9842270964783674
 30
0.0
 40
0.2
  1
TITLE
  7
L200
100
AcDbAttributeDefinition
  3
DETAIL TITLE TOP 2ND LINE
  2
TITLE2
 70
     0
  0
ATTDEF
  5
5E0
330
5DB
100
AcDbEntity
  8
TITLE
100
AcDbText
 10
2.713645751168312
 20
0.5927927664583189
 30
0.0
 40
0.2
  1
TITLE2
  7
L200
100
AcDbAttributeDefinition
  3
DETAIL TITLE BOTTOM 1
  2
TITLE3
 70
     0
  0
ATTDEF
  5
5E1
330
5DB
100
AcDbEntity
  8
TITLE
100
AcDbText
 10
2.713645751168312
 20
0.2692560808167741
 30
0.0
 40
0.2
  1

  7
L200
100
AcDbAttributeDefinition
  3
DETAIL TITLE BOTTOM 2
  2
TITLE4
 70
     0
  0
ATTDEF
  5
5E2
330
5DB
100
AcDbEntity
  8
TITLE
 62
     7
100
AcDbText
 10
8.177214829966379
 20
0.9696027915446398
 30
0.0
 40
0.08
  1
-
  7
L80
 72
     2
 11
8.261024353775903
 21
0.9696027915446398
 31
0.0
100
AcDbAttributeDefinition
  3
REVISION DATE
  2
REVISED
 70
     0
  0
ATTDEF
  5
5E3
330
5DB
100
AcDbEntity
  8
TITLE
 62
     7
100
AcDbText
 10
0.2639423705144838
 20
0.0847116480207214
 30
0.0
 40
0.08
  1
-
  7
L80
100
AcDbAttributeDefinition
  3
DWG-NAME
  2
DWG-NAME
 70
     0
  0
LWPOLYLINE
  5
5E4
330
5DB
100
AcDbEntity
  8
TITLE
 62
     3
100
AcDbPolyline
 90
        2
 70
     1
 43
0.03
 10
0.6064423705144839
 20
0.5417270964783675
 42
0.9999999999999998
 10
0.6064423705144839
 20
1.226727096478367
 42
0.9999999999999998
  0
ATTDEF
  5
5E5
330
5DB
100
AcDbEntity
  8
TITLE
 62
     7
100
AcDbText
 10
1.231442370514484
 20
0.7005637793954894
 30
0.0
 40
0.1
  1
N.T.S.
  7
L100
100
AcDbAttributeDefinition
  3
SCALE
  2
SCALE
 70
     0
  0
LWPOLYLINE
  5
5E6
330
5DB
100
AcDbEntity
  8
TITLE
 62
     3
100
AcDbPolyline
 90
        2
 70
     0
 43
0.04
 39
0.03
 10
0.9489423705144833
 20
0.8842270964783672
 10
8.261024353775903
 20
0.8842270964783672
  0
ENDBLK
  5
5E8
330
5DB
100
AcDbEntity
  8
0
100
AcDbBlockEnd
  0
BLOCK
  5
A58
330
A17
100
AcDbEntity
  8
0
100
AcDbBlockBegin
  2
*X1
 70
     1
 10
0.0
 20
0.0
 30
0.0
  3
*X1
  1

  0
LINE
  5
A18
330
A17
100
AcDbEntity
  8
0
 62
     0
100
AcDbLine
 10
3.217335854398788
 20
4.984353521001493
 30
0.0
 11
3.214773642343438
 21
4.986915733056844
 31
0.0
  0
LINE
  5
A19
330
A17
100
AcDbEntity
  8
0
 62
     0
100
AcDbLine
 10
2.987526150513161
 20
4.984353521001493
 30
0.0
 11
2.984963938457811
 21
4.986915733056844
 31
0.0
  0
LINE
  5
A1A
330
A17
100
AcDbEntity
  8
0
 62
     0
100
AcDbLine
 10
3.210980951839534
 20
4.760898719675121
 30
0.0
 11
3.102431002455976
 21
4.869448669058679
 31
0.0
  0
LINE
  5
A1B
330
A17
100
AcDbEntity
  8
0
 62
     0
100
AcDbLine
 10
2.757716446627533
 20
4.984353521001493
 30
0.0
 11
2.755154234572183
 21
4.986915733056844
 31
0.0
  0
LINE
  5
A1C
330
A17
100
AcDbEntity
  8
0
 62
     0
100
AcDbLine
 10
2.957472235697675
 20
4.784597731931351
 30
0.0
 11
2.872621298570347
 21
4.869448669058679
 31
0.0
  0
LINE
  5
A1D
330
A17
100
AcDbEntity
  8
0
 62
     0
100
AcDbLine
 10
2.748119821008041
 20
4.764140442735357
 30
0.0
 11
2.642811594684719
 21
4.869448669058678
 31
0.0
  0
LINE
  5
A1E
330
A17
100
AcDbEntity
  8
0
 62
     0
100
AcDbLine
 10
2.298097038856278
 20
4.984353521001493
 30
0.0
 11
2.295534826800928
 21
4.986915733056843
 31
0.0
  0
LINE
  5
A1F
330
A17
100
AcDbEntity
  8
0
 62
     0
100
AcDbLine
 10
2.06828733497065
 20
4.984353521001493
 30
0.0
 11
2.0657251229153
 21
4.986915733056843
 31
0.0
  0
LINE
  5
A20
330
A17
100
AcDbEntity
  8
0
 62
     0
100
AcDbLine
 10
2.235506779212947
 20
4.817134076759195
 30
0.0
 11
2.183192186913463
 21
4.869448669058678
 31
0.0
  0
LINE
  5
A21
330
A17
100
AcDbEntity
  8
0
 62
     0
100
AcDbLine
 10
2.272695501760878
 20
4.779945354211264
 30
0.0
 11
2.271914515072758
 21
4.780726340899384
 31
0.0
  0
LINE
  5
A22
330
A17
100
AcDbEntity
  8
0
 62
     0
100
AcDbLine
 10
1.838477631085021
 20
4.984353521001493
 30
0.0
 11
1.835915419029672
 21
4.986915733056843
 31
0.0
  0
LINE
  5
A23
330
A17
100
AcDbEntity
  8
0
 62
     0
100
AcDbLine
 10
2.04801183768941
 20
4.774819314397105
 30
0.0
 11
1.953382483027835
 21
4.869448669058679
 31
0.0
  0
LINE
  5
A24
330
A17
100
AcDbEntity
  8
0
 62
     0
100
AcDbLine
 10
1.608667927199393
 20
4.984353521001493
 30
0.0
 11
1.606105715144043
 21
4.986915733056844
 31
0.0
  0
LINE
  5
A25
330
A17
100
AcDbEntity
  8
0
 62
     0
100
AcDbLine
 10
1.815261950151577
 20
4.777759498049309
 30
0.0
 11
1.723572779142207
 21
4.869448669058679
 31
0.0
  0
LINE
  5
A26
330
A17
100
AcDbEntity
  8
0
 62
     0
100
AcDbLine
 10
3.3773667274765
 20
4.9679537128523
 30
0.0
 11
3.358404707271956
 21
4.986915733056844
 31
0.0
  0
LINE
  5
A27
330
A17
100
AcDbEntity
  8
0
 62
     0
100
AcDbLine
 10
3.174246534920234
 20
4.941264201522938
 30
0.0
 11
3.128595003386329
 21
4.986915733056843
 31
0.0
  0
LINE
  5
A28
330
A17
100
AcDbEntity
  8
0
 62
     0
100
AcDbLine
 10
2.944436831034606
 20
4.941264201522938
 30
0.0
 11
2.8987852995007
 21
4.986915733056844
 31
0.0
  0
LINE
  5
A29
330
A17
100
AcDbEntity
  8
0
 62
     0
100
AcDbLine
 10
3.137984074721356
 20
4.747716957836187
 30
0.0
 11
3.05934168297742
 21
4.826359349580124
 31
0.0
  0
LINE
  5
A2A
330
A17
100
AcDbEntity
  8
0
 62
     0
100
AcDbLine
 10
2.714627127148977
 20
4.941264201522939
 30
0.0
 11
2.668975595615072
 21
4.986915733056844
 31
0.0
  0
LINE
  5
A2B
330
A17
100
AcDbEntity
  8
0
 62
     0
100
AcDbLine
 10
2.877220588344105
 20
4.778670740327811
 30
0.0
 11
2.829531979091791
 21
4.826359349580124
 31
0.0
  0
LINE
  5
A2C
330
A17
100
AcDbEntity
  8
0
 62
     0
100
AcDbLine
 10
2.681418932997962
 20
4.744662691788326
 30
0.0
 11
2.607323715890327
 21
4.81875790889596
 31
0.0
  0
LINE
  5
A2D
330
A17
100
AcDbEntity
  8
0
 62
     0
100
AcDbLine
 10
2.255007719377722
 20
4.941264201522938
 30
0.0
 11
2.209356187843817
 21
4.986915733056843
 31
0.0
  0
LINE
  5
A2E
330
A17
100
AcDbEntity
  8
0
 62
     0
100
AcDbLine
 10
2.025198015492093
 20
4.941264201522939
 30
0.0
 11
1.979546483958187
 21
4.986915733056844
 31
0.0
  0
LINE
  5
A2F
330
A17
100
AcDbEntity
  8
0
 62
     0
100
AcDbLine
 10
2.252807724325373
 20
4.713654492689659
 30
0.0
 11
2.140102867434907
 21
4.826359349580124
 31
0.0
  0
LINE
  5
A30
330
A17
100
AcDbEntity
  8
0
 62
     0
100
AcDbLine
 10
1.795388311606465
 20
4.941264201522939
 30
0.0
 11
1.74973678007256
 21
4.986915733056844
 31
0.0
  0
LINE
  5
A31
330
A17
100
AcDbEntity
  8
0
 62
     0
100
AcDbLine
 10
1.958270617415702
 20
4.778381895713702
 30
0.0
 11
1.910293163549279
 21
4.826359349580124
 31
0.0
  0
LINE
  5
A32
330
A17
100
AcDbEntity
  8
0
 62
     0
100
AcDbLine
 10
1.565578607720838
 20
4.941264201522939
 30
0.0
 11
1.519927076186932
 21
4.986915733056844
 31
0.0
  0
LINE
  5
A33
330
A17
100
AcDbEntity
  8
0
 62
     0
100
AcDbLine
 10
1.751340147781165
 20
4.755502661462611
 30
0.0
 11
1.680483459663651
 21
4.826359349580124
 31
0.0
  0
LINE
  5
A34
330
A17
100
AcDbEntity
  8
0
 62
     0
100
AcDbLine
 10
3.34051326673864
 20
4.918628534633048
 30
0.0
 11
3.272226068314846
 21
4.986915733056843
 31
0.0
  0
LINE
  5
A35
330
A17
100
AcDbEntity
  8
0
 62
     0
100
AcDbLine
 10
3.131157215441679
 20
4.898174882044382
 30
0.0
 11
3.042416364429218
 21
4.986915733056843
 31
0.0
  0
LINE
  5
A36
330
A17
100
AcDbEntity
  8
0
 62
     0
100
AcDbLine
 10
3.247210640816111
 20
4.782121456669949
 30
0.0
 11
3.246062067384493
 21
4.783270030101568
 31
0.0
  0
LINE
  5
A37
330
A17
100
AcDbEntity
  8
0
 62
     0
100
AcDbLine
 10
2.901347511556051
 20
4.898174882044383
 30
0.0
 11
2.81260666054359
 21
4.986915733056844
 31
0.0
  0
LINE
  5
A38
330
A17
100
AcDbEntity
  8
0
 62
     0
100
AcDbLine
 10
3.018661599592814
 20
4.78086079400762
 30
0.0
 11
3.016252363498865
 21
4.783270030101569
 31
0.0
  0
LINE
  5
A39
330
A17
100
AcDbEntity
  8
0
 62
     0
100
AcDbLine
 10
2.671537807670423
 20
4.898174882044383
 30
0.0
 11
2.582796956657963
 21
4.986915733056844
 31
0.0
  0
LINE
  5
A3A
330
A17
100
AcDbEntity
  8
0
 62
     0
100
AcDbLine
 10
2.794879469169602
 20
4.774833220545203
 30
0.0
 11
2.786442659613237
 21
4.783270030101569
 31
0.0
  0
LINE
  5
A3B
330
A17
100
AcDbEntity
  8
0
 62
     0
100
AcDbLine
 10
2.628022603063588
 20
4.711880382765589
 30
0.0
 11
2.570044214100057
 21
4.769858771729119
 31
0.0
  0
LINE
  5
A3C
330
A17
100
AcDbEntity
  8
0
 62
     0
100
AcDbLine
 10
2.211918399899167
 20
4.898174882044383
 30
0.0
 11
2.123177548886706
 21
4.986915733056844
 31
0.0
  0
LINE
  5
A3D
330
A17
100
AcDbEntity
  8
0
 62
     0
100
AcDbLine
 10
1.982108696013539
 20
4.898174882044383
 30
0.0
 11
1.893367845001078
 21
4.986915733056844
 31
0.0
  0
LINE
  5
A3E
330
A17
100
AcDbEntity
  8
0
 62
     0
100
AcDbLine
 10
2.122497236568036
 20
4.757786341489886
 30
0.0
 11
2.097013547956353
 21
4.783270030101569
 31
0.0
  0
LINE
  5
A3F
330
A17
100
AcDbEntity
  8
0
 62
     0
100
AcDbLine
 10
1.752298992127911
 20
4.898174882044383
 30
0.0
 11
1.66355814111545
 21
4.986915733056844
 31
0.0
  0
LINE
  5
A40
330
A17
100
AcDbEntity
  8
0
 62
     0
100
AcDbLine
 10
1.522489288242284
 20
4.898174882044382
 30
0.0
 11
1.503149324339786
 21
4.917514845946879
 31
0.0
  0
LINE
  5
A41
330
A17
100
AcDbEntity
  8
0
 62
     0
100
AcDbLine
 10
1.665917421404524
 20
4.754746748882141
 30
0.0
 11
1.637394140185097
 21
4.783270030101568
 31
0.0
  0
LINE
  5
A42
330
A17
100
AcDbEntity
  8
0
 62
     0
100
AcDbLine
 10
3.13115721544168
 20
4.869448669058679
 30
0.0
 11
3.246062067384494
 21
4.984353521001493
 31
0.0
  0
LINE
  5
A43
330
A17
100
AcDbEntity
  8
0
 62
     0
100
AcDbLine
 10
2.901347511556051
 20
4.86944866905868
 30
0.0
 11
3.016252363498865
 21
4.984353521001494
 31
0.0
  0
LINE
  5
A44
330
A17
100
AcDbEntity
  8
0
 62
     0
100
AcDbLine
 10
2.671537807670423
 20
4.869448669058678
 30
0.0
 11
2.786442659613237
 21
4.984353521001493
 31
0.0
  0
LINE
  5
A45
330
A17
100
AcDbEntity
  8
0
 62
     0
100
AcDbLine
 10
2.548279034198668
 20
4.975999599472553
 30
0.0
 11
2.556632955727609
 21
4.984353521001493
 31
0.0
  0
LINE
  5
A46
330
A17
100
AcDbEntity
  8
0
 62
     0
100
AcDbLine
 10
2.211918399899167
 20
4.869448669058679
 30
0.0
 11
2.268012455122642
 21
4.925542724282155
 31
0.0
  0
LINE
  5
A47
330
A17
100
AcDbEntity
  8
0
 62
     0
100
AcDbLine
 10
1.98210869601354
 20
4.86944866905868
 30
0.0
 11
2.097013547956354
 21
4.984353521001494
 31
0.0
  0
LINE
  5
A48
330
A17
100
AcDbEntity
  8
0
 62
     0
100
AcDbLine
 10
1.752298992127911
 20
4.869448669058679
 30
0.0
 11
1.867203844070725
 21
4.984353521001493
 31
0.0
  0
LINE
  5
A49
330
A17
100
AcDbEntity
  8
0
 62
     0
100
AcDbLine
 10
1.531453634589299
 20
4.878413015405695
 30
0.0
 11
1.637394140185097
 21
4.984353521001493
 31
0.0
  0
LINE
  5
A4A
330
A17
100
AcDbEntity
  8
0
 62
     0
100
AcDbLine
 10
3.174246534920235
 20
4.826359349580124
 30
0.0
 11
3.289151386863049
 21
4.941264201522939
 31
0.0
  0
LINE
  5
A4B
330
A17
100
AcDbEntity
  8
0
 62
     0
100
AcDbLine
 10
2.944436831034606
 20
4.826359349580124
 30
0.0
 11
3.05934168297742
 21
4.941264201522939
 31
0.0
  0
LINE
  5
A4C
330
A17
100
AcDbEntity
  8
0
 62
     0
100
AcDbLine
 10
2.714627127148979
 20
4.826359349580124
 30
0.0
 11
2.829531979091793
 21
4.941264201522939
 31
0.0
  0
LINE
  5
A4D
330
A17
100
AcDbEntity
  8
0
 62
     0
100
AcDbLine
 10
2.577983160817927
 20
4.919525087134701
 30
0.0
 11
2.599722275206165
 21
4.941264201522939
 31
0.0
  0
LINE
  5
A4E
330
A17
100
AcDbEntity
  8
0
 62
     0
100
AcDbLine
 10
2.025198015492095
 20
4.826359349580125
 30
0.0
 11
2.140102867434909
 21
4.941264201522939
 31
0.0
  0
LINE
  5
A4F
330
A17
100
AcDbEntity
  8
0
 62
     0
100
AcDbLine
 10
1.795388311606467
 20
4.826359349580125
 30
0.0
 11
1.910293163549281
 21
4.941264201522939
 31
0.0
  0
LINE
  5
A50
330
A17
100
AcDbEntity
  8
0
 62
     0
100
AcDbLine
 10
1.565916017993621
 20
4.826696759852906
 30
0.0
 11
1.680483459663653
 21
4.941264201522939
 31
0.0
  0
LINE
  5
A51
330
A17
100
AcDbEntity
  8
0
 62
     0
100
AcDbLine
 10
3.21733585439879
 20
4.78327003010157
 30
0.0
 11
3.309175799268931
 21
4.875109974971711
 31
0.0
  0
LINE
  5
A52
330
A17
100
AcDbEntity
  8
0
 62
     0
100
AcDbLine
 10
2.993780297657751
 20
4.789524177246159
 30
0.0
 11
3.102431002455976
 21
4.898174882044384
 31
0.0
  0
LINE
  5
A53
330
A17
100
AcDbEntity
  8
0
 62
     0
100
AcDbLine
 10
2.757716446627534
 20
4.78327003010157
 30
0.0
 11
2.872621298570348
 21
4.898174882044384
 31
0.0
  0
LINE
  5
A54
330
A17
100
AcDbEntity
  8
0
 62
     0
100
AcDbLine
 10
2.607323715890326
 20
4.862687003249989
 30
0.0
 11
2.64281159468472
 21
4.898174882044383
 31
0.0
  0
LINE
  5
A55
330
A17
100
AcDbEntity
  8
0
 62
     0
100
AcDbLine
 10
2.06828733497065
 20
4.78327003010157
 30
0.0
 11
2.183192186913464
 21
4.898174882044384
 31
0.0
  0
LINE
  5
A56
330
A17
100
AcDbEntity
  8
0
 62
     0
100
AcDbLine
 10
1.842424939642478
 20
4.787217338659026
 30
0.0
 11
1.953382483027836
 21
4.898174882044383
 31
0.0
  0
LINE
  5
A57
330
A17
100
AcDbEntity
  8
0
 62
     0
100
AcDbLine
 10
1.608667927199394
 20
4.78327003010157
 30
0.0
 11
1.723572779142208
 21
4.898174882044384
 31
0.0
  0
ENDBLK
  5
A59
330
A17
100
AcDbEntity
  8
0
100
AcDbBlockEnd
  0
ENDSEC
  0
SECTION
  2
ENTITIES
  0
CIRCLE
  5
103
330
5AD
100
AcDbEntity
  8
TEXT_BUBBLES
100
AcDbCircle
 10
5.445705843617404
 20
5.377574800713197
 30
0.0
 40
0.15625
  0
TEXT
  5
104
330
5AD
100
AcDbEntity
  8
TEXT_BUBBLES
100
AcDbText
 10
5.395110605522166
 20
5.315074800713197
 30
0.0
 40
0.125
  1
1
  7
ROMANS
 72
     4
 11
5.445705843617404
 21
5.377574800713197
 31
0.0
100
AcDbText
  0
CIRCLE
  5
105
330
5AD
100
AcDbEntity
  8
TEXT_BUBBLES
100
AcDbCircle
 10
5.445705843617404
 20
5.033397967517729
 30
0.0
 40
0.15625
  0
TEXT
  5
106
330
5AD
100
AcDbEntity
  8
TEXT_BUBBLES
100
AcDbText
 10
5.386182034093595
 20
4.970897967517729
 30
0.0
 40
0.125
  1
2
  7
ROMANS
 72
     4
 11
5.445705843617404
 21
5.033397967517729
 31
0.0
100
AcDbText
  0
TEXT
  5
122
330
5AD
100
AcDbEntity
  8
TEXT_BUBBLES
100
AcDbText
 10
0.6552931252108375
 20
4.281012797173151
 30
0.0
 40
0.125
  1
2
  7
ROMANS
 72
     4
 11
0.714816934734647
 21
4.343512797173151
 31
0.0
100
AcDbText
  0
CIRCLE
  5
123
330
5AD
100
AcDbEntity
  8
TEXT_BUBBLES
100
AcDbCircle
 10
0.714816934734647
 20
4.343512797173151
 30
0.0
 40
0.15625
  0
TEXT
  5
12E
330
5AD
100
AcDbEntity
  8
TEXT_LEADERS
100
AcDbText
 10
5.212144259999999
 20
5.043813499999999
 30
0.0
 40
0.125
  1

  7
ROMANS
100
AcDbText
  0
TEXT
  5
188
330
5AD
100
AcDbEntity
  8
TEXT_BUBBLES
100
AcDbText
 10
5.664285693916196
 20
5.32
 30
0.0
 40
0.125
  1
FINISH GRADE/TOP OF MULCH
  7
ROMANS
100
AcDbText
  0
TEXT
  5
18A
330
5AD
100
AcDbEntity
  8
TEXT_BUBBLES
100
AcDbText
 10
5.664285693916196
 20
4.794999999999999
 30
0.0
 40
0.125
  1
  RAIN BIRD US-400
  7
ROMANS
100
AcDbText
  0
TEXT
  5
18B
330
5AD
100
AcDbEntity
  8
TEXT_BUBBLES
100
AcDbText
 10
5.664285693916196
 20
4.969999999999999
 30
0.0
 40
0.125
  1
POP-UP SPRAY SPRINKLER:
  7
ROMANS
100
AcDbText
  0
TEXT
  5
190
330
5AD
100
AcDbEntity
  8
OPTION-NOZ-VAN
100
AcDbText
 10
5.664285693916196
 20
4.617983984247275
 30
0.0
 40
0.125
  1
  WITH VAN NOZZLE
  7
ROMANS
100
AcDbText
  0
TEXT
  5
191
330
5AD
100
AcDbEntity
  8
OPTION-NOZ-PLASTIC
100
AcDbText
 10
5.664285693916196
 20
4.617983984247275
 30
0.0
 40
0.125
  1
  WITH PLASTIC MPR NOZZLE
  7
ROMANS
100
AcDbText
  0
TEXT
  5
22F
330
5AD
100
AcDbEntity
  8
OPTION-NOZ-U-SERIES
100
AcDbText
 10
5.664285693916196
 20
4.617983984247275
 30
0.0
 40
0.125
  1
  WITH U-SERIES NOZZLE
  7
ROMANS
100
AcDbText
  0
TEXT
  5
3E9
330
5AD
100
AcDbEntity
  8
TEXT_LEADERS
100
AcDbText
 10
5.664285693916196
 20
4.969999999999999
 30
0.0
 40
0.125
  1
POP-UP SPRAY SPRINKLER:
  7
ROMANS
100
AcDbText
  0
TEXT
  5
3ED
330
5AD
100
AcDbEntity
  8
OPTION-SAM
100
AcDbText
 10
5.664285693916196
 20
4.794999999999999
 30
0.0
 40
0.125
  1
                 -SAM
  7
ROMANS
100
AcDbText
  0
CIRCLE
  5
516
330
5AD
100
AcDbEntity
  8
TEXT_BUBBLES
100
AcDbCircle
 10
0.7148040234009426
 20
4.727611429292699
 30
0.0
 40
0.15625
  0
TEXT
  5
517
330
5AD
100
AcDbEntity
  8
TEXT_BUBBLES
100
AcDbText
 10
0.6642087853057044
 20
4.665111429292699
 30
0.0
 40
0.125
  1
1
  7
ROMANS
 72
     4
 11
0.7148040234009426
 21
4.727611429292699
 31
0.0
100
AcDbText
  0
INSERT
  5
65D
330
5AD
100
AcDbEntity
  8
TITLE
100
AcDbBlockReference
 66
     1
  2
titleblock
 10
0.2563512241031129
 20
-1.583308965384857
 30
0.0
  0
ATTRIB
  5
65E
330
65D
100
AcDbEntity
  8
TITLE
100
AcDbText
 10
0.761906827905455
 20
-0.7990818689064905
 30
0.0
 40
0.2
  1
D
  7
L200
 72
     4
 11
0.8627935946175968
 21
-0.6990818689064904
 31
0.0
100
AcDbAttribute
  2
D
 70
     0
  0
ATTRIB
  5
65F
330
65D
100
AcDbEntity
  8
TITLE
100
AcDbText
 10
1.487793594617597
 20
-0.239596662638107
 30
0.0
 40
0.2
  1

  7
L200
100
AcDbAttribute
  2
TITLE1
 70
     0
  0
ATTRIB
  5
660
330
65D
100
AcDbEntity
  8
TITLE
100
AcDbText
 10
1.487793594617597
 20
-0.5990818689064901
 30
0.0
 40
0.2
  1
POP-UP SPRAY SPRINKLER
  7
L200
100
AcDbAttribute
  2
TITLE2
 70
     0
  0
ATTRIB
  5
661
330
65D
100
AcDbEntity
  8
TITLE
100
AcDbText
 10
2.969996975271425
 20
-0.9905161989265387
 30
0.0
 40
0.2
  1
UNI-SPRAY SERIES US-400
  7
L200
100
AcDbAttribute
  2
TITLE3
 70
     0
  0
ATTRIB
  5
662
330
65D
100
AcDbEntity
  8
TITLE
100
AcDbText
 10
2.969996975271425
 20
-1.314052884568083
 30
0.0
 40
0.2
  1

  7
L200
100
AcDbAttribute
  2
TITLE4
 70
     0
  0
ATTRIB
  5
663
330
65D
100
AcDbEntity
  8
TITLE
 62
     7
100
AcDbText
 10
7.945947006450445
 20
-0.6137061738402176
 30
0.0
 40
0.08
  1
4-13-04
  7
L80
 72
     2
 11
8.517375577879017
 21
-0.6137061738402176
 31
0.0
100
AcDbAttribute
  2
REVISED
 70
     0
  0
ATTRIB
  5
664
330
65D
100
AcDbEntity
  8
TITLE
 62
     7
100
AcDbText
 10
0.5202935946175968
 20
-1.498597317364136
 30
0.0
 40
0.08
  1
S-US-400-SJ.DWG
  7
L80
100
AcDbAttribute
  2
DWG-NAME
 70
     0
  0
ATTRIB
  5
665
330
65D
100
AcDbEntity
  8
TITLE
 62
     7
100
AcDbText
 10
1.487793594617597
 20
-0.8827451859893681
 30
0.0
 40
0.1
  1
N.T.S.
  7
L100
100
AcDbAttribute
  2
SCALE
 70
     0
  0
SEQEND
  5
666
330
65D
100
AcDbEntity
  8
INSTRUCT-OPTION
  0
LWPOLYLINE
  5
667
330
5AD
100
AcDbEntity
  8
INSTRUCT-OPTION
100
AcDbPolyline
 90
        4
 70
     1
 43
0.0
 10
11.43601635951304
 20
6.115057845390067
 10
16.60299089650124
 20
6.115057845390065
 10
16.60299089650124
 20
3.732049652088321
 10
11.43601635951304
 20
3.732049652088321
  0
TEXT
  5
668
330
5AD
100
AcDbEntity
  8
INSTRUCT-OPTION
100
AcDbText
 10
11.57223957450452
 20
3.368297423849055
 30
0.0
 40
0.125
  1
LAYER "INSTRUCT-OPTION".
  7
ROMANS
100
AcDbText
  0
TEXT
  5
669
330
5AD
100
AcDbEntity
  8
INSTRUCT-OPTION
100
AcDbText
 10
11.57223957450452
 20
3.543297423849056
 30
0.0
 40
0.125
  1
TO TURN OFF THIS INSTRUCTION BOX, TURN OFF
  7
ROMANS
100
AcDbText
  0
TEXT
  5
66A
330
5AD
100
AcDbEntity
  8
INSTRUCT-CALLOUT
100
AcDbText
 10
11.76305289959563
 20
6.918231586262894
 30
0.0
 40
0.125
  1
TO TURN OFF THIS INSTRUCTION BOX, TURN OFF
  7
ROMANS
100
AcDbText
  0
TEXT
  5
66B
330
5AD
100
AcDbEntity
  8
INSTRUCT-CALLOUT
100
AcDbText
 10
11.76305289959563
 20
6.743231586262893
 30
0.0
 40
0.125
  1
LAYER "INSTRUCT-CALLOUT".
  7
ROMANS
100
AcDbText
  0
TEXT
  5
66C
330
5AD
100
AcDbEntity
  8
INSTRUCT-CALLOUT
100
AcDbText
 10
12.72757987179101
 20
7.422538940490895
 30
0.0
 40
0.125
  1
ITEM 1
  7
ROMANS
100
AcDbText
  0
SOLID
  5
66D
330
5AD
100
AcDbEntity
  8
INSTRUCT-CALLOUT
100
AcDbTrace
 10
12.36295217197725
 20
7.370576173940403
 30
0.0
 11
12.33990028708552
 21
7.425971215261249
 31
0.0
 12
12.18524110556885
 22
7.329118039925628
 32
0.0
 13
12.18524110556885
 23
7.329118039925628
 33
0.0
  0
LINE
  5
66E
330
5AD
100
AcDbEntity
  8
INSTRUCT-CALLOUT
100
AcDbLine
 10
12.27756617443692
 20
7.367537848078516
 30
0.0
 11
12.56533658891525
 21
7.487289549884796
 31
0.0
  0
LINE
  5
66F
330
5AD
100
AcDbEntity
  8
INSTRUCT-CALLOUT
100
AcDbLine
 10
12.56533658891525
 20
7.487289549884796
 30
0.0
 11
12.70160513477388
 21
7.487289549884796
 31
0.0
  0
TEXT
  5
670
330
5AD
100
AcDbEntity
  8
INSTRUCT-CALLOUT
100
AcDbText
 10
11.76305289959563
 20
7.737789201739715
 30
0.0
 40
0.125
  1
TEXT_LEADERS         TEXT_BUBBLES
  7
ROMANS
100
AcDbText
  0
TEXT
  5
671
330
5AD
100
AcDbEntity
  8
INSTRUCT-CALLOUT
100
AcDbText
 10
11.76305289959563
 20
8.08778920173972
 30
0.0
 40
0.125
  1
BY TURNING ON THE APPROPRIATE LAYER:
  7
ROMANS
100
AcDbText
  0
TEXT
  5
672
330
5AD
100
AcDbEntity
  8
INSTRUCT-CALLOUT
100
AcDbText
 10
11.76305289959563
 20
8.262789201739717
 30
0.0
 40
0.125
  1
CHOOSE EITHER LEADERS OR BUBBLE CALLOUTS
  7
ROMANS
100
AcDbText
  0
TEXT
  5
673
330
5AD
100
AcDbEntity
  8
INSTRUCT-CALLOUT
100
AcDbText
 10
11.76305289959563
 20
8.612789201739719
 30
0.0
 40
0.125
  1
CHOOSING EQUIPMENT CALLOUT METHOD
  7
ROMANS
100
AcDbText
  0
LWPOLYLINE
  5
674
330
5AD
100
AcDbEntity
  8
INSTRUCT-CALLOUT
100
AcDbPolyline
 90
        4
 70
     1
 43
0.0
 10
11.72402555380034
 20
8.555673714306269
 10
11.72402555380034
 20
7.124187692964024
 10
16.60299089650124
 20
7.124187692964024
 10
16.60299089650124
 20
8.555673714306269
  0
CIRCLE
  5
675
330
5AD
100
AcDbEntity
  8
INSTRUCT-CALLOUT
100
AcDbCircle
 10
14.84276201713427
 20
7.44500172736836
 30
0.0
 40
0.15625
  0
TEXT
  5
676
330
5AD
100
AcDbEntity
  8
INSTRUCT-CALLOUT
100
AcDbText
 10
14.79216677903904
 20
7.38250172736836
 30
0.0
 40
0.125
  1
1
  7
ROMANS
 72
     4
 11
14.84276201713427
 21
7.44500172736836
 31
0.0
100
AcDbText
  0
LINE
  5
677
330
5AD
100
AcDbEntity
  8
INSTRUCT-CALLOUT
100
AcDbLine
 10
14.43614708923488
 20
7.333991649512235
 30
0.0
 11
14.69202850615972
 21
7.403849920976853
 31
0.0
  0
SOLID
  5
678
330
5AD
100
AcDbEntity
  8
INSTRUCT-CALLOUT
100
AcDbTrace
 10
14.50542150002668
 20
7.3840022084918
 30
0.0
 11
14.52122379368101
 21
7.326120540277571
 31
0.0
 12
14.33967764221116
 22
7.307654493421667
 32
0.0
 13
14.33967764221116
 23
7.307654493421667
 33
0.0
  0
TEXT
  5
679
330
5AD
100
AcDbEntity
  8
INSTRUCT-OPTION
100
AcDbText
 10
11.57223957450452
 20
4.281656773608013
 30
0.0
 40
0.125
  1
%%uSAM OPTION%%u
  7
ROMANS
100
AcDbText
  0
TEXT
  5
67A
330
5AD
100
AcDbEntity
  8
INSTRUCT-OPTION
100
AcDbText
 10
11.57223957450452
 20
3.931656773608011
 30
0.0
 40
0.125
  1
  OPTION-SAM
  7
ROMANS
100
AcDbText
  0
TEXT
  5
67B
330
5AD
100
AcDbEntity
  8
INSTRUCT-OPTION
100
AcDbText
 10
11.57223957450452
 20
4.888200377156289
 30
0.0
 40
0.125
  1
  OPTION-NOZ-VAN
  7
ROMANS
100
AcDbText
  0
TEXT
  5
67C
330
5AD
100
AcDbEntity
  8
INSTRUCT-OPTION
100
AcDbText
 10
11.75995134584589
 20
6.179269968265868
 30
0.0
 40
0.125
  1
CHOOSING NOZZLES AND OPTIONAL FEATURES
  7
ROMANS
100
AcDbText
  0
TEXT
  5
67D
330
5AD
100
AcDbEntity
  8
INSTRUCT-OPTION
100
AcDbText
 10
11.57223957450452
 20
5.06320037715629
 30
0.0
 40
0.125
  1
  OPTION-NOZ-U-SERIES
  7
ROMANS
100
AcDbText
  0
TEXT
  5
67E
330
5AD
100
AcDbEntity
  8
INSTRUCT-OPTION
100
AcDbText
 10
11.57223957450452
 20
5.238200377156291
 30
0.0
 40
0.125
  1
  OPTION-NOZ-PLASTIC
  7
ROMANS
100
AcDbText
  0
TEXT
  5
67F
330
5AD
100
AcDbEntity
  8
INSTRUCT-OPTION
100
AcDbText
 10
11.57223957450452
 20
5.504453793964804
 30
0.0
 40
0.125
  1
BY TURNING ON THE APPROPRIATE LAYER:
  7
ROMANS
100
AcDbText
  0
TEXT
  5
680
330
5AD
100
AcDbEntity
  8
INSTRUCT-OPTION
100
AcDbText
 10
11.57223957450452
 20
5.679453793964805
 30
0.0
 40
0.125
  1
CHOOSE ONE OF THE FOLLOWING NOZZLES
  7
ROMANS
100
AcDbText
  0
TEXT
  5
681
330
5AD
100
AcDbEntity
  8
INSTRUCT-OPTION
100
AcDbText
 10
11.57223957450452
 20
5.854453793964804
 30
0.0
 40
0.125
  1
%%uNOZZLES  AND OTHER OPTIONAL FEATURES%%u
  7
ROMANS
100
AcDbText
  0
LEADER
  5
96E
330
5AD
100
AcDbEntity
  8
TEXT_LEADERS
100
AcDbLeader
  3
STANDARD
 76
     3
 10
2.520114994785275
 20
3.566943360991482
 30
0.0
 10
5.230129876592516
 20
4.262770108563447
 30
0.0
 10
5.627053985186761
 20
4.262770108563447
 30
0.0
1001
ACAD
1000
DSTYLE
1002
{
1070
   147
1040
0.09
1070
    77
1070
     0
1002
}
  0
LEADER
  5
96F
330
5AD
100
AcDbEntity
  8
TEXT_LEADERS
100
AcDbLeader
  3
STANDARD
 76
     3
 10
2.538012450109782
 20
3.374501902595593
 30
0.0
 10
5.236775916040895
 20
3.738020216497674
 30
0.0
 10
5.620407945738382
 20
3.738020216497674
 30
0.0
1001
ACAD
1000
DSTYLE
1002
{
1070
   147
1040
0.09
1070
    77
1070
     0
1002
}
  0
LEADER
  5
970
330
5AD
100
AcDbEntity
  8
TEXT_LEADERS
100
AcDbLeader
  3
STANDARD
 76
     3
 10
2.731962129077484
 20
3.309527324075011
 30
0.0
 10
4.988677071026139
 20
3.392615216823517
 30
0.0
 10
5.620407945738382
 20
3.392615216823517
 30
0.0
1001
ACAD
1000
DSTYLE
1002
{
1070
   147
1040
0.09
1070
    77
1070
     0
1002
}
  0
LEADER
  5
971
330
5AD
100
AcDbEntity
  8
TEXT_LEADERS
100
AcDbLeader
  3
STANDARD
 76
     3
 10
3.260083309463901
 20
2.984472229765526
 30
0.0
 10
5.230129876592516
 20
1.474761130749654
 30
0.0
 10
5.620407945738382
 20
1.474761130749654
 30
0.0
1001
ACAD
1000
DSTYLE
1002
{
1070
   147
1040
0.09
1070
    77
1070
     0
1002
}
  0
LEADER
  5
972
330
5AD
100
AcDbEntity
  8
TEXT_LEADERS
100
AcDbLeader
  3
STANDARD
 76
     3
 10
4.552786291813447
 20
2.732304050660582
 30
0.0
 10
5.230129876592516
 20
2.518750542571228
 30
0.0
 10
5.620407945738382
 20
2.518750542571228
 30
0.0
1001
ACAD
1000
DSTYLE
1002
{
1070
   147
1040
0.09
1070
    77
1070
     0
1002
}
  0
LEADER
  5
973
330
5AD
100
AcDbEntity
  8
TEXT_LEADERS
100
AcDbLeader
  3
STANDARD
 76
     3
 10
3.736152150312316
 20
2.758485769948626
 30
0.0
 10
5.230129876592516
 20
1.818912464681199
 30
0.0
 10
5.620407945738382
 20
1.818912464681199
 30
0.0
1001
ACAD
1000
DSTYLE
1002
{
1070
   147
1040
0.09
1070
    77
1070
     0
1002
}
  0
LEADER
  5
974
330
5AD
100
AcDbEntity
  8
TEXT_LEADERS
100
AcDbLeader
  3
STANDARD
 76
     3
 10
4.272207299393074
 20
2.801884321830562
 30
0.0
 10
5.230129876592516
 20
2.159527856671665
 30
0.0
 10
5.620407945738382
 20
2.159527856671665
 30
0.0
1001
ACAD
1000
DSTYLE
1002
{
1070
   147
1040
0.09
1070
    77
1070
     0
1002
}
  0
TEXT
  5
975
330
5AD
100
AcDbEntity
  8
TEXT_LEADERS
100
AcDbText
 10
5.664285693916196
 20
1.756401908212094
 30
0.0
 40
0.125
  1
PVC LATERAL PIPE
  7
ROMANS
100
AcDbText
  0
TEXT
  5
976
330
5AD
100
AcDbEntity
  8
TEXT_LEADERS
100
AcDbText
 10
5.664285693916196
 20
2.106401908212092
 30
0.0
 40
0.125
  1
PVC SCH 40 STREET ELL
  7
ROMANS
100
AcDbText
  0
TEXT
  5
977
330
5AD
100
AcDbEntity
  8
TEXT_LEADERS
100
AcDbText
 10
5.664285693916196
 20
2.455337736422439
 30
0.0
 40
0.125
  1
PVC SCH 40 TEE OR ELL
  7
ROMANS
100
AcDbText
  0
TEXT
  5
978
330
5AD
100
AcDbEntity
  8
TEXT_LEADERS
100
AcDbText
 10
5.664285693916196
 20
1.230891109771947
 30
0.0
 40
0.125
  1
  (LENGTH AS REQUIRED)
  7
ROMANS
100
AcDbText
  0
TEXT
  5
979
330
5AD
100
AcDbEntity
  8
TEXT_LEADERS
100
AcDbText
 10
5.664285693916196
 20
3.330337736422439
 30
0.0
 40
0.125
  1
PVC SCH 40 STREET ELL
  7
ROMANS
100
AcDbText
  0
TEXT
  5
97A
330
5AD
100
AcDbEntity
  8
TEXT_LEADERS
100
AcDbText
 10
5.664285693916196
 20
4.205337736422439
 30
0.0
 40
0.125
  1
PVC SCH 80 NIPPLE
  7
ROMANS
100
AcDbText
  0
TEXT
  5
97B
330
5AD
100
AcDbEntity
  8
TEXT_LEADERS
100
AcDbText
 10
5.664285693916196
 20
1.405891109771947
 30
0.0
 40
0.125
  1
PVC SCH 80 NIPPLE
  7
ROMANS
100
AcDbText
  0
TEXT
  5
97C
330
5AD
100
AcDbEntity
  8
TEXT_BUBBLES
100
AcDbText
 10
5.670857223916194
 20
4.268409996338126
 30
0.0
 40
0.125
  1
PVC SCH 80 NIPPLE
  7
ROMANS
100
AcDbText
  0
TEXT
  5
97D
330
5AD
100
AcDbEntity
  8
TEXT_BUBBLES
100
AcDbText
 10
5.670857223916194
 20
4.093409996338126
 30
0.0
 40
0.125
  1
  (LENGTH AS REQUIRED)
  7
ROMANS
100
AcDbText
  0
CIRCLE
  5
97E
330
5AD
100
AcDbEntity
  8
TEXT_BUBBLES
100
AcDbCircle
 10
5.445705843617404
 20
4.329613364815037
 30
0.0
 40
0.1562500000000002
  0
TEXT
  5
97F
330
5AD
100
AcDbEntity
  8
TEXT_BUBBLES
100
AcDbText
 10
5.386182034093595
 20
4.267113364815037
 30
0.0
 40
0.125
  1
3
  7
ROMANS
 72
     4
 11
5.445705843617404
 21
4.329613364815037
 31
0.0
100
AcDbText
  0
TEXT
  5
980
330
5AD
100
AcDbEntity
  8
TEXT_BUBBLES
100
AcDbText
 10
5.386182034093595
 20
2.685110010679228
 30
0.0
 40
0.125
  1
7
  7
ROMANS
 72
     4
 11
5.445705843617404
 21
2.747610010679228
 31
0.0
100
AcDbText
  0
CIRCLE
  5
981
330
5AD
100
AcDbEntity
  8
TEXT_BUBBLES
100
AcDbCircle
 10
5.445705843617404
 20
2.747610010679228
 30
0.0
 40
0.1562500000000002
  0
CIRCLE
  5
982
330
5AD
100
AcDbEntity
  8
TEXT_BUBBLES
100
AcDbCircle
 10
5.445705843617404
 20
3.09208766491
 30
0.0
 40
0.1562500000000002
  0
TEXT
  5
983
330
5AD
100
AcDbEntity
  8
TEXT_BUBBLES
100
AcDbText
 10
5.383205843617404
 20
3.02958766491
 30
0.0
 40
0.125
  1
6
  7
ROMANS
 72
     4
 11
5.445705843617404
 21
3.09208766491
 31
0.0
100
AcDbText
  0
TEXT
  5
984
330
5AD
100
AcDbEntity
  8
TEXT_BUBBLES
100
AcDbText
 10
5.386182034093595
 20
3.382951741905388
 30
0.0
 40
0.125
  1
5
  7
ROMANS
 72
     4
 11
5.445705843617404
 21
3.445451741905388
 31
0.0
100
AcDbText
  0
CIRCLE
  5
985
330
5AD
100
AcDbEntity
  8
TEXT_BUBBLES
100
AcDbCircle
 10
5.445705843617404
 20
3.445451741905388
 30
0.0
 40
0.1562500000000002
  0
CIRCLE
  5
986
330
5AD
100
AcDbEntity
  8
TEXT_BUBBLES
100
AcDbCircle
 10
5.445705843617404
 20
3.804010448441447
 30
0.0
 40
0.1562500000000002
  0
TEXT
  5
987
330
5AD
100
AcDbEntity
  8
TEXT_BUBBLES
100
AcDbText
 10
5.383205843617404
 20
3.741510448441447
 30
0.0
 40
0.125
  1
4
  7
ROMANS
 72
     4
 11
5.445705843617404
 21
3.804010448441447
 31
0.0
100
AcDbText
  0
CIRCLE
  5
988
330
5AD
100
AcDbEntity
  8
TEXT_BUBBLES
100
AcDbCircle
 10
4.936617442599807
 20
2.144176190656116
 30
0.0
 40
0.1562500000000002
  0
TEXT
  5
989
330
5AD
100
AcDbEntity
  8
TEXT_BUBBLES
100
AcDbText
 10
4.877093633075998
 20
2.081676190656116
 30
0.0
 40
0.125
  1
5
  7
ROMANS
 72
     4
 11
4.936617442599807
 21
2.144176190656116
 31
0.0
100
AcDbText
  0
TEXT
  5
98A
330
5AD
100
AcDbEntity
  8
TEXT_BUBBLES
100
AcDbText
 10
5.670857223916194
 20
3.043409996338125
 30
0.0
 40
0.125
  1
PVC LATERAL PIPE
  7
ROMANS
100
AcDbText
  0
TEXT
  5
98B
330
5AD
100
AcDbEntity
  8
TEXT_BUBBLES
100
AcDbText
 10
5.670857223916194
 20
2.693409996338125
 30
0.0
 40
0.125
  1
PVC SCH 40 TEE OR ELL
  7
ROMANS
100
AcDbText
  0
TEXT
  5
98C
330
5AD
100
AcDbEntity
  8
TEXT_BUBBLES
100
AcDbText
 10
5.670857223916194
 20
3.393409996338126
 30
0.0
 40
0.125
  1
PVC SCH 40 STREET ELL
  7
ROMANS
100
AcDbText
  0
TEXT
  5
98D
330
5AD
100
AcDbEntity
  8
TEXT_BUBBLES
100
AcDbText
 10
5.670857223916194
 20
3.743409996338126
 30
0.0
 40
0.125
  1
PVC SCH 40 ELL
  7
ROMANS
100
AcDbText
  0
TEXT
  5
98E
330
5AD
100
AcDbEntity
  8
TEXT_LEADERS
100
AcDbText
 10
5.664285693916196
 20
4.03033773642244
 30
0.0
 40
0.125
  1
  (LENGTH AS REQUIRED)
  7
ROMANS
100
AcDbText
  0
TEXT
  5
98F
330
5AD
100
AcDbEntity
  8
TEXT_LEADERS
100
AcDbText
 10
5.664285693916196
 20
3.680337736422439
 30
0.0
 40
0.125
  1
PVC SCH 40 ELL
  7
ROMANS
100
AcDbText
  0
LEADER
  5
990
330
5AD
100
AcDbEntity
  8
TEXT_BUBBLES
100
AcDbLeader
  3
STANDARD
 76
     2
 10
2.538012450109782
 20
3.374501902595591
 30
0.0
 10
4.347226396017641
 20
4.083848677777351
 30
0.0
  0
LEADER
  5
991
330
5AD
100
AcDbEntity
  8
TEXT_BUBBLES
100
AcDbLeader
  3
STANDARD
 76
     2
 10
2.731962129077484
 20
3.309527324075011
 30
0.0
 10
4.342530122869603
 20
3.748531788154946
 30
0.0
  0
LEADER
  5
992
330
5AD
100
AcDbEntity
  8
TEXT_BUBBLES
100
AcDbLeader
  3
STANDARD
 76
     2
 10
3.695535703462201
 20
3.094970814823653
 30
0.0
 10
4.350865456574348
 20
3.383593406316648
 30
0.0
  0
LEADER
  5
993
330
5AD
100
AcDbEntity
  8
TEXT_BUBBLES
100
AcDbLeader
  3
STANDARD
 76
     2
 10
4.55278629181345
 20
2.732304050660582
 30
0.0
 10
4.864956296257524
 20
2.28302410243339
 30
0.0
  0
LEADER
  5
994
330
5AD
100
AcDbEntity
  8
TEXT_BUBBLES
100
AcDbLeader
  3
STANDARD
 76
     2
 10
4.14450181058239
 20
2.784718580779378
 30
0.0
 10
4.496384531669374
 20
2.283461982692694
 30
0.0
  0
LEADER
  5
995
330
5AD
100
AcDbEntity
  8
TEXT_BUBBLES
100
AcDbLeader
  3
STANDARD
 76
     2
 10
3.286131292249381
 20
2.758485769948626
 30
0.0
 10
3.615358415913508
 20
2.267485780949641
 30
0.0
  0
LEADER
  5
996
330
5AD
100
AcDbEntity
  8
TEXT_BUBBLES
100
AcDbLeader
  3
STANDARD
 76
     2
 10
2.520114994785275
 20
3.587289285531241
 30
0.0
 10
4.37090008008967
 20
4.39792055624778
 30
0.0
  0
LWPOLYLINE
  5
997
330
5AD
100
AcDbEntity
  8
IMAGE
100
AcDbPolyline
 90
        4
 70
     0
 43
0.0
 10
4.997539085044518
 20
2.995185509849026
 42
-0.6332430429610296
 10
4.997539085044518
 20
2.877682408085101
 42
0.6332430429610812
 10
4.997539085044518
 20
2.760179306321175
 42
0.6134111328532366
 10
4.997539085044518
 20
2.877682408085098
 42
0.6134111328532366
  0
LINE
  5
998
330
5AD
100
AcDbEntity
  8
IMAGE
100
AcDbLine
 10
4.248040232667495
 20
2.987901938913136
 30
0.0
 11
4.26161240839006
 21
2.962283995135052
 31
0.0
  0
LINE
  5
999
330
5AD
100
AcDbEntity
  8
IMAGE
100
AcDbLine
 10
4.201968672081221
 20
2.772431125467415
 30
0.0
 11
4.226265875275647
 21
2.787320573887017
 31
0.0
  0
LINE
  5
99A
330
5AD
100
AcDbEntity
  8
IMAGE
100
AcDbLine
 10
4.55278629181345
 20
3.024144294833547
 30
0.0
 11
4.552786291813447
 21
2.732304050660582
 31
0.0
  0
LINE
  5
99B
330
5AD
100
AcDbEntity
  8
IMAGE
100
AcDbLine
 10
4.226265875275647
 20
2.787320573887015
 30
0.0
 11
4.26161240839006
 21
2.962283995135052
 31
0.0
  0
ARC
  5
99C
330
5AD
100
AcDbEntity
  8
IMAGE
100
AcDbCircle
 10
4.222435542386818
 20
2.879146493629011
 30
0.0
 40
0.0919057723241741
100
AcDbArc
 50
272.3885930691138
 51
64.76879059918144
  0
LINE
  5
99D
330
5AD
100
AcDbEntity
  8
IMAGE
100
AcDbLine
 10
4.248040232667499
 20
2.987901938913136
 30
0.0
 11
4.201968672081221
 21
2.772431125467415
 31
0.0
  0
LINE
  5
99E
330
5AD
100
AcDbEntity
  8
IMAGE
100
AcDbLine
 10
3.916297035062108
 20
3.047181459427402
 30
0.0
 11
3.875480119625741
 21
2.854390536676728
 31
0.0
  0
LWPOLYLINE
  5
99F
330
5AD
100
AcDbEntity
  8
IMAGE
100
AcDbPolyline
 90
        2
 70
     0
 43
0.0
 10
3.936130456305388
 20
3.028415246201886
 10
3.901269639292831
 20
2.863756819472639
  0
LINE
  5
9A0
330
5AD
100
AcDbEntity
  8
IMAGE
100
AcDbLine
 10
3.963885109338789
 20
3.048219695143016
 30
0.0
 11
3.917903465134624
 21
2.833169409149585
 31
0.0
  0
LINE
  5
9A1
330
5AD
100
AcDbEntity
  8
IMAGE
100
AcDbLine
 10
3.890643367011101
 20
2.850972601363721
 30
0.0
 11
3.890643367011104
 21
2.732304050660584
 31
0.0
  0
LINE
  5
9A2
330
5AD
100
AcDbEntity
  8
IMAGE
100
AcDbLine
 10
3.963885109338789
 20
3.048219695143016
 30
0.0
 11
4.248040232667495
 21
2.987901938913136
 31
0.0
  0
LINE
  5
9A3
330
5AD
100
AcDbEntity
  8
IMAGE
100
AcDbLine
 10
3.917903465134624
 20
2.833169409149585
 30
0.0
 11
4.201968672081221
 21
2.772431125467415
 31
0.0
  0
LINE
  5
9A4
330
5AD
100
AcDbEntity
  8
IMAGE
100
AcDbLine
 10
4.55278629181345
 20
2.732304050660582
 30
0.0
 11
3.890643367011104
 21
2.732304050660582
 31
0.0
  0
LINE
  5
9A5
330
5AD
100
AcDbEntity
  8
IMAGE
100
AcDbLine
 10
4.077303591254
 20
3.024144294833547
 30
0.0
 11
4.55278629181345
 21
3.024144294833549
 31
0.0
  0
LINE
  5
9A6
330
5AD
100
AcDbEntity
  8
IMAGE
100
AcDbLine
 10
4.997539085044518
 20
2.995185509849026
 30
0.0
 11
4.55278629181345
 21
2.995185509849026
 31
0.0
  0
LINE
  5
9A7
330
5AD
100
AcDbEntity
  8
IMAGE
100
AcDbLine
 10
4.997539085044518
 20
2.760179306321175
 30
0.0
 11
4.552786291813447
 21
2.760179306321175
 31
0.0
  0
LINE
  5
9A8
330
5AD
100
AcDbEntity
  8
IMAGE
100
AcDbLine
 10
3.92062907311357
 20
2.844624148787108
 30
0.0
 11
2.689007049716479
 21
3.105378188766373
 31
0.0
  0
LINE
  5
9A9
330
5AD
100
AcDbEntity
  8
IMAGE
100
AcDbLine
 10
3.96183362748367
 20
3.037332594839577
 30
0.0
 11
2.73021160408658
 21
3.298086634818844
 31
0.0
  0
LINE
  5
9AA
330
5AD
100
AcDbEntity
  8
IMAGE
100
AcDbLine
 10
3.890643367011104
 20
2.758485769948626
 30
0.0
 11
1.683900223156028
 21
2.758485769948626
 31
0.0
  0
TEXT
  5
9AB
330
5AD
100
AcDbEntity
  8
TEXT_BUBBLES
100
AcDbText
 10
4.430568901502786
 20
4.43645114186587
 30
0.0
 40
0.125
  1
3
  7
ROMANS
 72
     4
 11
4.490092711026595
 21
4.49895114186587
 31
0.0
100
AcDbText
  0
CIRCLE
  5
9AC
330
5AD
100
AcDbEntity
  8
TEXT_BUBBLES
100
AcDbCircle
 10
4.490092711026595
 20
4.49895114186587
 30
0.0
 40
0.1562500000000002
  0
CIRCLE
  5
9AD
330
5AD
100
AcDbEntity
  8
TEXT_BUBBLES
100
AcDbCircle
 10
3.711950690812692
 20
2.144668864648179
 30
0.0
 40
0.1562500000000002
  0
TEXT
  5
9AE
330
5AD
100
AcDbEntity
  8
TEXT_BUBBLES
100
AcDbText
 10
3.649450690812692
 20
2.082168864648179
 30
0.0
 40
0.125
  1
6
  7
ROMANS
 72
     4
 11
3.711950690812692
 21
2.144668864648179
 31
0.0
100
AcDbText
  0
TEXT
  5
9B1
330
5AD
100
AcDbEntity
  8
TEXT_BUBBLES
100
AcDbText
 10
4.430568901502786
 20
3.737406344857754
 30
0.0
 40
0.125
  1
5
  7
ROMANS
 72
     4
 11
4.490092711026595
 21
3.799906344857754
 31
0.0
100
AcDbText
  0
CIRCLE
  5
9B2
330
5AD
100
AcDbEntity
  8
TEXT_BUBBLES
100
AcDbCircle
 10
4.490092711026595
 20
3.799906344857754
 30
0.0
 40
0.1562500000000002
  0
CIRCLE
  5
9B3
330
5AD
100
AcDbEntity
  8
TEXT_BUBBLES
100
AcDbCircle
 10
4.490092711026595
 20
4.14712014477285
 30
0.0
 40
0.1562500000000002
  0
TEXT
  5
9B4
330
5AD
100
AcDbEntity
  8
TEXT_BUBBLES
100
AcDbText
 10
4.427592711026595
 20
4.08462014477285
 30
0.0
 40
0.125
  1
4
  7
ROMANS
 72
     4
 11
4.490092711026595
 21
4.14712014477285
 31
0.0
100
AcDbText
  0
TEXT
  5
9B5
330
5AD
100
AcDbEntity
  8
TEXT_BUBBLES
100
AcDbText
 10
4.508885250102232
 20
2.082302219702057
 30
0.0
 40
0.125
  1
7
  7
ROMANS
 72
     4
 11
4.568409059626041
 21
2.144802219702057
 31
0.0
100
AcDbText
  0
CIRCLE
  5
9B6
330
5AD
100
AcDbEntity
  8
TEXT_BUBBLES
100
AcDbCircle
 10
4.568409059626041
 20
2.144802219702057
 30
0.0
 40
0.1562500000000002
  0
LWPOLYLINE
  5
9B7
330
5AD
100
AcDbEntity
  8
IMAGE
100
AcDbPolyline
 90
        2
 70
     0
 43
0.0
 10
2.750721488320236
 20
3.280155316881643
 10
2.715860671307678
 20
3.115496890152394
  0
LINE
  5
9B8
330
5AD
100
AcDbEntity
  8
IMAGE
100
AcDbLine
 10
2.731962129077484
 20
3.309527324075011
 30
0.0
 11
2.686682025047733
 21
3.094328231863567
 31
0.0
  0
LINE
  5
9B9
330
5AD
100
AcDbEntity
  8
IMAGE
100
AcDbLine
 10
2.775934918805109
 20
3.289218964353274
 30
0.0
 11
2.735118003368741
 21
3.096428041602598
 31
0.0
  0
LINE
  5
9BA
330
5AD
100
AcDbEntity
  8
IMAGE
100
AcDbLine
 10
2.520114994785275
 20
3.676092023570584
 30
0.0
 11
2.520114994785275
 21
3.45204712785096
 31
0.0
  0
LINE
  5
9BB
330
5AD
100
AcDbEntity
  8
IMAGE
100
AcDbLine
 10
2.323050638594724
 20
3.676092023570584
 30
0.0
 11
2.323050638594724
 21
3.45204712785096
 31
0.0
  0
LWPOLYLINE
  5
9BC
330
5AD
100
AcDbEntity
  8
IMAGE
100
AcDbPolyline
 90
        2
 70
     0
 43
0.0
 10
2.337261112098095
 20
3.474769550232782
 10
2.505569383005184
 20
3.474769550232782
  0
LINE
  5
9BD
330
5AD
100
AcDbEntity
  8
IMAGE
100
AcDbLine
 10
2.323050638594724
 20
3.49904460372414
 30
0.0
 11
2.520114994785275
 21
3.49904460372414
 31
0.0
  0
LINE
  5
9BE
330
5AD
100
AcDbEntity
  8
IMAGE
100
AcDbLine
 10
2.306805227557843
 20
3.45204712785096
 30
0.0
 11
2.537857745147482
 21
3.45204712785096
 31
0.0
  0
ARC
  5
9BF
330
5AD
100
AcDbEntity
  8
IMAGE
100
AcDbCircle
 10
2.422033071883545
 20
3.267183232438808
 30
0.0
 40
0.1161934820703621
100
AcDbArc
 50
179.3791158729569
 51
0.2371380430744351
  0
LINE
  5
9C0
330
5AD
100
AcDbEntity
  8
IMAGE
100
AcDbLine
 10
2.306805227557843
 20
3.45204712785096
 30
0.0
 11
2.305839589813182
 21
3.267183232438808
 31
0.0
  0
LINE
  5
9C1
330
5AD
100
AcDbEntity
  8
IMAGE
100
AcDbLine
 10
2.537857745147483
 20
3.45204712785096
 30
0.0
 11
2.538226553953906
 21
3.267183232438808
 31
0.0
  0
LINE
  5
9C2
330
5AD
100
AcDbEntity
  8
IMAGE
100
AcDbLine
 10
2.686682025047733
 20
3.094328231863567
 30
0.0
 11
2.415936752558803
 21
3.15114978826719
 31
0.0
  0
LINE
  5
9C3
330
5AD
100
AcDbEntity
  8
IMAGE
100
AcDbLine
 10
2.731962129077484
 20
3.309527324075011
 30
0.0
 11
2.538067631315424
 21
3.350624563085965
 31
0.0
  0
LWPOLYLINE
  5
9C4
330
5AD
100
AcDbEntity
  8
IMAGE
100
AcDbPolyline
 90
        4
 70
     0
 43
0.0
 10
1.683900223156028
 20
2.993491973476476
 42
0.6332430429610296
 10
1.683900223156028
 20
2.875988871712552
 42
-0.6332430429610812
 10
1.683900223156028
 20
2.758485769948627
 42
-0.6134111328532366
 10
1.68390022315603
 20
2.875988871712552
 42
-0.6134111328532366
  0
LINE
  5
9C5
330
5AD
100
AcDbEntity
  8
IMAGE
100
AcDbLine
 10
3.217480268679986
 20
2.993491973476478
 30
0.0
 11
1.683900223156028
 21
2.993491973476478
 31
0.0
  0
LINE
  5
9C6
330
5AD
100
AcDbEntity
  8
IMAGE
100
AcDbLine
 10
2.323050638594724
 20
3.632340054458795
 30
0.0
 11
2.520114994785275
 21
3.632340054458795
 31
0.0
  0
LWPOLYLINE
  5
9C7
330
5AD
100
AcDbEntity
  8
IMAGE
100
AcDbPolyline
 90
        2
 70
     0
 43
0.0
 10
2.337261112098095
 20
3.655164595842656
 10
2.505569383005184
 20
3.655164595842656
  0
TEXT
  5
9D0
330
5AD
100
AcDbEntity
  8
TEXT_LEADERS
100
AcDbText
 10
5.414805829999999
 20
5.043813499999999
 30
0.0
 40
0.125
  1

  7
ROMANS
100
AcDbText
  0
CIRCLE
  5
9D7
330
5AD
100
AcDbEntity
  8
TEXT_BUBBLES
100
AcDbCircle
 10
4.490092711026595
 20
3.454514729751067
 30
0.0
 40
0.1562500000000002
  0
TEXT
  5
9D8
330
5AD
100
AcDbEntity
  8
TEXT_BUBBLES
100
AcDbText
 10
4.430568901502786
 20
3.392014729751067
 30
0.0
 40
0.125
  1
3
  7
ROMANS
 72
     4
 11
4.490092711026595
 21
3.454514729751067
 31
0.0
100
AcDbText
  0
TEXT
  5
9DD
330
5AD
100
AcDbEntity
  8
TEXT_LEADERS
100
AcDbText
 10
5.664285695236164
 20
5.32
 30
0.0
 40
0.125
  1
FINISH GRADE/TOP OF MULCH
  7
ROMANS
100
AcDbText
  0
TEXT
  5
9DE
330
5AD
100
AcDbEntity
  8
TEXT_LEADERS
100
AcDbText
 10
5.664285693916196
 20
4.794999999999999
 30
0.0
 40
0.125
  1
  RAIN BIRD US-400
  7
ROMANS
100
AcDbText
  0
LINE
  5
AF8
330
5AD
100
AcDbEntity
  8
IMAGE
100
AcDbLine
 10
2.383670194888933
 20
4.797627110748359
 30
0.0
 11
2.406204554687565
 21
4.797627110748359
 31
0.0
  0
LINE
  5
AF9
330
5AD
100
AcDbEntity
  8
IMAGE
100
AcDbLine
 10
2.337026053253079
 20
4.797627110748359
 30
0.0
 11
2.356238518971011
 21
4.797627110748359
 31
0.0
  0
LINE
  5
AFA
330
5AD
100
AcDbEntity
  8
IMAGE
100
AcDbLine
 10
2.296477844593876
 20
4.797627110748359
 30
0.0
 11
2.312382042365438
 21
4.797627110748359
 31
0.0
  0
LINE
  5
AFB
330
5AD
100
AcDbEntity
  8
IMAGE
100
AcDbLine
 10
2.264381879269048
 20
4.797627110748359
 30
0.0
 11
2.276008521395489
 21
4.797627110748359
 31
0.0
  0
LINE
  5
AFC
330
5AD
100
AcDbEntity
  8
IMAGE
100
AcDbLine
 10
2.590838807113152
 20
4.797627110748359
 30
0.0
 11
2.599475739429365
 21
4.797627110748359
 31
0.0
  0
LINE
  5
AFD
330
5AD
100
AcDbEntity
  8
IMAGE
100
AcDbLine
 10
2.566821973707787
 20
4.797627110748359
 30
0.0
 11
2.578448615834229
 21
4.797627110748359
 31
0.0
  0
LINE
  5
AFE
330
5AD
100
AcDbEntity
  8
IMAGE
100
AcDbLine
 10
2.530448452737839
 20
4.79762711074836
 30
0.0
 11
2.546352650509401
 21
4.797627110748359
 31
0.0
  0
LINE
  5
AFF
330
5AD
100
AcDbEntity
  8
IMAGE
100
AcDbLine
 10
2.486591976132267
 20
4.79762711074836
 30
0.0
 11
2.505804441850198
 21
4.79762711074836
 31
0.0
  0
LINE
  5
B00
330
5AD
100
AcDbEntity
  8
IMAGE
100
AcDbLine
 10
2.436625940415714
 20
4.797627110748359
 30
0.0
 11
2.459160300214344
 21
4.79762711074836
 31
0.0
  0
LINE
  5
B01
330
5AD
100
AcDbEntity
  8
IMAGE
100
AcDbLine
 10
2.421415247551639
 20
4.995929476976296
 30
0.0
 11
2.320010628457808
 21
4.995929476976297
 31
0.0
  0
LINE
  5
B02
330
5AD
100
AcDbEntity
  8
IMAGE
100
AcDbLine
 10
2.421415247551637
 20
4.995929476976296
 30
0.0
 11
2.52281986664547
 21
4.995929476976296
 31
0.0
  0
LINE
  5
B03
330
5AD
100
AcDbEntity
  8
IMAGE
100
AcDbLine
 10
2.599475739429367
 20
4.877624088033494
 30
0.0
 11
2.607323715890329
 21
4.877624088033494
 31
0.0
  0
LINE
  5
B04
330
5AD
100
AcDbEntity
  8
IMAGE
100
AcDbLine
 10
2.578448615834227
 20
4.877624088033494
 30
0.0
 11
2.590838807113151
 21
4.877624088033494
 31
0.0
  0
LINE
  5
B05
330
5AD
100
AcDbEntity
  8
IMAGE
100
AcDbLine
 10
2.588169510061494
 20
4.900158447832124
 30
0.0
 11
2.607323715890331
 21
4.877624088033493
 31
0.0
  0
LINE
  5
B06
330
5AD
100
AcDbEntity
  8
IMAGE
100
AcDbLine
 10
2.590838807113151
 20
4.882937202920813
 30
0.0
 11
2.599475739429365
 21
4.882937202920813
 31
0.0
  0
LINE
  5
B07
330
5AD
100
AcDbEntity
  8
IMAGE
100
AcDbLine
 10
2.546352650509401
 20
4.877624088033493
 30
0.0
 11
2.566821973707787
 21
4.877624088033493
 31
0.0
  0
LINE
  5
B08
330
5AD
100
AcDbEntity
  8
IMAGE
100
AcDbLine
 10
2.530448452737836
 20
4.882937202920816
 30
0.0
 11
2.546352650509399
 21
4.882937202920813
 31
0.0
  0
LINE
  5
B09
330
5AD
100
AcDbEntity
  8
IMAGE
100
AcDbLine
 10
2.566821973707787
 20
4.882937202920815
 30
0.0
 11
2.578448615834227
 21
4.882937202920814
 31
0.0
  0
LINE
  5
B0A
330
5AD
100
AcDbEntity
  8
IMAGE
100
AcDbLine
 10
2.54253743146927
 20
4.900158447832123
 30
0.0
 11
2.54253743146927
 21
4.986915733056846
 31
0.0
  0
LINE
  5
B0B
330
5AD
100
AcDbEntity
  8
IMAGE
100
AcDbLine
 10
2.54253743146927
 20
4.986915733056846
 30
0.0
 11
2.588169510061494
 21
4.900158447832124
 31
0.0
  0
LINE
  5
B0C
330
5AD
100
AcDbEntity
  8
IMAGE
100
AcDbLine
 10
2.607323715890329
 20
4.780726340899387
 30
0.0
 11
2.607323715890329
 21
4.877624088033492
 31
0.0
  0
LINE
  5
B0D
330
5AD
100
AcDbEntity
  8
IMAGE
100
AcDbLine
 10
2.599475739429365
 20
4.882937202920813
 30
0.0
 11
2.599475739429365
 21
4.797627110748359
 31
0.0
  0
LINE
  5
B0E
330
5AD
100
AcDbEntity
  8
IMAGE
100
AcDbLine
 10
2.590838807113151
 20
4.882937202920813
 30
0.0
 11
2.590838807113151
 21
4.797627110748359
 31
0.0
  0
LINE
  5
B0F
330
5AD
100
AcDbEntity
  8
IMAGE
100
AcDbLine
 10
2.530448452737838
 20
4.797627110748361
 30
0.0
 11
2.530448452737836
 21
4.882937202920816
 31
0.0
  0
LINE
  5
B10
330
5AD
100
AcDbEntity
  8
IMAGE
100
AcDbLine
 10
2.546352650509401
 20
4.797627110748361
 30
0.0
 11
2.546352650509399
 21
4.882937202920816
 31
0.0
  0
LINE
  5
B11
330
5AD
100
AcDbEntity
  8
IMAGE
100
AcDbLine
 10
2.566821973707787
 20
4.797627110748361
 30
0.0
 11
2.566821973707787
 21
4.882937202920817
 31
0.0
  0
LINE
  5
B12
330
5AD
100
AcDbEntity
  8
IMAGE
100
AcDbLine
 10
2.578448615834229
 20
4.797627110748361
 30
0.0
 11
2.578448615834227
 21
4.882937202920817
 31
0.0
  0
LINE
  5
B13
330
5AD
100
AcDbEntity
  8
IMAGE
100
AcDbLine
 10
2.486591976132265
 20
4.882937202920815
 30
0.0
 11
2.505804441850196
 21
4.882937202920813
 31
0.0
  0
LINE
  5
B14
330
5AD
100
AcDbEntity
  8
IMAGE
100
AcDbLine
 10
2.436625940415712
 20
4.882937202920813
 30
0.0
 11
2.459160300214342
 21
4.882937202920813
 31
0.0
  0
LINE
  5
B15
330
5AD
100
AcDbEntity
  8
IMAGE
100
AcDbLine
 10
2.459160300214344
 20
4.877624088033493
 30
0.0
 11
2.486591976132263
 21
4.877624088033494
 31
0.0
  0
LINE
  5
B16
330
5AD
100
AcDbEntity
  8
IMAGE
100
AcDbLine
 10
2.414654939612049
 20
4.900158447832122
 30
0.0
 11
2.414654939612049
 21
4.986915733056844
 31
0.0
  0
LINE
  5
B17
330
5AD
100
AcDbEntity
  8
IMAGE
100
AcDbLine
 10
2.428175555491227
 20
4.900158447832122
 30
0.0
 11
2.428175555491227
 21
4.986915733056844
 31
0.0
  0
LINE
  5
B18
330
5AD
100
AcDbEntity
  8
IMAGE
100
AcDbLine
 10
2.495529375529454
 20
4.986915733056845
 30
0.0
 11
2.495529375529455
 21
4.900158447832123
 31
0.0
  0
LINE
  5
B19
330
5AD
100
AcDbEntity
  8
IMAGE
100
AcDbLine
 10
2.406204554687564
 20
4.882937202920813
 30
0.0
 11
2.383670194888935
 21
4.882937202920813
 31
0.0
  0
LINE
  5
B1A
330
5AD
100
AcDbEntity
  8
IMAGE
100
AcDbLine
 10
2.356238518971013
 20
4.882937202920815
 30
0.0
 11
2.337026053253081
 21
4.882937202920813
 31
0.0
  0
LINE
  5
B1B
330
5AD
100
AcDbEntity
  8
IMAGE
100
AcDbLine
 10
2.337026053253079
 20
4.877624088033494
 30
0.0
 11
2.31238204236544
 21
4.877624088033493
 31
0.0
  0
LINE
  5
B1C
330
5AD
100
AcDbEntity
  8
IMAGE
100
AcDbLine
 10
2.383670194888933
 20
4.877624088033493
 30
0.0
 11
2.356238518971013
 21
4.877624088033494
 31
0.0
  0
LINE
  5
B1D
330
5AD
100
AcDbEntity
  8
IMAGE
100
AcDbLine
 10
2.347301119573824
 20
4.986915733056845
 30
0.0
 11
2.347301119573824
 21
4.900158447832123
 31
0.0
  0
LINE
  5
B1E
330
5AD
100
AcDbEntity
  8
IMAGE
100
AcDbLine
 10
2.347301119573824
 20
4.986915733056845
 30
0.0
 11
2.322894872362873
 21
4.900158447832123
 31
0.0
  0
LINE
  5
B1F
330
5AD
100
AcDbEntity
  8
IMAGE
100
AcDbLine
 10
2.341607386464831
 20
4.986915733056846
 30
0.0
 11
2.317201139253878
 21
4.900158447832123
 31
0.0
  0
LINE
  5
B20
330
5AD
100
AcDbEntity
  8
IMAGE
100
AcDbLine
 10
2.406204554687564
 20
4.877624088033493
 30
0.0
 11
2.436625940415714
 21
4.877624088033493
 31
0.0
  0
LINE
  5
B21
330
5AD
100
AcDbEntity
  8
IMAGE
100
AcDbLine
 10
2.436625940415714
 20
4.797627110748359
 30
0.0
 11
2.436625940415712
 21
4.882937202920814
 31
0.0
  0
LINE
  5
B22
330
5AD
100
AcDbEntity
  8
IMAGE
100
AcDbLine
 10
2.406204554687565
 20
4.797627110748359
 30
0.0
 11
2.406204554687565
 21
4.882937202920814
 31
0.0
  0
LINE
  5
B23
330
5AD
100
AcDbEntity
  8
IMAGE
100
AcDbLine
 10
2.459160300214344
 20
4.79762711074836
 30
0.0
 11
2.459160300214342
 21
4.882937202920814
 31
0.0
  0
LINE
  5
B24
330
5AD
100
AcDbEntity
  8
IMAGE
100
AcDbLine
 10
2.486591976132267
 20
4.79762711074836
 30
0.0
 11
2.486591976132265
 21
4.882937202920815
 31
0.0
  0
LINE
  5
B25
330
5AD
100
AcDbEntity
  8
IMAGE
100
AcDbLine
 10
2.505804441850198
 20
4.797627110748361
 30
0.0
 11
2.505804441850196
 21
4.882937202920815
 31
0.0
  0
LINE
  5
B26
330
5AD
100
AcDbEntity
  8
IMAGE
100
AcDbLine
 10
2.337026053253079
 20
4.797627110748361
 30
0.0
 11
2.337026053253081
 21
4.882937202920815
 31
0.0
  0
LINE
  5
B27
330
5AD
100
AcDbEntity
  8
IMAGE
100
AcDbLine
 10
2.356238518971011
 20
4.79762711074836
 30
0.0
 11
2.356238518971013
 21
4.882937202920815
 31
0.0
  0
LINE
  5
B28
330
5AD
100
AcDbEntity
  8
IMAGE
100
AcDbLine
 10
2.383670194888933
 20
4.79762711074836
 30
0.0
 11
2.383670194888935
 21
4.882937202920814
 31
0.0
  0
LINE
  5
B29
330
5AD
100
AcDbEntity
  8
IMAGE
100
AcDbLine
 10
2.312382042365438
 20
4.797627110748361
 30
0.0
 11
2.31238204236544
 21
4.882937202920816
 31
0.0
  0
LINE
  5
B2A
330
5AD
100
AcDbEntity
  8
IMAGE
100
AcDbLine
 10
2.505804441850196
 20
4.877624088033494
 30
0.0
 11
2.530448452737838
 21
4.877624088033493
 31
0.0
  0
LINE
  5
B2B
330
5AD
100
AcDbEntity
  8
IMAGE
100
AcDbLine
 10
2.421415247551639
 20
4.900158447832122
 30
0.0
 11
2.588169510061494
 21
4.900158447832124
 31
0.0
  0
LINE
  5
B2C
330
5AD
100
AcDbEntity
  8
IMAGE
100
AcDbLine
 10
2.421415247551637
 20
4.986915733056844
 30
0.0
 11
2.54253743146927
 21
4.986915733056845
 31
0.0
  0
LINE
  5
B2D
330
5AD
100
AcDbEntity
  8
IMAGE
100
AcDbLine
 10
2.501223108638448
 20
4.986915733056846
 30
0.0
 11
2.5256293558494
 21
4.900158447832123
 31
0.0
  0
LINE
  5
B2E
330
5AD
100
AcDbEntity
  8
IMAGE
100
AcDbLine
 10
2.495529375529454
 20
4.986915733056845
 30
0.0
 11
2.519935622740407
 21
4.900158447832123
 31
0.0
  0
LINE
  5
B2F
330
5AD
100
AcDbEntity
  8
IMAGE
100
AcDbLine
 10
2.320010628457808
 20
4.986915733056846
 30
0.0
 11
2.320010628457808
 21
4.995929476976297
 31
0.0
  0
LINE
  5
B30
330
5AD
100
AcDbEntity
  8
IMAGE
100
AcDbLine
 10
2.52281986664547
 20
4.995929476976296
 30
0.0
 11
2.52281986664547
 21
4.986915733056845
 31
0.0
  0
LINE
  5
B31
330
5AD
100
AcDbEntity
  8
IMAGE
100
AcDbLine
 10
2.296477844593876
 20
4.877624088033493
 30
0.0
 11
2.276008521395491
 21
4.877624088033493
 31
0.0
  0
LINE
  5
B32
330
5AD
100
AcDbEntity
  8
IMAGE
100
AcDbLine
 10
2.264381879269048
 20
4.877624088033494
 30
0.0
 11
2.251991687990125
 21
4.877624088033494
 31
0.0
  0
LINE
  5
B33
330
5AD
100
AcDbEntity
  8
IMAGE
100
AcDbLine
 10
2.276008521395491
 20
4.882937202920815
 30
0.0
 11
2.264381879269048
 21
4.882937202920814
 31
0.0
  0
LINE
  5
B34
330
5AD
100
AcDbEntity
  8
IMAGE
100
AcDbLine
 10
2.243354755673911
 20
4.877624088033494
 30
0.0
 11
2.235506779212947
 21
4.877624088033494
 31
0.0
  0
LINE
  5
B35
330
5AD
100
AcDbEntity
  8
IMAGE
100
AcDbLine
 10
2.251991687990125
 20
4.882937202920813
 30
0.0
 11
2.243354755673911
 21
4.882937202920813
 31
0.0
  0
LINE
  5
B36
330
5AD
100
AcDbEntity
  8
IMAGE
100
AcDbLine
 10
2.254660985041782
 20
4.900158447832124
 30
0.0
 11
2.235506779212947
 21
4.877624088033493
 31
0.0
  0
LINE
  5
B37
330
5AD
100
AcDbEntity
  8
IMAGE
100
AcDbLine
 10
2.300293063634006
 20
4.900158447832123
 30
0.0
 11
2.300293063634006
 21
4.986915733056846
 31
0.0
  0
LINE
  5
B38
330
5AD
100
AcDbEntity
  8
IMAGE
100
AcDbLine
 10
2.254660985041782
 20
4.900158447832124
 30
0.0
 11
2.300293063634006
 21
4.986915733056846
 31
0.0
  0
LINE
  5
B39
330
5AD
100
AcDbEntity
  8
IMAGE
100
AcDbLine
 10
2.235506779212947
 20
4.780726340899387
 30
0.0
 11
2.235506779212947
 21
4.877624088033493
 31
0.0
  0
LINE
  5
B3A
330
5AD
100
AcDbEntity
  8
IMAGE
100
AcDbLine
 10
2.264381879269048
 20
4.797627110748361
 30
0.0
 11
2.26438187926905
 21
4.882937202920817
 31
0.0
  0
LINE
  5
B3B
330
5AD
100
AcDbEntity
  8
IMAGE
100
AcDbLine
 10
2.276008521395489
 20
4.797627110748361
 30
0.0
 11
2.276008521395491
 21
4.882937202920817
 31
0.0
  0
LINE
  5
B3C
330
5AD
100
AcDbEntity
  8
IMAGE
100
AcDbLine
 10
2.296477844593876
 20
4.797627110748361
 30
0.0
 11
2.296477844593878
 21
4.882937202920816
 31
0.0
  0
LINE
  5
B3D
330
5AD
100
AcDbEntity
  8
IMAGE
100
AcDbLine
 10
2.251991687990125
 20
4.882937202920813
 30
0.0
 11
2.251991687990125
 21
4.797627110748359
 31
0.0
  0
LINE
  5
B3E
330
5AD
100
AcDbEntity
  8
IMAGE
100
AcDbLine
 10
2.243354755673911
 20
4.882937202920813
 30
0.0
 11
2.243354755673912
 21
4.797627110748359
 31
0.0
  0
LINE
  5
B3F
330
5AD
100
AcDbEntity
  8
IMAGE
100
AcDbLine
 10
2.235506779212947
 20
4.780726340899387
 30
0.0
 11
2.607323715890329
 21
4.780726340899387
 31
0.0
  0
LINE
  5
B40
330
5AD
100
AcDbEntity
  8
IMAGE
100
AcDbLine
 10
2.243354755673912
 20
4.797627110748359
 30
0.0
 11
2.251991687990127
 21
4.797627110748359
 31
0.0
  0
LINE
  5
B41
330
5AD
100
AcDbEntity
  8
IMAGE
100
AcDbLine
 10
2.421415247551639
 20
4.900158447832122
 30
0.0
 11
2.254660985041782
 21
4.900158447832124
 31
0.0
  0
LINE
  5
B42
330
5AD
100
AcDbEntity
  8
IMAGE
100
AcDbLine
 10
2.31238204236544
 20
4.882937202920816
 30
0.0
 11
2.296477844593878
 21
4.882937202920813
 31
0.0
  0
LINE
  5
B43
330
5AD
100
AcDbEntity
  8
IMAGE
100
AcDbLine
 10
2.421415247551639
 20
4.986915733056844
 30
0.0
 11
2.300293063634006
 21
4.986915733056846
 31
0.0
  0
LINE
  5
B44
330
5AD
100
AcDbEntity
  8
IMAGE
100
AcDbLine
 10
2.277758703835377
 20
3.800481689659017
 30
0.0
 11
2.272688472880686
 21
4.780726340899387
 31
0.0
  0
LINE
  5
B45
330
5AD
100
AcDbEntity
  8
IMAGE
100
AcDbLine
 10
2.5650717912679
 20
3.800481689659017
 30
0.0
 11
2.570142022222592
 21
4.780726340899387
 31
0.0
  0
LINE
  5
B46
330
5AD
100
AcDbEntity
  8
IMAGE
100
AcDbLine
 10
2.430992350466057
 20
3.791467945739566
 30
0.0
 11
2.56112827830314
 21
3.791467945739566
 31
0.0
  0
LINE
  5
B47
330
5AD
100
AcDbEntity
  8
IMAGE
100
AcDbLine
 10
2.411838144637221
 20
3.795434473766487
 30
0.0
 11
2.430992350466056
 21
3.795434473766487
 31
0.0
  0
ARC
  5
B48
330
5AD
100
AcDbEntity
  8
IMAGE
100
AcDbCircle
 10
2.558655569804952
 20
3.79791927112829
 30
0.0
 40
0.006908971456607
100
AcDbArc
 50
290.9711737165132
 51
21.77007082216948
  0
LINE
  5
B49
330
5AD
100
AcDbEntity
  8
IMAGE
100
AcDbLine
 10
2.535664451730689
 20
3.676092023570585
 30
0.0
 11
2.535664451730689
 21
3.791467945739566
 31
0.0
  0
LINE
  5
B4A
330
5AD
100
AcDbEntity
  8
IMAGE
100
AcDbLine
 10
2.56112827830314
 20
3.696372947389351
 30
0.0
 11
2.563916707489876
 21
3.793441066482623
 31
0.0
  0
ARC
  5
B4B
330
5AD
100
AcDbEntity
  8
IMAGE
100
AcDbCircle
 10
2.284174925298326
 20
3.79791927112829
 30
0.0
 40
0.006908971456607
100
AcDbArc
 50
158.2299291778305
 51
249.0288262834867
  0
LINE
  5
B4C
330
5AD
100
AcDbEntity
  8
IMAGE
100
AcDbLine
 10
2.277758703835378
 20
3.800481689659018
 30
0.0
 11
2.5650717912679
 21
3.800481689659018
 31
0.0
  0
LINE
  5
B4D
330
5AD
100
AcDbEntity
  8
IMAGE
100
AcDbLine
 10
2.411838144637221
 20
3.676092023570585
 30
0.0
 11
2.411838144637221
 21
3.795434473766487
 31
0.0
  0
LINE
  5
B4E
330
5AD
100
AcDbEntity
  8
IMAGE
100
AcDbLine
 10
2.430992350466056
 20
3.676092023570585
 30
0.0
 11
2.430992350466056
 21
3.795434473766487
 31
0.0
  0
LINE
  5
B4F
330
5AD
100
AcDbEntity
  8
IMAGE
100
AcDbLine
 10
2.307166043372589
 20
3.676092023570585
 30
0.0
 11
2.281702216800137
 21
3.696372947389351
 31
0.0
  0
LINE
  5
B50
330
5AD
100
AcDbEntity
  8
IMAGE
100
AcDbLine
 10
2.535664451730689
 20
3.676092023570585
 30
0.0
 11
2.56112827830314
 21
3.696372947389351
 31
0.0
  0
LINE
  5
B51
330
5AD
100
AcDbEntity
  8
IMAGE
100
AcDbLine
 10
2.411838144637221
 20
3.696372947389351
 30
0.0
 11
2.430992350466056
 21
3.696372947389351
 31
0.0
  0
LINE
  5
B52
330
5AD
100
AcDbEntity
  8
IMAGE
100
AcDbLine
 10
2.281702216800137
 20
3.696372947389351
 30
0.0
 11
2.278913787613402
 21
3.793441066482623
 31
0.0
  0
LINE
  5
B53
330
5AD
100
AcDbEntity
  8
IMAGE
100
AcDbLine
 10
2.307166043372589
 20
3.676092023570585
 30
0.0
 11
2.307166043372589
 21
3.791467945739566
 31
0.0
  0
LINE
  5
B54
330
5AD
100
AcDbEntity
  8
IMAGE
100
AcDbLine
 10
2.281702216800137
 20
3.791467945739566
 30
0.0
 11
2.411838144637221
 21
3.791467945739566
 31
0.0
  0
LINE
  5
B55
330
5AD
100
AcDbEntity
  8
IMAGE
100
AcDbLine
 10
2.307166043372589
 20
3.676092023570585
 30
0.0
 11
2.53566445173069
 21
3.676092023570584
 31
0.0
  0
LINE
  5
B56
330
5AD
100
AcDbEntity
  8
IMAGE
100
AcDbLine
 10
3.108085868095074
 20
5.3054018719252
 30
0.0
 11
2.956160005672045
 21
4.986640192934846
 31
0.0
  0
LINE
  5
B57
330
5AD
100
AcDbEntity
  8
IMAGE
100
AcDbLine
 10
2.646021693415407
 20
5.327385435993491
 30
0.0
 11
2.646021693415407
 21
4.986640192934846
 31
0.0
  0
LINE
  5
B58
330
5AD
100
AcDbEntity
  8
IMAGE
100
AcDbLine
 10
2.756036973101037
 20
5.294410089891041
 30
0.0
 11
2.730366741174393
 21
4.986640192934856
 31
0.0
  0
LINE
  5
B59
330
5AD
100
AcDbEntity
  8
IMAGE
100
AcDbLine
 10
2.976067532472306
 20
5.316393653959348
 30
0.0
 11
2.896612052699354
 21
4.986640192934846
 31
0.0
  0
LINE
  5
B5A
330
5AD
100
AcDbEntity
  8
IMAGE
100
AcDbLine
 10
2.877456122349511
 20
5.270047644369464
 30
0.0
 11
2.904025570921504
 21
4.986640192934846
 31
0.0
  0
LINE
  5
B5B
330
5AD
100
AcDbEntity
  8
IMAGE
100
AcDbLine
 10
2.540608195714334
 20
5.288505065007003
 30
0.0
 11
2.577420984991428
 21
4.986640192934846
 31
0.0
  0
LINE
  5
B5C
330
5AD
100
AcDbEntity
  8
IMAGE
100
AcDbLine
 10
2.67442449533653
 20
5.24697586857253
 30
0.0
 11
2.745806858011379
 21
4.986640192934846
 31
0.0
  0
LINE
  5
B5D
330
5AD
100
AcDbEntity
  8
IMAGE
100
AcDbLine
 10
3.167024720598656
 20
5.3054018719252
 30
0.0
 11
3.01509885817563
 21
4.986640192934846
 31
0.0
  0
LINE
  5
B5E
330
5AD
100
AcDbEntity
  8
IMAGE
100
AcDbLine
 10
2.869983465447445
 20
5.272426525822744
 30
0.0
 11
2.938384269773729
 21
4.986640192934856
 31
0.0
  0
LINE
  5
B5F
330
5AD
100
AcDbEntity
  8
IMAGE
100
AcDbLine
 10
2.704960545918992
 20
5.327385435993491
 30
0.0
 11
2.704960545918992
 21
4.986640192934846
 31
0.0
  0
LINE
  5
B60
330
5AD
100
AcDbEntity
  8
IMAGE
100
AcDbLine
 10
2.561940682327668
 20
5.228459397686146
 30
0.0
 11
2.757429371615219
 21
4.986640192934846
 31
0.0
  0
LINE
  5
B61
330
5AD
100
AcDbEntity
  8
IMAGE
100
AcDbLine
 10
2.81497582560462
 20
5.294410089891041
 30
0.0
 11
2.789305593677975
 21
4.986640192934856
 31
0.0
  0
LINE
  5
B62
330
5AD
100
AcDbEntity
  8
IMAGE
100
AcDbLine
 10
3.035006384975888
 20
5.316393653959348
 30
0.0
 11
2.955550905202938
 21
4.986640192934846
 31
0.0
  0
LINE
  5
B63
330
5AD
100
AcDbEntity
  8
IMAGE
100
AcDbLine
 10
2.784121254593356
 20
5.274661999528838
 30
0.0
 11
2.85795093714354
 21
4.993186334806303
 31
0.0
  0
LINE
  5
B64
330
5AD
100
AcDbEntity
  8
IMAGE
100
AcDbLine
 10
2.599547048217916
 20
5.288505065007003
 30
0.0
 11
2.63635983749501
 21
4.986640192934846
 31
0.0
  0
LINE
  5
B65
330
5AD
100
AcDbEntity
  8
IMAGE
100
AcDbLine
 10
3.017330596706403
 20
5.272426525822744
 30
0.0
 11
3.085731401032688
 21
4.986640192934856
 31
0.0
  0
LINE
  5
B66
330
5AD
100
AcDbEntity
  8
IMAGE
100
AcDbLine
 10
2.85230767717795
 20
5.327385435993491
 30
0.0
 11
2.85230767717795
 21
4.986640192934846
 31
0.0
  0
LINE
  5
B67
330
5AD
100
AcDbEntity
  8
IMAGE
100
AcDbLine
 10
2.931468385852316
 20
5.274661999528838
 30
0.0
 11
3.005298068402498
 21
4.993186334806303
 31
0.0
  0
LINE
  5
B68
330
5AD
100
AcDbEntity
  8
IMAGE
100
AcDbLine
 10
3.21755840573425
 20
5.265433289210074
 30
0.0
 11
3.191186085816327
 21
4.986640192934846
 31
0.0
  0
LINE
  5
B69
330
5AD
100
AcDbEntity
  8
IMAGE
100
AcDbLine
 10
3.052278783886537
 20
5.327385435993491
 30
0.0
 11
3.052278783886537
 21
4.986640192934846
 31
0.0
  0
LINE
  5
B6A
330
5AD
100
AcDbEntity
  8
IMAGE
100
AcDbLine
 10
3.162294063572166
 20
5.294410089891041
 30
0.0
 11
3.136623831645521
 21
4.986640192934856
 31
0.0
  0
LINE
  5
B6B
330
5AD
100
AcDbEntity
  8
IMAGE
100
AcDbLine
 10
3.131439492560902
 20
5.274661999528838
 30
0.0
 11
3.205269175111085
 21
4.993186334806303
 31
0.0
  0
LINE
  5
B6C
330
5AD
100
AcDbEntity
  8
IMAGE
100
AcDbLine
 10
2.53566445173069
 20
3.676092023570585
 30
0.0
 11
2.42141524755164
 21
3.676092023570585
 31
0.0
  0
LINE
  5
B6D
330
5AD
100
AcDbEntity
  8
IMAGE
100
AcDbLine
 10
2.307166043372589
 20
3.676092023570585
 30
0.0
 11
2.42141524755164
 21
3.676092023570585
 31
0.0
  0
LINE
  5
B6E
330
5AD
100
AcDbEntity
  8
IMAGE
100
AcDbLine
 10
2.265855140327692
 20
5.3054018719252
 30
0.0
 11
2.113929277904664
 21
4.986640192934846
 31
0.0
  0
LINE
  5
B6F
330
5AD
100
AcDbEntity
  8
IMAGE
100
AcDbLine
 10
1.968813885176481
 20
5.272426525822744
 30
0.0
 11
2.037214689502764
 21
4.986640192934856
 31
0.0
  0
LINE
  5
B70
330
5AD
100
AcDbEntity
  8
IMAGE
100
AcDbLine
 10
1.803790965648026
 20
5.327385435993491
 30
0.0
 11
1.803790965648026
 21
4.986640192934846
 31
0.0
  0
LINE
  5
B71
330
5AD
100
AcDbEntity
  8
IMAGE
100
AcDbLine
 10
2.133836804704924
 20
5.316393653959348
 30
0.0
 11
2.054381324931972
 21
4.986640192934846
 31
0.0
  0
LINE
  5
B72
330
5AD
100
AcDbEntity
  8
IMAGE
100
AcDbLine
 10
1.882951674322391
 20
5.274661999528838
 30
0.0
 11
1.956781356872574
 21
4.993186334806303
 31
0.0
  0
LINE
  5
B73
330
5AD
100
AcDbEntity
  8
IMAGE
100
AcDbLine
 10
2.169041694204327
 20
5.265433289210074
 30
0.0
 11
2.142669374286405
 21
4.986640192934846
 31
0.0
  0
LINE
  5
B74
330
5AD
100
AcDbEntity
  8
IMAGE
100
AcDbLine
 10
1.634367434932155
 20
5.3054018719252
 30
0.0
 11
1.482441572509126
 21
4.986640192934846
 31
0.0
  0
LINE
  5
B75
330
5AD
100
AcDbEntity
  8
IMAGE
100
AcDbLine
 10
1.693306287435738
 20
5.3054018719252
 30
0.0
 11
1.541380425012711
 21
4.986640192934846
 31
0.0
  0
LINE
  5
B76
330
5AD
100
AcDbEntity
  8
IMAGE
100
AcDbLine
 10
1.561287951812969
 20
5.316393653959348
 30
0.0
 11
1.481832472040019
 21
4.986640192934846
 31
0.0
  0
LINE
  5
B77
330
5AD
100
AcDbEntity
  8
IMAGE
100
AcDbLine
 10
1.840653418694698
 20
5.3054018719252
 30
0.0
 11
1.688727556271669
 21
4.986640192934846
 31
0.0
  0
LINE
  5
B78
330
5AD
100
AcDbEntity
  8
IMAGE
100
AcDbLine
 10
1.543612163543484
 20
5.272426525822744
 30
0.0
 11
1.61201296786977
 21
4.986640192934856
 31
0.0
  0
LINE
  5
B79
330
5AD
100
AcDbEntity
  8
IMAGE
100
AcDbLine
 10
1.457749952689397
 20
5.274661999528838
 30
0.0
 11
1.531579635239579
 21
4.993186334806303
 31
0.0
  0
LINE
  5
B7A
330
5AD
100
AcDbEntity
  8
IMAGE
100
AcDbLine
 10
1.743839972571331
 20
5.265433289210074
 30
0.0
 11
1.717467652653408
 21
4.986640192934846
 31
0.0
  0
LINE
  5
B7B
330
5AD
100
AcDbEntity
  8
IMAGE
100
AcDbLine
 10
2.040624525403283
 20
5.3054018719252
 30
0.0
 11
1.888698662980256
 21
4.986640192934846
 31
0.0
  0
LINE
  5
B7C
330
5AD
100
AcDbEntity
  8
IMAGE
100
AcDbLine
 10
1.743583270252071
 20
5.272426525822744
 30
0.0
 11
1.811984074578356
 21
4.986640192934856
 31
0.0
  0
LINE
  5
B7D
330
5AD
100
AcDbEntity
  8
IMAGE
100
AcDbLine
 10
1.578560350723618
 20
5.327385435993491
 30
0.0
 11
1.578560350723618
 21
4.986640192934846
 31
0.0
  0
LINE
  5
B7E
330
5AD
100
AcDbEntity
  8
IMAGE
100
AcDbLine
 10
1.688575630409247
 20
5.294410089891041
 30
0.0
 11
1.662905398482602
 21
4.986640192934856
 31
0.0
  0
LINE
  5
B7F
330
5AD
100
AcDbEntity
  8
IMAGE
100
AcDbLine
 10
1.80999477965772
 20
5.270047644369464
 30
0.0
 11
1.836564228229714
 21
4.986640192934846
 31
0.0
  0
LINE
  5
B80
330
5AD
100
AcDbEntity
  8
IMAGE
100
AcDbLine
 10
1.657721059397983
 20
5.274661999528838
 30
0.0
 11
1.731550741948166
 21
4.993186334806303
 31
0.0
  0
LINE
  5
B81
330
5AD
100
AcDbEntity
  8
IMAGE
100
AcDbLine
 10
2.233985285449604
 20
5.270047644369464
 30
0.0
 11
2.260554734021599
 21
4.986640192934846
 31
0.0
  0
LINE
  5
B82
330
5AD
100
AcDbEntity
  8
IMAGE
100
AcDbLine
 10
2.117054759612313
 20
5.272426525822744
 30
0.0
 11
2.185455563938596
 21
4.986640192934856
 31
0.0
  0
LINE
  5
B83
330
5AD
100
AcDbEntity
  8
IMAGE
100
AcDbLine
 10
1.952031840083858
 20
5.327385435993491
 30
0.0
 11
1.952031840083858
 21
4.986640192934846
 31
0.0
  0
LINE
  5
B84
330
5AD
100
AcDbEntity
  8
IMAGE
100
AcDbLine
 10
1.809011976492535
 20
5.228459397686146
 30
0.0
 11
2.004500665780087
 21
4.986640192934846
 31
0.0
  0
LINE
  5
B85
330
5AD
100
AcDbEntity
  8
IMAGE
100
AcDbLine
 10
2.282077679140757
 20
5.316393653959348
 30
0.0
 11
2.202622199367806
 21
4.986640192934846
 31
0.0
  0
LINE
  5
B86
330
5AD
100
AcDbEntity
  8
IMAGE
100
AcDbLine
 10
2.183466269017961
 20
5.270047644369464
 30
0.0
 11
2.210035717589956
 21
4.986640192934846
 31
0.0
  0
LINE
  5
B87
330
5AD
100
AcDbEntity
  8
IMAGE
100
AcDbLine
 10
2.031192548758224
 20
5.274661999528838
 30
0.0
 11
2.105022231308407
 21
4.993186334806303
 31
0.0
  0
LINE
  5
B88
330
5AD
100
AcDbEntity
  8
IMAGE
100
AcDbLine
 10
1.846618342382783
 20
5.288505065007003
 30
0.0
 11
1.883431131659878
 21
4.986640192934846
 31
0.0
  0
LINE
  5
B89
330
5AD
100
AcDbEntity
  8
IMAGE
100
AcDbLine
 10
2.300293063634005
 20
4.986915733056845
 30
0.0
 11
1.451296235093746
 21
4.986915733056845
 31
0.0
  0
LINE
  5
B8A
330
5AD
100
AcDbEntity
  8
IMAGE
100
AcDbLine
 10
2.54253743146927
 20
4.986915733056845
 30
0.0
 11
3.398047883364532
 21
4.986915733056845
 31
0.0
  0
INSERT
  5
B8B
330
5AD
100
AcDbEntity
  8
IMAGE
  6
Continuous
100
AcDbBlockReference
  2
*X1
 10
0.0
 20
0.0000000000000009
 30
0.0
1001
ACAD
1000
HATCH
1002
{
1070
    19
1000
EARTH
1040
0.65
1040
0.7853981633974483
1000
R14_HATCH_DATA
1000
3D0
1011
1.0
1021
0.0000000000000009
1031
0.0
1011
0.0
1021
1.0
1031
0.0
1011
0.0
1021
0.0000000000000009
1031
1.0
1040
0.0
1010
0.0
1020
0.0
1030
1.0
1000
EARTH
1070
     0
1070
     0
1071
        2
1071
        1
1071
       17
1070
     1
1040
2.542537431469269
1040
4.986915733056844
1040
2.588169510061491
1040
4.900158447832122
1070
     1
1040
2.588169510061491
1040
4.900158447832122
1040
2.607323715890327
1040
4.877624088033491
1070
     1
1040
2.607323715890327
1040
4.877624088033491
1040
2.607323715890327
1040
4.780726340899385
1070
     1
1040
2.607323715890327
1040
4.780726340899385
1040
2.570142022222588
1040
4.780726340899385
1070
     1
1040
2.570142022222588
1040
4.780726340899385
1040
2.569686601956263
1040
4.730124089085503
1070
     1
1040
2.569686601956263
1040
4.730124089085503
1040
2.583732025832088
1040
4.713968917496204
1070
     1
1040
2.583732025832088
1040
4.713968917496204
1040
2.627859943676665
1040
4.711763310346169
1070
     1
1040
2.627859943676665
1040
4.711763310346169
1040
2.664633203797365
1040
4.738230485796373
1070
     1
1040
2.664633203797365
1040
4.738230485796373
1040
2.708761121641942
1040
4.755140079307638
1070
     1
1040
2.708761121641942
1040
4.755140079307638
1040
2.821287327819895
1040
4.78087204624393
1070
     1
1040
2.821287327819895
1040
4.78087204624393
1040
2.914691423915766
1040
4.777196040457772
1070
     1
1040
2.914691423915766
1040
4.777196040457772
1040
2.991179835745406
1040
4.790429628182875
1070
     1
1040
2.991179835745406
1040
4.790429628182875
1040
3.122092657734363
1040
4.74484728885478
1070
     1
1040
3.122092657734363
1040
4.74484728885478
1040
3.236089795457094
1040
4.765432869760497
1070
     1
1040
3.236089795457094
1040
4.765432869760497
1040
3.318889926838558
1040
4.889687559405414
1070
     1
1040
3.318889926838558
1040
4.889687559405414
1040
3.391534260009528
1040
4.986915733056844
1070
     1
1040
3.391534260009528
1040
4.986915733056844
1040
2.542537431469269
1040
4.986915733056844
1071
        0
1071
        1
1071
       17
1070
     1
1040
2.300293063634005
1040
4.986915733056844
1040
2.254660985041782
1040
4.900158447832122
1070
     1
1040
2.254660985041782
1040
4.900158447832122
1040
2.235506779212947
1040
4.877624088033491
1070
     1
1040
2.235506779212947
1040
4.877624088033491
1040
2.235506779212947
1040
4.780726340899385
1070
     1
1040
2.235506779212947
1040
4.780726340899385
1040
2.272688472880685
1040
4.780726340899385
1070
     1
1040
2.272688472880685
1040
4.780726340899385
1040
2.27314389314701
1040
4.730124089085503
1070
     1
1040
2.27314389314701
1040
4.730124089085503
1040
2.259098469271185
1040
4.713968917496204
1070
     1
1040
2.259098469271185
1040
4.713968917496204
1040
2.214970551426608
1040
4.711763310346169
1070
     1
1040
2.214970551426608
1040
4.711763310346169
1040
2.178197291305908
1040
4.738230485796373
1070
     1
1040
2.178197291305908
1040
4.738230485796373
1040
2.134069373461331
1040
4.755140079307638
1070
     1
1040
2.134069373461331
1040
4.755140079307638
1040
2.021543167283378
1040
4.78087204624393
1070
     1
1040
2.021543167283378
1040
4.78087204624393
1040
1.928139071187507
1040
4.777196040457772
1070
     1
1040
1.928139071187507
1040
4.777196040457772
1040
1.851650659357867
1040
4.790429628182875
1070
     1
1040
1.851650659357867
1040
4.790429628182875
1040
1.72073783736891
1040
4.74484728885478
1070
     1
1040
1.72073783736891
1040
4.74484728885478
1040
1.606740699646179
1040
4.765432869760497
1070
     1
1040
1.606740699646179
1040
4.765432869760497
1040
1.523940568264715
1040
4.889687559405414
1070
     1
1040
1.523940568264715
1040
4.889687559405414
1040
1.451296235093745
1040
4.986915733056844
1070
     1
1040
1.451296235093745
1040
4.986915733056844
1040
2.300293063634005
1040
4.986915733056844
1071
        0
1070
     0
1070
     1
1040
0.7853981633974483
1040
0.65
1070
     0
1070
     6
1040
0.7853981633974483
1040
-0.0000000000000013
1040
0.4168856562746388
1040
0.0
1040
0.2298097038856279
1070
     2
1040
0.1625
1040
-0.1625
1040
0.7853981633974483
1040
-0.0430893194785566
1040
0.4599749757531942
1040
0.0
1040
0.2298097038856279
1070
     2
1040
0.1625
1040
-0.1625
1040
0.7853981633974483
1040
-0.0861786389571118
1040
0.5030642952317493
1040
0.0
1040
0.2298097038856279
1070
     2
1040
0.1625
1040
-0.1625
1040
2.356194490192344
1040
-0.0861786389571118
1040
0.5317905082174529
1040
-0.2298097038856279
1040
0.0
1070
     2
1040
0.1625
1040
-0.1625
1040
2.356194490192344
1040
-0.0430893194785566
1040
0.5748798276960081
1040
-0.2298097038856279
1040
0.0
1070
     2
1040
0.1625
1040
-0.1625
1040
2.356194490192344
1040
-0.0000000000000013
1040
0.6179691471745632
1040
-0.2298097038856279
1040
0.0
1070
     2
1040
0.1625
1040
-0.1625
1071
        1
1040
-0.0000000000000013
1040
0.4168856562746388
1040
0.0
1002
}
  0
LINE
  5
B8C
330
5AD
100
AcDbEntity
  8
IMAGE
100
AcDbLine
 10
3.277509398810945
 20
5.327385435993491
 30
0.0
 11
3.277509398810945
 21
4.986640192934846
 31
0.0
  0
LINE
  5
B8D
330
5AD
100
AcDbEntity
  8
IMAGE
100
AcDbLine
 10
3.314371851857616
 20
5.3054018719252
 30
0.0
 11
3.162445989434588
 21
4.986640192934846
 31
0.0
  0
LINE
  5
B8E
330
5AD
100
AcDbEntity
  8
IMAGE
100
AcDbLine
 10
3.21730170341499
 20
5.272426525822744
 30
0.0
 11
3.285702507741275
 21
4.986640192934856
 31
0.0
  0
LINE
  5
B8F
330
5AD
100
AcDbEntity
  8
IMAGE
100
AcDbLine
 10
3.283713212820639
 20
5.270047644369464
 30
0.0
 11
3.310282661392633
 21
4.986640192934846
 31
0.0
  0
LINE
  5
B90
330
5AD
100
AcDbEntity
  8
IMAGE
100
AcDbLine
 10
3.320336775545702
 20
5.288505065007003
 30
0.0
 11
3.357149564822797
 21
4.986640192934846
 31
0.0
  0
LEADER
  5
B91
330
5AD
100
AcDbEntity
  8
TEXT_LEADERS
100
AcDbLeader
  3
STANDARD
 76
     3
 10
3.398047883364532
 20
4.986915733056845
 30
0.0
 10
5.230129876592516
 20
5.384690149324228
 30
0.0
 10
5.620407945738382
 20
5.384690149324228
 30
0.0
1001
ACAD
1000
DSTYLE
1002
{
1070
   147
1040
0.09
1070
    77
1070
     0
1002
}
  0
LEADER
  5
B92
330
5AD
100
AcDbEntity
  8
TEXT_LEADERS
100
AcDbLeader
  3
STANDARD
 76
     3
 10
2.567594346036852
 20
4.288175611656352
 30
0.0
 10
5.211642964917984
 20
5.030099972099177
 30
0.0
 10
5.620407945738382
 20
5.030099972099177
 30
0.0
1001
ACAD
1000
DSTYLE
1002
{
1070
   147
1040
0.09
1070
    77
1070
     0
1002
}
  0
LEADER
  5
B93
330
5AD
100
AcDbEntity
  8
TEXT_BUBBLES
100
AcDbLeader
  3
STANDARD
 76
     2
 10
1.451296235093746
 20
4.986915733056845
 30
0.0
 10
0.8710467767956412
 20
4.72610659985276
 30
0.0
  0
LEADER
  5
B94
330
5AD
100
AcDbEntity
  8
TEXT_BUBBLES
100
AcDbLeader
  3
STANDARD
 76
     2
 10
2.275658265720143
 20
4.206566391937647
 30
0.0
 10
0.8667254196802813
 20
4.306935827622327
 30
0.0
  0
TEXT
  5
BA3
330
5AD
100
AcDbEntity
  8
INSTRUCT-OPTION
100
AcDbText
 10
11.57223957450452
 20
4.676321032834771
 30
0.0
 40
0.125
  1
  OPTION-NOZ-ROTARY
  7
ROMANS
100
AcDbText
  0
TEXT
  5
BA6
330
5AD
100
AcDbEntity
  8
OPTION-NOZ-ROTARY
100
AcDbText
 10
5.664285693916196
 20
4.617983984247275
 30
0.0
 40
0.125
  1
  WITH RAIN BIRD ROTARY NOZZLE
  7
ROMANS
100
AcDbText
  0
ENDSEC
  0
SECTION
  2
OBJECTS
  0
DICTIONARY
  5
59B
330
0
100
AcDbDictionary
281
     1
  3
ACAD_GROUP
350
59C
  3
ACAD_LAYOUT
350
5A8
  3
ACAD_MLINESTYLE
350
5A5
  3
ACAD_PLOTSETTINGS
350
5A7
  3
ACAD_PLOTSTYLENAME
350
59D
  3
AcDbVariableDictionary
350
5D1
  0
DICTIONARY
  5
5ED
330
591
100
AcDbDictionary
280
     1
281
     1
  3
ACAD_LAYERFILTERS
360
688
  3
ACAD_LAYERSTATES
360
5EE
  0
DICTIONARY
  5
59C
102
{ACAD_REACTORS
330
59B
102
}
330
59B
100
AcDbDictionary
281
     1
  0
DICTIONARY
  5
5A8
102
{ACAD_REACTORS
330
59B
102
}
330
59B
100
AcDbDictionary
281
     1
  3
Layout1
350
5AC
  3
Model
350
5B0
  0
DICTIONARY
  5
5A5
102
{ACAD_REACTORS
330
59B
102
}
330
59B
100
AcDbDictionary
281
     1
  3
Standard
350
5A6
  0
DICTIONARY
  5
5A7
102
{ACAD_REACTORS
330
59B
102
}
330
59B
100
AcDbDictionary
281
     1
  0
ACDBDICTIONARYWDFLT
  5
59D
102
{ACAD_REACTORS
330
59B
102
}
330
59B
100
AcDbDictionary
281
     1
  3
Normal
350
59E
100
AcDbDictionaryWithDefault
340
59E
  0
DICTIONARY
  5
5D1
102
{ACAD_REACTORS
330
59B
102
}
330
59B
100
AcDbDictionary
281
     1
  3
DIMASSOC
350
5D4
  3
HIDETEXT
350
5D3
  3
SORTENTS
350
5D2
  0
DICTIONARY
  5
688
102
{ACAD_REACTORS
330
5ED
102
}
330
5ED
100
AcDbDictionary
280
     1
281
     1
  0
DICTIONARY
  5
5EE
102
{ACAD_REACTORS
330
5ED
102
}
330
5ED
100
AcDbDictionary
281
     1
  0
LAYOUT
  5
5AC
102
{ACAD_REACTORS
330
5A8
102
}
330
5A8
100
AcDbPlotSettings
  1

  2
S:\AutoCAD 2002\Plotters\1055B&WDraftShaded.pc3
  4

  6

 40
0.0
 41
0.0
 42
0.0
 43
0.0
 44
0.0
 45
0.0
 46
0.0
 47
0.0
 48
0.0
 49
0.0
140
0.0
141
0.0
142
1.0
143
1.0
 70
   688
 72
     0
 73
     0
 74
     5
  7
TRexLJ5Shaded2.ctb
 75
    16
147
1.0
148
0.0
149
0.0
100
AcDbLayout
  1
Layout1
 70
     1
 71
     1
 10
0.0
 20
0.0
 11
12.0
 21
9.0
 12
0.0
 22
0.0
 32
0.0
 14
1.000000000000000E+20
 24
1.000000000000000E+20
 34
1.000000000000000E+20
 15
-1.000000000000000E+20
 25
-1.000000000000000E+20
 35
-1.000000000000000E+20
146
0.0
 13
0.0
 23
0.0
 33
0.0
 16
1.0
 26
0.0
 36
0.0
 17
0.0
 27
1.0
 37
0.0
 76
     0
330
5A9
  0
LAYOUT
  5
5B0
102
{ACAD_REACTORS
330
5A8
102
}
330
5A8
100
AcDbPlotSettings
  1

  2
8500ColorShaded.pc3
  4
11x17
  6

 40
3.174999952316284
 41
3.174999952316284
 42
3.17498779296875
 43
3.17498779296875
 44
279.3999938964843
 45
431.8000183105469
 46
1.778
 47
0.0
 48
180360.052434
 49
80033.77936199999
140
180369.157473
141
80037.61796
142
1.0
143
0.9845414184875577
 70
 28340
 72
     0
 73
     1
 74
     1
  7
8500ColorShaded.ctb
 75
     0
147
1.015701301359357
148
-6.510108631436005
149
40.2324539488135
100
AcDbLayout
  1
Model
 70
     1
 71
     0
 10
0.0
 20
0.0
 11
12.0
 21
9.0
 12
0.0
 22
0.0
 32
0.0
 14
0.0
 24
0.0
 34
0.0
 15
0.0
 25
0.0
 35
0.0
146
0.0
 13
0.0
 23
0.0
 33
0.0
 16
1.0
 26
0.0
 36
0.0
 17
0.0
 27
1.0
 37
0.0
 76
     0
330
5AD
  0
MLINESTYLE
  5
5A6
102
{ACAD_REACTORS
330
5A5
102
}
330
5A5
100
AcDbMlineStyle
  2
STANDARD
 70
     0
  3

 62
   256
 51
90.0
 52
90.0
 71
     2
 49
0.5
 62
   256
  6
BYLAYER
 49
-0.5
 62
   256
  6
BYLAYER
  0
ACDBPLACEHOLDER
  5
59E
102
{ACAD_REACTORS
330
59D
102
}
330
59D
  0
DICTIONARYVAR
  5
5D4
102
{ACAD_REACTORS
330
5D1
102
}
330
5D1
100
DictionaryVariables
280
     0
  1
1
  0
DICTIONARYVAR
  5
5D3
102
{ACAD_REACTORS
330
5D1
102
}
330
5D1
100
DictionaryVariables
280
     0
  1
1
  0
DICTIONARYVAR
  5
5D2
102
{ACAD_REACTORS
330
5D1
102
}
330
5D1
100
DictionaryVariables
280
     0
  1
1
  0
ENDSEC
  0
EOF
