  0
SECTION
  2
HEADER
  9
$ACADVER
  1
AC1015
  9
$ACADMAINTVER
 70
    13
  9
$DWGCODEPAGE
  3
ANSI_1252
  9
$INSBASE
 10
0.0
 20
0.0
 30
0.0
  9
$EXTMIN
 10
-0.0916749879134358
 20
-0.097854729324645
 30
0.0
  9
$EXTMAX
 10
16.39832501208656
 20
10.34214527067535
 30
0.03
  9
$LIMMIN
 10
0.0
 20
0.0
  9
$LIMMAX
 10
12.0
 20
9.0
  9
$ORTHOMODE
 70
     1
  9
$REGENMODE
 70
     1
  9
$FILLMODE
 70
     1
  9
$QTEXTMODE
 70
     0
  9
$MIRRTEXT
 70
     0
  9
$LTSCALE
 40
1.0
  9
$ATTMODE
 70
     1
  9
$TEXTSIZE
 40
0.1
  9
$TRACEWID
 40
0.05
  9
$TEXTSTYLE
  7
SIMPLEX
  9
$CLAYER
  8
OPTION-NOZ-ROTARY
  9
$CELTYPE
  6
ByLayer
  9
$CECOLOR
 62
   256
  9
$CELTSCALE
 40
1.0
  9
$DISPSILH
 70
     0
  9
$DIMSCALE
 40
1.0
  9
$DIMASZ
 40
0.18
  9
$DIMEXO
 40
0.0625
  9
$DIMDLI
 40
0.38
  9
$DIMRND
 40
0.0
  9
$DIMDLE
 40
0.0
  9
$DIMEXE
 40
0.18
  9
$DIMTP
 40
0.0
  9
$DIMTM
 40
0.0
  9
$DIMTXT
 40
0.18
  9
$DIMCEN
 40
0.09
  9
$DIMTSZ
 40
0.0
  9
$DIMTOL
 70
     0
  9
$DIMLIM
 70
     0
  9
$DIMTIH
 70
     1
  9
$DIMTOH
 70
     1
  9
$DIMSE1
 70
     0
  9
$DIMSE2
 70
     0
  9
$DIMTAD
 70
     0
  9
$DIMZIN
 70
     0
  9
$DIMBLK
  1

  9
$DIMASO
 70
     1
  9
$DIMSHO
 70
     1
  9
$DIMPOST
  1

  9
$DIMAPOST
  1

  9
$DIMALT
 70
     0
  9
$DIMALTD
 70
     2
  9
$DIMALTF
 40
25.4
  9
$DIMLFAC
 40
1.0
  9
$DIMTOFL
 70
     0
  9
$DIMTVP
 40
0.0
  9
$DIMTIX
 70
     0
  9
$DIMSOXD
 70
     0
  9
$DIMSAH
 70
     0
  9
$DIMBLK1
  1

  9
$DIMBLK2
  1

  9
$DIMSTYLE
  2
STANDARD
  9
$DIMCLRD
 70
     0
  9
$DIMCLRE
 70
     0
  9
$DIMCLRT
 70
     0
  9
$DIMTFAC
 40
1.0
  9
$DIMGAP
 40
0.09
  9
$DIMJUST
 70
     0
  9
$DIMSD1
 70
     0
  9
$DIMSD2
 70
     0
  9
$DIMTOLJ
 70
     1
  9
$DIMTZIN
 70
     0
  9
$DIMALTZ
 70
     0
  9
$DIMALTTZ
 70
     0
  9
$DIMUPT
 70
     0
  9
$DIMDEC
 70
     4
  9
$DIMTDEC
 70
     4
  9
$DIMALTU
 70
     2
  9
$DIMALTTD
 70
     2
  9
$DIMTXSTY
  7
STANDARD
  9
$DIMAUNIT
 70
     0
  9
$DIMADEC
 70
     0
  9
$DIMALTRND
 40
0.0
  9
$DIMAZIN
 70
     0
  9
$DIMDSEP
 70
    46
  9
$DIMATFIT
 70
     3
  9
$DIMFRAC
 70
     0
  9
$DIMLDRBLK
  1

  9
$DIMLUNIT
 70
     2
  9
$DIMLWD
 70
    -2
  9
$DIMLWE
 70
    -2
  9
$DIMTMOVE
 70
     2
  9
$LUNITS
 70
     2
  9
$LUPREC
 70
     4
  9
$SKETCHINC
 40
0.1
  9
$FILLETRAD
 40
0.0
  9
$AUNITS
 70
     0
  9
$AUPREC
 70
     0
  9
$MENU
  1
ACAD
  9
$ELEVATION
 40
0.0
  9
$PELEVATION
 40
0.0
  9
$THICKNESS
 40
0.0
  9
$LIMCHECK
 70
     0
  9
$CHAMFERA
 40
0.0
  9
$CHAMFERB
 40
0.0
  9
$CHAMFERC
 40
0.0
  9
$CHAMFERD
 40
0.0
  9
$SKPOLY
 70
     0
  9
$TDCREATE
 40
2451471.427491794
  9
$TDUCREATE
 40
2451471.677491793
  9
$TDUPDATE
 40
2453109.620399629
  9
$TDUUPDATE
 40
2453109.870399629
  9
$TDINDWG
 40
0.3135535532
  9
$TDUSRTIMER
 40
0.3135535532
  9
$USRTIMER
 70
     1
  9
$ANGBASE
 50
0.0
  9
$ANGDIR
 70
     0
  9
$PDMODE
 70
     0
  9
$PDSIZE
 40
0.0
  9
$PLINEWID
 40
0.0
  9
$SPLFRAME
 70
     0
  9
$SPLINETYPE
 70
     6
  9
$SPLINESEGS
 70
     8
  9
$HANDSEED
  5
C10
  9
$SURFTAB1
 70
     6
  9
$SURFTAB2
 70
     6
  9
$SURFTYPE
 70
     6
  9
$SURFU
 70
     6
  9
$SURFV
 70
     6
  9
$UCSBASE
  2

  9
$UCSNAME
  2

  9
$UCSORG
 10
0.0
 20
0.0
 30
0.0
  9
$UCSXDIR
 10
1.0
 20
0.0
 30
0.0
  9
$UCSYDIR
 10
0.0
 20
1.0
 30
0.0
  9
$UCSORTHOREF
  2

  9
$UCSORTHOVIEW
 70
     0
  9
$UCSORGTOP
 10
0.0
 20
0.0
 30
0.0
  9
$UCSORGBOTTOM
 10
0.0
 20
0.0
 30
0.0
  9
$UCSORGLEFT
 10
0.0
 20
0.0
 30
0.0
  9
$UCSORGRIGHT
 10
0.0
 20
0.0
 30
0.0
  9
$UCSORGFRONT
 10
0.0
 20
0.0
 30
0.0
  9
$UCSORGBACK
 10
0.0
 20
0.0
 30
0.0
  9
$PUCSBASE
  2

  9
$PUCSNAME
  2

  9
$PUCSORG
 10
0.0
 20
0.0
 30
0.0
  9
$PUCSXDIR
 10
1.0
 20
0.0
 30
0.0
  9
$PUCSYDIR
 10
0.0
 20
1.0
 30
0.0
  9
$PUCSORTHOREF
  2

  9
$PUCSORTHOVIEW
 70
     0
  9
$PUCSORGTOP
 10
0.0
 20
0.0
 30
0.0
  9
$PUCSORGBOTTOM
 10
0.0
 20
0.0
 30
0.0
  9
$PUCSORGLEFT
 10
0.0
 20
0.0
 30
0.0
  9
$PUCSORGRIGHT
 10
0.0
 20
0.0
 30
0.0
  9
$PUCSORGFRONT
 10
0.0
 20
0.0
 30
0.0
  9
$PUCSORGBACK
 10
0.0
 20
0.0
 30
0.0
  9
$USERI1
 70
     0
  9
$USERI2
 70
     0
  9
$USERI3
 70
     0
  9
$USERI4
 70
     0
  9
$USERI5
 70
     0
  9
$USERR1
 40
0.0
  9
$USERR2
 40
0.0
  9
$USERR3
 40
0.0
  9
$USERR4
 40
0.0
  9
$USERR5
 40
0.0
  9
$WORLDVIEW
 70
     1
  9
$SHADEDGE
 70
     3
  9
$SHADEDIF
 70
    70
  9
$TILEMODE
 70
     1
  9
$MAXACTVP
 70
    16
  9
$PINSBASE
 10
0.0
 20
0.0
 30
0.0
  9
$PLIMCHECK
 70
     0
  9
$PEXTMIN
 10
1.000000000000000E+20
 20
1.000000000000000E+20
 30
1.000000000000000E+20
  9
$PEXTMAX
 10
-1.000000000000000E+20
 20
-1.000000000000000E+20
 30
-1.000000000000000E+20
  9
$PLIMMIN
 10
0.0
 20
0.0
  9
$PLIMMAX
 10
12.0
 20
9.0
  9
$UNITMODE
 70
     0
  9
$VISRETAIN
 70
     0
  9
$PLINEGEN
 70
     1
  9
$PSLTSCALE
 70
     1
  9
$TREEDEPTH
 70
  3020
  9
$CMLSTYLE
  2
Standard
  9
$CMLJUST
 70
     0
  9
$CMLSCALE
 40
1.0
  9
$PROXYGRAPHICS
 70
     1
  9
$MEASUREMENT
 70
     0
  9
$CELWEIGHT
370
    -1
  9
$ENDCAPS
280
     0
  9
$JOINSTYLE
280
     0
  9
$LWDISPLAY
290
     0
  9
$INSUNITS
 70
     0
  9
$HYPERLINKBASE
  1

  9
$STYLESHEET
  1
8500ColorShaded.ctb
  9
$XEDIT
290
     1
  9
$CEPSNTYPE
380
     0
  9
$PSTYLEMODE
290
     1
  9
$FINGERPRINTGUID
  2
{DFE79B52-4250-426E-9501-C259CDBF9C92}
  9
$VERSIONGUID
  2
{63A7EB0F-A2C9-41AA-BE33-C70E4F6542AE}
  9
$EXTNAMES
290
     1
  9
$PSVPSCALE
 40
0.0
  9
$OLESTARTUP
290
     1
  0
ENDSEC
  0
SECTION
  2
CLASSES
  0
CLASS
  1
ACDBDICTIONARYWDFLT
  2
AcDbDictionaryWithDefault
  3
AutoCAD 2000
 90
        0
280
     0
281
     0
  0
CLASS
  1
ACDBPLACEHOLDER
  2
AcDbPlaceHolder
  3
AutoCAD 2000
 90
        0
280
     0
281
     0
  0
CLASS
  1
LAYOUT
  2
AcDbLayout
  3
AutoCAD 2000
 90
        0
280
     0
281
     0
  0
CLASS
  1
DICTIONARYVAR
  2
AcDbDictionaryVar
  3
AutoCAD 2000
 90
        0
280
     0
281
     0
  0
ENDSEC
  0
SECTION
  2
TABLES
  0
TABLE
  2
VPORT
  5
4CA
330
0
100
AcDbSymbolTable
 70
     3
  0
VPORT
  5
C0F
330
4CA
100
AcDbSymbolTableRecord
100
AcDbViewportTableRecord
  2
*Active
 70
     0
 10
0.0
 20
0.0
 11
1.0
 21
1.0
 12
8.153325088876458
 22
5.122145319291876
 13
0.0
 23
0.0
 14
0.14
 24
0.14
 15
0.0
 25
0.0
 16
0.0
 26
0.0
 36
1.0
 17
0.0
 27
0.0
 37
0.0
 40
11.00791689450875
 41
1.505548705302095
 42
50.0
 43
0.0
 44
0.0
 50
0.0
 51
0.0
 71
     0
 72
  5000
 73
     1
 74
     1
 75
     0
 76
     0
 77
     0
 78
     0
281
     0
 65
     1
110
0.0
120
0.0
130
0.0
111
1.0
121
0.0
131
0.0
112
0.0
122
1.0
132
0.0
 79
     0
146
0.0
  0
ENDTAB
  0
TABLE
  2
LTYPE
  5
4C7
330
0
100
AcDbSymbolTable
 70
     1
  0
LTYPE
  5
4D5
330
4C7
100
AcDbSymbolTableRecord
100
AcDbLinetypeTableRecord
  2
ByBlock
 70
     0
  3

 72
    65
 73
     0
 40
0.0
  0
LTYPE
  5
4D6
330
4C7
100
AcDbSymbolTableRecord
100
AcDbLinetypeTableRecord
  2
ByLayer
 70
     0
  3

 72
    65
 73
     0
 40
0.0
  0
LTYPE
  5
4D7
330
4C7
100
AcDbSymbolTableRecord
100
AcDbLinetypeTableRecord
  2
CONTINUOUS
 70
     0
  3
Solid line
 72
    65
 73
     0
 40
0.0
  0
ENDTAB
  0
TABLE
  2
LAYER
  5
4C4
102
{ACAD_XDICTIONARY
360
51F
102
}
330
0
100
AcDbSymbolTable
 70
    22
  0
LAYER
  5
4D2
330
4C4
100
AcDbSymbolTableRecord
100
AcDbLayerTableRecord
  2
0
 70
     0
 62
     7
  6
CONTINUOUS
370
    -3
390
4D1
  0
LAYER
  5
4EB
330
4C4
100
AcDbSymbolTableRecord
100
AcDbLayerTableRecord
  2
TEXT_BUBBLES
 70
     0
 62
     6
  6
CONTINUOUS
370
    -3
390
4D1
  0
LAYER
  5
4EC
330
4C4
100
AcDbSymbolTableRecord
100
AcDbLayerTableRecord
  2
IMAGE
 70
     0
 62
     7
  6
CONTINUOUS
370
    -3
390
4D1
  0
LAYER
  5
4EF
330
4C4
100
AcDbSymbolTableRecord
100
AcDbLayerTableRecord
  2
TEXT_LEADERS
 70
     0
 62
    -5
  6
CONTINUOUS
370
    -3
390
4D1
  0
LAYER
  5
4F0
330
4C4
100
AcDbSymbolTableRecord
100
AcDbLayerTableRecord
  2
INSTRUCT-OPTION
 70
     0
 62
     7
  6
CONTINUOUS
370
    -3
390
4D1
  0
LAYER
  5
4F1
330
4C4
100
AcDbSymbolTableRecord
100
AcDbLayerTableRecord
  2
INSTRUCT-CALLOUT
 70
     0
 62
     4
  6
CONTINUOUS
370
    -3
390
4D1
  0
LAYER
  5
4F3
330
4C4
100
AcDbSymbolTableRecord
100
AcDbLayerTableRecord
  2
OPTION-NOZ-VAN
 70
     0
 62
    -1
  6
CONTINUOUS
370
    -3
390
4D1
  0
LAYER
  5
4F4
330
4C4
100
AcDbSymbolTableRecord
100
AcDbLayerTableRecord
  2
OPTION-NOZ-PLASTIC
 70
     0
 62
    -1
  6
CONTINUOUS
370
    -3
390
4D1
  0
LAYER
  5
4F6
330
4C4
100
AcDbSymbolTableRecord
100
AcDbLayerTableRecord
  2
OPTION-PRS
 70
     0
 62
    -1
  6
CONTINUOUS
370
    -3
390
4D1
  0
LAYER
  5
4FB
330
4C4
100
AcDbSymbolTableRecord
100
AcDbLayerTableRecord
  2
OPTION-NOZ-U-SERIES
 70
     0
 62
    -1
  6
CONTINUOUS
370
    -3
390
4D1
  0
LAYER
  5
4FC
330
4C4
100
AcDbSymbolTableRecord
100
AcDbLayerTableRecord
  2
OPTION-VPC
 70
     0
 62
    -1
  6
CONTINUOUS
370
    -3
390
4D1
  0
LAYER
  5
4FD
330
4C4
100
AcDbSymbolTableRecord
100
AcDbLayerTableRecord
  2
OPTION-NP
 70
     0
 62
    -1
  6
CONTINUOUS
370
    -3
390
4D1
  0
LAYER
  5
500
330
4C4
100
AcDbSymbolTableRecord
100
AcDbLayerTableRecord
  2
OPTION-PRS-NP
 70
     0
 62
    -1
  6
CONTINUOUS
370
    -3
390
4D1
  0
LAYER
  5
503
330
4C4
100
AcDbSymbolTableRecord
100
AcDbLayerTableRecord
  2
TEXT-SA-LEADERS
 70
     0
 62
    -1
  6
CONTINUOUS
370
    -3
390
4D1
  0
LAYER
  5
504
330
4C4
100
AcDbSymbolTableRecord
100
AcDbLayerTableRecord
  2
TEXT-SA-BUBBLES
 70
     0
 62
    -1
  6
CONTINUOUS
370
    -3
390
4D1
  0
LAYER
  5
505
330
4C4
100
AcDbSymbolTableRecord
100
AcDbLayerTableRecord
  2
OPTION_SA
 70
     0
 62
    -1
  6
CONTINUOUS
370
    -3
390
4D1
  0
LAYER
  5
506
330
4C4
100
AcDbSymbolTableRecord
100
AcDbLayerTableRecord
  2
TEXT-RB-SA-BUBBLES
 70
     0
 62
     1
  6
CONTINUOUS
370
    -3
390
4D1
  0
LAYER
  5
507
330
4C4
100
AcDbSymbolTableRecord
100
AcDbLayerTableRecord
  2
OPTION_RB_SA
 70
     0
 62
     1
  6
CONTINUOUS
370
    -3
390
4D1
  0
LAYER
  5
508
330
4C4
100
AcDbSymbolTableRecord
100
AcDbLayerTableRecord
  2
TEXT-RB-SA-LEADERS
 70
     0
 62
    -1
  6
CONTINUOUS
370
    -3
390
4D1
  0
LAYER
  5
51E
330
4C4
100
AcDbSymbolTableRecord
100
AcDbLayerTableRecord
  2
TITLE
 70
     0
 62
     4
  6
CONTINUOUS
370
    -3
390
4D1
  0
LAYER
  5
5CB
330
4C4
100
AcDbSymbolTableRecord
100
AcDbLayerTableRecord
  2
OPTION-PRS-VPC
 70
     0
 62
     1
  6
CONTINUOUS
370
    -3
390
4D1
  0
LAYER
  5
C04
330
4C4
100
AcDbSymbolTableRecord
100
AcDbLayerTableRecord
  2
OPTION-NOZ-ROTARY
 70
     0
 62
     1
  6
CONTINUOUS
370
    -3
390
4D1
  0
ENDTAB
  0
TABLE
  2
STYLE
  5
4C5
330
0
100
AcDbSymbolTable
 70
     6
  0
STYLE
  5
4D3
330
4C5
100
AcDbSymbolTableRecord
100
AcDbTextStyleTableRecord
  2
STANDARD
 70
     0
 40
0.0
 41
1.0
 50
0.0
 71
     0
 42
0.2
  3
txt
  4

  0
STYLE
  5
4E6
330
4C5
100
AcDbSymbolTableRecord
100
AcDbTextStyleTableRecord
  2
ROMANS
 70
     0
 40
0.0
 41
1.0
 50
0.0
 71
     0
 42
0.1
  3
ROMANS.SHX
  4

  0
STYLE
  5
4E7
330
4C5
100
AcDbSymbolTableRecord
100
AcDbTextStyleTableRecord
  2
SIMPLEX
 70
     0
 40
0.0
 41
1.0
 50
0.0
 71
     0
 42
0.1
  3
SIMPLEX
  4

  0
STYLE
  5
594
330
4C5
100
AcDbSymbolTableRecord
100
AcDbTextStyleTableRecord
  2
L100
 70
     0
 40
0.1
 41
1.0
 50
0.0
 71
     0
 42
0.1
  3
romans.shx
  4

  0
STYLE
  5
595
330
4C5
100
AcDbSymbolTableRecord
100
AcDbTextStyleTableRecord
  2
L200
 70
     0
 40
0.2
 41
1.0
 50
0.0
 71
     0
 42
0.081
  3
ARIAL.TTF
  4

1001
ACAD
1000
Arial
1071
       34
  0
STYLE
  5
596
330
4C5
100
AcDbSymbolTableRecord
100
AcDbTextStyleTableRecord
  2
L80
 70
     0
 40
0.08
 41
1.0
 50
0.0
 71
     0
 42
0.08
  3
ROMANS
  4

  0
ENDTAB
  0
TABLE
  2
VIEW
  5
4C8
330
0
100
AcDbSymbolTable
 70
     0
  0
ENDTAB
  0
TABLE
  2
UCS
  5
4C9
330
0
100
AcDbSymbolTable
 70
     0
  0
ENDTAB
  0
TABLE
  2
APPID
  5
4CB
330
0
100
AcDbSymbolTable
 70
     3
  0
APPID
  5
4D4
330
4CB
100
AcDbSymbolTableRecord
100
AcDbRegAppTableRecord
  2
ACAD
 70
     0
  0
APPID
  5
4E9
330
4CB
100
AcDbSymbolTableRecord
100
AcDbRegAppTableRecord
  2
RAK
 70
     0
  0
APPID
  5
597
330
4CB
100
AcDbSymbolTableRecord
100
AcDbRegAppTableRecord
  2
DCO15
 70
     0
  0
ENDTAB
  0
TABLE
  2
DIMSTYLE
  5
4CC
330
0
100
AcDbSymbolTable
 70
     1
100
AcDbDimStyleTable
 71
     0
  0
DIMSTYLE
105
4EA
330
4CC
100
AcDbSymbolTableRecord
100
AcDbDimStyleTableRecord
  2
STANDARD
 70
     0
279
     2
340
4D3
  0
ENDTAB
  0
TABLE
  2
BLOCK_RECORD
  5
4C3
330
0
100
AcDbSymbolTable
 70
     1
  0
BLOCK_RECORD
  5
4E0
330
4C3
100
AcDbSymbolTableRecord
100
AcDbBlockTableRecord
  2
*Model_Space
340
4E3
  0
BLOCK_RECORD
  5
4DC
330
4C3
100
AcDbSymbolTableRecord
100
AcDbBlockTableRecord
  2
*Paper_Space
340
4DF
  0
BLOCK_RECORD
  5
598
330
4C3
100
AcDbSymbolTableRecord
100
AcDbBlockTableRecord
  2
titleblock
340
0
102
{BLKREFS
331
5B3
102
}
  0
ENDTAB
  0
ENDSEC
  0
SECTION
  2
BLOCKS
  0
BLOCK
  5
50C
330
4E0
100
AcDbEntity
  8
0
100
AcDbBlockBegin
  2
*Model_Space
 70
     0
 10
0.0
 20
0.0
 30
0.0
  3
*Model_Space
  1

  0
ENDBLK
  5
50D
330
4E0
100
AcDbEntity
  8
0
100
AcDbBlockEnd
  0
BLOCK
  5
50A
330
4DC
100
AcDbEntity
 67
     1
  8
0
100
AcDbBlockBegin
  2
*Paper_Space
 70
     0
 10
0.0
 20
0.0
 30
0.0
  3
*Paper_Space
  1

  0
ENDBLK
  5
50B
330
4DC
100
AcDbEntity
 67
     1
  8
0
100
AcDbBlockEnd
  0
BLOCK
  5
5A4
330
598
100
AcDbEntity
  8
0
100
AcDbBlockBegin
  2
titleblock
 70
     2
 10
0.0
 20
0.0
 30
0.0
  3
titleblock
  1

  0
LWPOLYLINE
  5
599
330
598
100
AcDbEntity
  8
IMAGE
100
AcDbPolyline
 90
        4
 70
     1
 43
0.0
 10
0.0
 20
0.0
 10
16.48999999999999
 20
0.0000000000000001
 10
16.48999999999999
 20
10.44
 10
0.0
 20
10.44
  0
ATTDEF
  5
59A
330
598
100
AcDbEntity
  8
TITLE
100
AcDbText
 10
0.5055556038023421
 20
0.7842270964783673
 30
0.0
 40
0.2
  1
D
  7
L200
 72
     4
 11
0.6064423705144839
 21
0.8842270964783672
 31
0.0
100
AcDbAttributeDefinition
  3
#
  2
D
 70
     0
  0
ATTDEF
  5
59B
330
598
100
AcDbEntity
  8
TITLE
100
AcDbText
 10
1.231442370514484
 20
1.34371230274675
 30
0.0
 40
0.2
  1

  7
L200
100
AcDbAttributeDefinition
  3
DETAIL TITLE TOP LINE
  2
TITLE1
 70
     0
  0
ATTDEF
  5
59C
330
598
100
AcDbEntity
  8
TITLE
100
AcDbText
 10
1.231442370514484
 20
0.9842270964783674
 30
0.0
 40
0.2
  1
TITLE
  7
L200
100
AcDbAttributeDefinition
  3
DETAIL TITLE TOP 2ND LINE
  2
TITLE2
 70
     0
  0
ATTDEF
  5
59D
330
598
100
AcDbEntity
  8
TITLE
100
AcDbText
 10
2.713645751168312
 20
0.5927927664583189
 30
0.0
 40
0.2
  1
TITLE2
  7
L200
100
AcDbAttributeDefinition
  3
DETAIL TITLE BOTTOM 1
  2
TITLE3
 70
     0
  0
ATTDEF
  5
59E
330
598
100
AcDbEntity
  8
TITLE
100
AcDbText
 10
2.713645751168312
 20
0.2692560808167741
 30
0.0
 40
0.2
  1

  7
L200
100
AcDbAttributeDefinition
  3
DETAIL TITLE BOTTOM 2
  2
TITLE4
 70
     0
  0
ATTDEF
  5
59F
330
598
100
AcDbEntity
  8
TITLE
 62
     7
100
AcDbText
 10
8.177214829966379
 20
0.9696027915446398
 30
0.0
 40
0.08
  1
-
  7
L80
 72
     2
 11
8.261024353775903
 21
0.9696027915446398
 31
0.0
100
AcDbAttributeDefinition
  3
REVISION DATE
  2
REVISED
 70
     0
  0
ATTDEF
  5
5A0
330
598
100
AcDbEntity
  8
TITLE
 62
     7
100
AcDbText
 10
0.2639423705144838
 20
0.0847116480207214
 30
0.0
 40
0.08
  1
-
  7
L80
100
AcDbAttributeDefinition
  3
DWG-NAME
  2
DWG-NAME
 70
     0
  0
LWPOLYLINE
  5
5A1
330
598
100
AcDbEntity
  8
TITLE
 62
     3
100
AcDbPolyline
 90
        2
 70
     1
 43
0.03
 10
0.6064423705144839
 20
0.5417270964783675
 42
0.9999999999999998
 10
0.6064423705144839
 20
1.226727096478367
 42
0.9999999999999998
  0
ATTDEF
  5
5A2
330
598
100
AcDbEntity
  8
TITLE
 62
     7
100
AcDbText
 10
1.231442370514484
 20
0.7005637793954894
 30
0.0
 40
0.1
  1
N.T.S.
  7
L100
100
AcDbAttributeDefinition
  3
SCALE
  2
SCALE
 70
     0
  0
LWPOLYLINE
  5
5A3
330
598
100
AcDbEntity
  8
TITLE
 62
     3
100
AcDbPolyline
 90
        2
 70
     0
 43
0.04
 39
0.03
 10
0.9489423705144833
 20
0.8842270964783672
 10
8.261024353775903
 20
0.8842270964783672
  0
ENDBLK
  5
5A5
330
598
100
AcDbEntity
  8
0
100
AcDbBlockEnd
  0
ENDSEC
  0
SECTION
  2
ENTITIES
  0
TEXT
  5
101
330
4E0
100
AcDbEntity
  8
TEXT_BUBBLES
100
AcDbText
 10
4.774006067410544
 20
6.902134446817193
 30
0.0
 40
0.125
  1
POP-UP SPRAY SPRINKLER:
  7
ROMANS
100
AcDbText
  0
TEXT
  5
103
330
4E0
100
AcDbEntity
  8
TEXT_BUBBLES
100
AcDbText
 10
4.774006067410544
 20
6.747787913176247
 30
0.0
 40
0.125
  1
  RAIN BIRD 1812-SI
  7
ROMANS
100
AcDbText
  0
TEXT
  5
109
330
4E0
100
AcDbEntity
  8
TEXT-SA-BUBBLES
100
AcDbText
 10
4.774006067410544
 20
5.025923068477105
 30
0.0
 40
0.125
  1
PVC SCH 40 TEE OR ELL
  7
ROMANS
100
AcDbText
  0
TEXT
  5
10A
330
4E0
100
AcDbEntity
  8
TEXT_BUBBLES
100
AcDbText
 10
4.774006067410544
 20
7.264218668216674
 30
0.0
 40
0.125
  1
FINISH GRADE/TOP OF MULCH
  7
ROMANS
100
AcDbText
  0
TEXT
  5
10B
330
4E0
100
AcDbEntity
  8
TEXT-SA-BUBBLES
100
AcDbText
 10
4.774006067410544
 20
5.802595173074824
 30
0.0
 40
0.125
  1
PVC LATERAL PIPE
  7
ROMANS
100
AcDbText
  0
CIRCLE
  5
10D
330
4E0
100
AcDbEntity
  8
TEXT_BUBBLES
100
AcDbCircle
 10
4.433949349049417
 20
7.310289880038885
 30
0.0
 40
0.15625
  0
TEXT
  5
10E
330
4E0
100
AcDbEntity
  8
TEXT_BUBBLES
100
AcDbText
 10
4.383354110954179
 20
7.247789880038885
 30
0.0
 40
0.125
  1
1
  7
ROMANS
 72
     4
 11
4.433949349049417
 21
7.310289880038885
 31
0.0
100
AcDbText
  0
CIRCLE
  5
10F
330
4E0
100
AcDbEntity
  8
TEXT_BUBBLES
100
AcDbCircle
 10
4.433949349049417
 20
6.948205530152634
 30
0.0
 40
0.15625
  0
TEXT
  5
110
330
4E0
100
AcDbEntity
  8
TEXT_BUBBLES
100
AcDbText
 10
4.374425539525608
 20
6.885705530152634
 30
0.0
 40
0.125
  1
2
  7
ROMANS
 72
     4
 11
4.433949349049417
 21
6.948205530152634
 31
0.0
100
AcDbText
  0
CIRCLE
  5
111
330
4E0
100
AcDbEntity
  8
TEXT-SA-BUBBLES
100
AcDbCircle
 10
4.440841782474994
 20
6.429917712881686
 30
0.0
 40
0.15625
  0
TEXT
  5
112
330
4E0
100
AcDbEntity
  8
TEXT-SA-BUBBLES
100
AcDbText
 10
4.381317972951185
 20
6.367417712881686
 30
0.0
 40
0.125
  1
3
  7
ROMANS
 72
     4
 11
4.440841782474994
 21
6.429917712881686
 31
0.0
100
AcDbText
  0
CIRCLE
  5
113
330
4E0
100
AcDbEntity
  8
TEXT-SA-BUBBLES
100
AcDbCircle
 10
4.433949349049417
 20
5.848666256410264
 30
0.0
 40
0.15625
  0
TEXT
  5
114
330
4E0
100
AcDbEntity
  8
TEXT-SA-BUBBLES
100
AcDbText
 10
4.371449349049417
 20
5.786166256410264
 30
0.0
 40
0.125
  1
4
  7
ROMANS
 72
     4
 11
4.433949349049417
 21
5.848666256410264
 31
0.0
100
AcDbText
  0
CIRCLE
  5
115
330
4E0
100
AcDbEntity
  8
TEXT-SA-BUBBLES
100
AcDbCircle
 10
4.433949349049417
 20
5.491994151812545
 30
0.0
 40
0.15625
  0
TEXT
  5
116
330
4E0
100
AcDbEntity
  8
TEXT-SA-BUBBLES
100
AcDbText
 10
4.374425539525608
 20
5.429494151812545
 30
0.0
 40
0.125
  1
5
  7
ROMANS
 72
     4
 11
4.433949349049417
 21
5.491994151812545
 31
0.0
100
AcDbText
  0
CIRCLE
  5
117
330
4E0
100
AcDbEntity
  8
TEXT-SA-BUBBLES
100
AcDbCircle
 10
4.433949349049417
 20
5.074054747288752
 30
0.0
 40
0.15625
  0
TEXT
  5
118
330
4E0
100
AcDbEntity
  8
TEXT-SA-BUBBLES
100
AcDbText
 10
4.371449349049417
 20
5.011554747288752
 30
0.0
 40
0.125
  1
6
  7
ROMANS
 72
     4
 11
4.433949349049417
 21
5.074054747288752
 31
0.0
100
AcDbText
  0
CIRCLE
  5
11E
330
4E0
100
AcDbEntity
  8
TEXT-SA-BUBBLES
100
AcDbCircle
 10
3.119729844062389
 20
3.532816781844986
 30
0.0
 40
0.15625
  0
TEXT
  5
11F
330
4E0
100
AcDbEntity
  8
TEXT-SA-BUBBLES
100
AcDbText
 10
3.060206034538579
 20
3.470316781844986
 30
0.0
 40
0.125
  1
5
  7
ROMANS
 72
     4
 11
3.119729844062389
 21
3.532816781844986
 31
0.0
100
AcDbText
  0
CIRCLE
  5
120
330
4E0
100
AcDbEntity
  8
TEXT-SA-BUBBLES
100
AcDbCircle
 10
4.579912272174451
 20
3.533230079855901
 30
0.0
 40
0.15625
  0
TEXT
  5
121
330
4E0
100
AcDbEntity
  8
TEXT-SA-BUBBLES
100
AcDbText
 10
4.517412272174451
 20
3.470730079855901
 30
0.0
 40
0.125
  1
6
  7
ROMANS
 72
     4
 11
4.579912272174451
 21
3.533230079855901
 31
0.0
100
AcDbText
  0
CIRCLE
  5
122
330
4E0
100
AcDbEntity
  8
TEXT-SA-BUBBLES
100
AcDbCircle
 10
2.750924410033591
 20
3.533090322975371
 30
0.0
 40
0.15625
  0
TEXT
  5
123
330
4E0
100
AcDbEntity
  8
TEXT-SA-BUBBLES
100
AcDbText
 10
2.688424410033591
 20
3.470590322975371
 30
0.0
 40
0.125
  1
4
  7
ROMANS
 72
     4
 11
2.750924410033591
 21
3.533090322975371
 31
0.0
100
AcDbText
  0
TEXT
  5
12A
330
4E0
100
AcDbEntity
  8
TEXT-SA-BUBBLES
100
AcDbText
 10
0.4953645152306866
 20
4.560243041995752
 30
0.0
 40
0.125
  1
3
  7
ROMANS
 72
     4
 11
0.5548883247544962
 21
4.622743041995752
 31
0.0
100
AcDbText
  0
CIRCLE
  5
12B
330
4E0
100
AcDbEntity
  8
TEXT-SA-BUBBLES
100
AcDbCircle
 10
0.5548883247544962
 20
4.622743041995752
 30
0.0
 40
0.15625
  0
TEXT
  5
12C
330
4E0
100
AcDbEntity
  8
TEXT_BUBBLES
100
AcDbText
 10
0.4953645152306868
 20
5.012785388808097
 30
0.0
 40
0.125
  1
2
  7
ROMANS
 72
     4
 11
0.5548883247544963
 21
5.075285388808097
 31
0.0
100
AcDbText
  0
CIRCLE
  5
12D
330
4E0
100
AcDbEntity
  8
TEXT_BUBBLES
100
AcDbCircle
 10
0.5548883247544963
 20
5.075285388808097
 30
0.0
 40
0.15625
  0
TEXT
  5
130
330
4E0
100
AcDbEntity
  8
TEXT-SA-BUBBLES
100
AcDbText
 10
3.941207792242138
 20
3.470600851426047
 30
0.0
 40
0.125
  1
3
  7
ROMANS
 72
     4
 11
4.000731601765947
 21
3.533100851426047
 31
0.0
100
AcDbText
  0
CIRCLE
  5
131
330
4E0
100
AcDbEntity
  8
TEXT-SA-BUBBLES
100
AcDbCircle
 10
4.000731601765947
 20
3.533100851426047
 30
0.0
 40
0.15625
  0
CIRCLE
  5
132
330
4E0
100
AcDbEntity
  8
TEXT_BUBBLES
100
AcDbCircle
 10
0.5548883247544962
 20
5.541069538776902
 30
0.0
 40
0.15625
  0
TEXT
  5
133
330
4E0
100
AcDbEntity
  8
TEXT_BUBBLES
100
AcDbText
 10
0.504293086659258
 20
5.478569538776902
 30
0.0
 40
0.125
  1
1
  7
ROMANS
 72
     4
 11
0.5548883247544962
 21
5.541069538776902
 31
0.0
100
AcDbText
  0
TEXT
  5
136
330
4E0
100
AcDbEntity
  8
TEXT-SA-LEADERS
100
AcDbText
 10
4.601600069057217
 20
5.225251957272398
 30
0.0
 40
0.125
  1
SWING PIPE, 12-INCH LENGTH:
  7
ROMANS
100
AcDbText
  0
TEXT
  5
137
330
4E0
100
AcDbEntity
  8
TEXT-SA-LEADERS
100
AcDbText
 10
4.601600069057217
 20
3.102647324283591
 30
0.0
 40
0.125
  1
PVC LATERAL PIPE
  7
ROMANS
100
AcDbText
  0
TEXT
  5
138
330
4E0
100
AcDbEntity
  8
TEXT_LEADERS
100
AcDbText
 10
4.774006067410544
 20
6.286928947147836
 30
0.0
 40
0.125
  1
FINISH GRADE/TOP OF MULCH
  7
ROMANS
100
AcDbText
  0
TEXT
  5
139
330
4E0
100
AcDbEntity
  8
TEXT-SA-LEADERS
100
AcDbText
 10
4.601600069057217
 20
5.052144604174825
 30
0.0
 40
0.125
  1
  RAIN BIRD MODEL SP-100
  7
ROMANS
100
AcDbText
  0
TEXT
  5
13A
330
4E0
100
AcDbEntity
  8
TEXT_LEADERS
100
AcDbText
 10
4.774006067410544
 20
6.747787913176247
 30
0.0
 40
0.125
  1
  RAIN BIRD 1812-SI
  7
ROMANS
100
AcDbText
  0
TEXT
  5
13B
330
4E0
100
AcDbEntity
  8
TEXT_LEADERS
100
AcDbText
 10
4.774006067410544
 20
6.908786355793274
 30
0.0
 40
0.125
  1
POP-UP SPRAY SPRINKLER:
  7
ROMANS
100
AcDbText
  0
TEXT
  5
14D
330
4E0
100
AcDbEntity
  8
TEXT-SA-LEADERS
100
AcDbText
 10
4.601600069057217
 20
5.633408394052443
 30
0.0
 40
0.125
  1
  BARB ELBOW:  RAIN BIRD
  7
SIMPLEX
100
AcDbText
  0
TEXT
  5
17A
330
4E0
100
AcDbEntity
  8
TEXT-SA-LEADERS
100
AcDbText
 10
4.601600069057217
 20
5.799708213998442
 30
0.0
 40
0.125
  1
1/2-INCH MALE NPT x .490 INCH
  7
SIMPLEX
100
AcDbText
  0
TEXT
  5
17B
330
4E0
100
AcDbEntity
  8
TEXT-SA-LEADERS
100
AcDbText
 10
4.601600069057217
 20
5.467108574106442
 30
0.0
 40
0.125
  1
  MODEL SBE-050
  7
SIMPLEX
100
AcDbText
  0
TEXT
  5
17F
330
4E0
100
AcDbEntity
  8
TEXT-SA-LEADERS
100
AcDbText
 10
4.601600069057217
 20
4.620131767801
 30
0.0
 40
0.125
  1
PVC SCH 40 TEE OR ELL
  7
ROMANS
100
AcDbText
  0
TEXT
  5
180
330
4E0
100
AcDbEntity
  8
TEXT-SA-LEADERS
100
AcDbText
 10
4.601600069057217
 20
3.493088145257462
 30
0.0
 40
0.125
  1
  MODEL SBE-050
  7
SIMPLEX
100
AcDbText
  0
TEXT
  5
181
330
4E0
100
AcDbEntity
  8
TEXT-SA-LEADERS
100
AcDbText
 10
4.601600069057217
 20
3.825687785149462
 30
0.0
 40
0.125
  1
1/2-INCH MALE NPT x .490 INCH
  7
SIMPLEX
100
AcDbText
  0
TEXT
  5
182
330
4E0
100
AcDbEntity
  8
TEXT-SA-LEADERS
100
AcDbText
 10
4.601600069057217
 20
3.659387965203462
 30
0.0
 40
0.125
  1
  BARB ELBOW:  RAIN BIRD
  7
SIMPLEX
100
AcDbText
  0
TEXT
  5
189
330
4E0
100
AcDbEntity
  8
TEXT-SA-BUBBLES
100
AcDbText
 10
4.774006067410544
 20
6.029995533182824
 30
0.0
 40
0.125
  1
  MODEL SBE-050
  7
SIMPLEX
100
AcDbText
  0
TEXT
  5
18A
330
4E0
100
AcDbEntity
  8
TEXT-SA-BUBBLES
100
AcDbText
 10
4.774006067410544
 20
6.196295353128824
 30
0.0
 40
0.125
  1
  BARB ELBOW:  RAIN BIRD
  7
SIMPLEX
100
AcDbText
  0
TEXT
  5
18B
330
4E0
100
AcDbEntity
  8
TEXT-SA-BUBBLES
100
AcDbText
 10
4.774006067410544
 20
6.362595173074823
 30
0.0
 40
0.125
  1
1/2-INCH MALE NPT x .490 INCH
  7
SIMPLEX
100
AcDbText
  0
TEXT
  5
18C
330
4E0
100
AcDbEntity
  8
TEXT-SA-BUBBLES
100
AcDbText
 10
4.774006067410544
 20
5.264839225867275
 30
0.0
 40
0.125
  1
  RAIN BIRD MODEL SP-100
  7
ROMANS
100
AcDbText
  0
TEXT
  5
18D
330
4E0
100
AcDbEntity
  8
TEXT-SA-BUBBLES
100
AcDbText
 10
4.774006067410544
 20
5.445923068477106
 30
0.0
 40
0.125
  1
SWING PIPE, 12-INCH LENGTH:
  7
ROMANS
100
AcDbText
  0
TEXT
  5
18F
330
4E0
100
AcDbEntity
  8
OPTION-NOZ-VAN
100
AcDbText
 10
4.774006067410544
 20
6.57853243846113
 30
0.0
 40
0.125
  1
  WITH VAN NOZZLE
  7
ROMANS
100
AcDbText
  0
TEXT
  5
190
330
4E0
100
AcDbEntity
  8
INSTRUCT-CALLOUT
100
AcDbText
 10
11.78175550605278
 20
8.438195803303189
 30
0.0
 40
0.10000000149
  1
TO TURN OFF THIS INSTRUCTION BOX, TURN OFF
  7
ROMANS
100
AcDbText
  0
TEXT
  5
191
330
4E0
100
AcDbEntity
  8
INSTRUCT-CALLOUT
100
AcDbText
 10
11.78175550605278
 20
8.276295759815189
 30
0.0
 40
0.10000000149
  1
LAYER "INSTRUCT-CALLOUT".
  7
ROMANS
100
AcDbText
  0
CIRCLE
  5
192
330
4E0
100
AcDbEntity
  8
INSTRUCT-CALLOUT
100
AcDbCircle
 10
14.83131791997472
 20
8.940107489676632
 30
0.0
 40
0.125
  0
TEXT
  5
193
330
4E0
100
AcDbEntity
  8
INSTRUCT-CALLOUT
100
AcDbText
 10
14.79084172949853
 20
8.890107489676632
 30
0.0
 40
0.1
  1
1
  7
ROMANS
 72
     4
 11
14.83131791997472
 21
8.940107489676632
 31
0.0
100
AcDbText
  0
LINE
  5
194
330
4E0
100
AcDbEntity
  8
INSTRUCT-CALLOUT
100
AcDbLine
 10
14.45484969427023
 20
8.83732777309881
 30
0.0
 11
14.71073111119508
 21
8.907186044563427
 31
0.0
  0
SOLID
  5
195
330
4E0
100
AcDbEntity
  8
INSTRUCT-CALLOUT
100
AcDbTrace
 10
14.52412410506203
 20
8.887338332078375
 30
0.0
 11
14.53992639871637
 21
8.829456663864146
 31
0.0
 12
14.35838024724652
 22
8.810990617008243
 32
0.0
 13
14.35838024724652
 23
8.810990617008243
 33
0.0
  0
TEXT
  5
196
330
4E0
100
AcDbEntity
  8
INSTRUCT-CALLOUT
100
AcDbText
 10
12.74628247682636
 20
8.92587506407747
 30
0.0
 40
0.10000000149
  1
ITEM 1
  7
ROMANS
100
AcDbText
  0
SOLID
  5
197
330
4E0
100
AcDbEntity
  8
INSTRUCT-CALLOUT
100
AcDbTrace
 10
12.38165477701261
 20
8.873912297526976
 30
0.0
 11
12.35860289212088
 21
8.929307338847822
 31
0.0
 12
12.20394371060421
 22
8.832454163512199
 32
0.0
 13
12.20394371060421
 23
8.832454163512199
 33
0.0
  0
LINE
  5
198
330
4E0
100
AcDbEntity
  8
INSTRUCT-CALLOUT
100
AcDbLine
 10
12.29626877947228
 20
8.870873971665087
 30
0.0
 11
12.58403919395061
 21
8.99062567347137
 31
0.0
  0
LINE
  5
199
330
4E0
100
AcDbEntity
  8
INSTRUCT-CALLOUT
100
AcDbLine
 10
12.58403919395061
 20
8.99062567347137
 30
0.0
 11
12.72030773980923
 21
8.990625673471368
 31
0.0
  0
TEXT
  5
19A
330
4E0
100
AcDbEntity
  8
INSTRUCT-CALLOUT
100
AcDbText
 10
12.27691454199382
 20
9.243096927172985
 30
0.0
 40
0.10000000149
  1
TEXT_LEADERS         TEXT_BUBBLES
  7
ROMANS
100
AcDbText
  0
TEXT
  5
19B
330
4E0
100
AcDbEntity
  8
INSTRUCT-CALLOUT
100
AcDbText
 10
11.84057080973099
 20
9.580114221648161
 30
0.0
 40
0.10000000149
  1
BY TURNING ON THE APPROPRIATE LAYER:
  7
ROMANS
100
AcDbText
  0
TEXT
  5
19C
330
4E0
100
AcDbEntity
  8
INSTRUCT-CALLOUT
100
AcDbText
 10
11.84057080973099
 20
9.742014265135161
 30
0.0
 40
0.10000000149
  1
CHOOSE EITHER LEADERS OR BUBBLE CALLOUTS
  7
ROMANS
100
AcDbText
  0
TEXT
  5
19D
330
4E0
100
AcDbEntity
  8
INSTRUCT-CALLOUT
100
AcDbText
 10
12.07332057877771
 20
10.11612532861004
 30
0.0
 40
0.10000000149
  1
CHOOSING EQUIPMENT CALLOUT METHOD
  7
ROMANS
100
AcDbText
  0
LWPOLYLINE
  5
19E
330
4E0
100
AcDbEntity
  8
INSTRUCT-CALLOUT
100
AcDbPolyline
 90
        4
 70
     1
 43
0.0
 10
11.74272815883569
 20
10.05900983789284
 10
11.74272815883569
 20
8.627523816550601
 10
16.17442495021776
 20
8.627523816550601
 10
16.17442495021776
 20
10.05900983789284
  0
TEXT
  5
1BC
330
4E0
100
AcDbEntity
  8
OPTION-NOZ-PLASTIC
100
AcDbText
 10
4.774006067410544
 20
6.57853243846113
 30
0.0
 40
0.125
  1
  WITH PLASTIC MPR NOZZLE
  7
ROMANS
100
AcDbText
  0
TEXT
  5
1C1
330
4E0
100
AcDbEntity
  8
OPTION-PRS
100
AcDbText
 10
6.901806669288371
 20
6.742162397934616
 30
0.0
 40
0.125
  1
-PRS
  7
ROMANS
100
AcDbText
  0
TEXT
  5
1EB
330
4E0
100
AcDbEntity
  8
OPTION-NOZ-U-SERIES
100
AcDbText
 10
4.774006067410544
 20
6.57853243846113
 30
0.0
 40
0.125
  1
  WITH U-SERIES NOZZLE
  7
ROMANS
100
AcDbText
  0
CIRCLE
  5
2A3
330
4E0
100
AcDbEntity
  8
OPTION-PRS-VPC
100
AcDbCircle
 10
2.257734159578131
 20
5.959061229580311
 30
0.0
 40
0.0139560404963533
  0
TEXT
  5
2A7
330
4E0
100
AcDbEntity
  8
OPTION-NP
100
AcDbText
 10
5.156622079268389
 20
6.738701452449577
 30
0.0
 40
0.125
  1
               WITH 1800 NP
  7
ROMANS
100
AcDbText
  0
TEXT
  5
2AA
330
4E0
100
AcDbEntity
  8
OPTION-PRS-NP
100
AcDbText
 10
6.905368277186789
 20
6.741523925072042
 30
0.0
 40
0.125
  1
-PRS WITH 1800 NP
  7
ROMANS
100
AcDbText
  0
TEXT
  5
3A0
330
4E0
100
AcDbEntity
  8
TEXT-RB-SA-BUBBLES
100
AcDbText
 10
4.374425539525608
 20
6.311399794348109
 30
0.0
 40
0.125
  1
3
  7
ROMANS
 72
     4
 11
4.433949349049417
 21
6.373899794348109
 31
0.0
100
AcDbText
  0
TEXT
  5
3A1
330
4E0
100
AcDbEntity
  8
TEXT-RB-SA-BUBBLES
100
AcDbText
 10
4.378341782474994
 20
5.948403019805528
 30
0.0
 40
0.125
  1
4
  7
ROMANS
 72
     4
 11
4.440841782474994
 21
6.010903019805528
 31
0.0
100
AcDbText
  0
CIRCLE
  5
3A2
330
4E0
100
AcDbEntity
  8
TEXT-RB-SA-BUBBLES
100
AcDbCircle
 10
4.440841782474994
 20
6.010903019805528
 30
0.0
 40
0.15625
  0
CIRCLE
  5
3A3
330
4E0
100
AcDbEntity
  8
TEXT-RB-SA-BUBBLES
100
AcDbCircle
 10
4.433949349049417
 20
6.373899794348109
 30
0.0
 40
0.15625
  0
TEXT
  5
3A4
330
4E0
100
AcDbEntity
  8
TEXT-RB-SA-BUBBLES
100
AcDbText
 10
4.374425539525608
 20
5.5497599127698
 30
0.0
 40
0.125
  1
5
  7
ROMANS
 72
     4
 11
4.433949349049417
 21
5.6122599127698
 31
0.0
100
AcDbText
  0
CIRCLE
  5
3A5
330
4E0
100
AcDbEntity
  8
TEXT-RB-SA-BUBBLES
100
AcDbCircle
 10
4.433949349049417
 20
5.6122599127698
 30
0.0
 40
0.15625
  0
TEXT
  5
3A6
330
4E0
100
AcDbEntity
  8
TEXT-RB-SA-BUBBLES
100
AcDbText
 10
4.774006067410544
 20
5.556282647832545
 30
0.0
 40
0.125
  1
PVC SCH 40 TEE OR ELL
  7
ROMANS
100
AcDbText
  0
TEXT
  5
3A7
330
4E0
100
AcDbEntity
  8
TEXT-RB-SA-BUBBLES
100
AcDbText
 10
4.774006067410544
 20
6.32782871101267
 30
0.0
 40
0.125
  1
PVC LATERAL PIPE
  7
ROMANS
100
AcDbText
  0
TEXT
  5
3A8
330
4E0
100
AcDbEntity
  8
TEXT-RB-SA-BUBBLES
100
AcDbText
 10
4.774006067410544
 20
5.810025931271923
 30
0.0
 40
0.125
  1
  RAIN BIRD MODEL SA 6050
  7
ROMANS
100
AcDbText
  0
TEXT
  5
3A9
330
4E0
100
AcDbEntity
  8
TEXT-RB-SA-BUBBLES
100
AcDbText
 10
4.774006067410544
 20
5.966935873898922
 30
0.0
 40
0.125
  1
SWING ASSEMBLY:
  7
ROMANS
100
AcDbText
  0
TEXT
  5
3AB
330
4E0
100
AcDbEntity
  8
TEXT-RB-SA-LEADERS
100
AcDbText
 10
4.787000872305132
 20
5.148878632195197
 30
0.0
 40
0.125
  1
SWING ASSEMBLY:
  7
ROMANS
100
AcDbText
  0
TEXT
  5
3B2
330
4E0
100
AcDbEntity
  8
TEXT-RB-SA-BUBBLES
100
AcDbText
 10
4.262649152883247
 20
3.526415247175942
 30
0.0
 40
0.125
  1
5
  7
ROMANS
 72
     4
 11
4.322172962407056
 21
3.588915247175942
 31
0.0
100
AcDbText
  0
CIRCLE
  5
3B3
330
4E0
100
AcDbEntity
  8
TEXT-RB-SA-BUBBLES
100
AcDbCircle
 10
4.322172962407056
 20
3.588915247175942
 30
0.0
 40
0.15625
  0
TEXT
  5
3C3
330
4E0
100
AcDbEntity
  8
TEXT-RB-SA-BUBBLES
100
AcDbText
 10
3.576681637164143
 20
5.171760137100634
 30
0.0
 40
0.1253
  1
4
  7
ROMANS
 72
     4
 11
3.639331637164143
 21
5.234410137100634
 31
0.0
100
AcDbText
  0
TEXT
  5
3C5
330
4E0
100
AcDbEntity
  8
TEXT-RB-SA-BUBBLES
100
AcDbText
 10
2.831346221213423
 20
3.526275490295412
 30
0.0
 40
0.125
  1
3
  7
ROMANS
 72
     4
 11
2.890870030737232
 21
3.588775490295412
 31
0.0
100
AcDbText
  0
CIRCLE
  5
3C6
330
4E0
100
AcDbEntity
  8
TEXT-RB-SA-BUBBLES
100
AcDbCircle
 10
2.890870030737232
 20
3.588775490295412
 30
0.0
 40
0.15625
  0
CIRCLE
  5
3C8
330
4E0
100
AcDbEntity
  8
TEXT-RB-SA-BUBBLES
100
AcDbCircle
 10
3.639331637164143
 20
5.234410137100634
 30
0.0
 40
0.156625
  0
TEXT
  5
3D9
330
4E0
100
AcDbEntity
  8
TEXT-RB-SA-LEADERS
100
AcDbText
 10
4.776404483964056
 20
3.083383858940836
 30
0.0
 40
0.125
  1
PVC LATERAL PIPE
  7
ROMANS
100
AcDbText
  0
TEXT
  5
3DA
330
4E0
100
AcDbEntity
  8
TEXT-RB-SA-LEADERS
100
AcDbText
 10
4.787000872305132
 20
4.991968689568198
 30
0.0
 40
0.125
  1
  RAIN BIRD MODEL SA 6050
  7
ROMANS
100
AcDbText
  0
TEXT
  5
3DB
330
4E0
100
AcDbEntity
  8
TEXT-RB-SA-LEADERS
100
AcDbText
 10
4.770918834167265
 20
3.532667005447034
 30
0.0
 40
0.125
  1
PVC SCH 40 TEE OR ELL
  7
ROMANS
100
AcDbText
  0
TEXT
  5
54C
330
4E0
100
AcDbEntity
  8
INSTRUCT-OPTION
100
AcDbText
 10
11.87282725597294
 20
4.420681541298988
 30
0.0
 40
0.1000000014900002
  1
TURNING ON THE APPROPRIATE LAYER:
  7
ROMANS
100
AcDbText
  0
TEXT
  5
54D
330
4E0
100
AcDbEntity
  8
INSTRUCT-OPTION
100
AcDbText
 10
11.87282725597294
 20
4.560899952320357
 30
0.0
 40
0.1000000014900002
  1
SELECT THE DESIRED SWING ASSEMBLY BY
  7
ROMANS
100
AcDbText
  0
TEXT
  5
54E
330
4E0
100
AcDbEntity
  8
INSTRUCT-OPTION
100
AcDbText
 10
11.89347272274188
 20
2.915260083370638
 30
0.0
 40
0.1
  1
  %%uOR%%u TEXT-RB-SA-BUBBLES
  7
ROMANS
100
AcDbText
  0
TEXT
  5
54F
330
4E0
100
AcDbEntity
  8
INSTRUCT-OPTION
100
AcDbText
 10
11.89347272274188
 20
3.0824987673994
 30
0.0
 40
0.1
  1
  %%uAND EITHER%%u TEXT-RB-SA-LEADERS
  7
ROMANS
100
AcDbText
  0
TEXT
  5
550
330
4E0
100
AcDbEntity
  8
INSTRUCT-OPTION
100
AcDbText
 10
11.89347272274188
 20
3.2224987673994
 30
0.0
 40
0.1
  1
  OPTION-RB-SA
  7
ROMANS
100
AcDbText
  0
TEXT
  5
551
330
4E0
100
AcDbEntity
  8
INSTRUCT-OPTION
100
AcDbText
 10
11.89347272274188
 20
3.673098649095195
 30
0.0
 40
0.1
  1
  %%uOR%%u TEXT-SA-BUBBLES
  7
ROMANS
100
AcDbText
  0
TEXT
  5
552
330
4E0
100
AcDbEntity
  8
INSTRUCT-OPTION
100
AcDbText
 10
11.89347272274188
 20
3.836109284275678
 30
0.0
 40
0.1
  1
  %%uAND EITHER%%u TEXT-SA-LEADERS
  7
ROMANS
100
AcDbText
  0
TEXT
  5
557
330
4E0
100
AcDbEntity
  8
INSTRUCT-OPTION
100
AcDbText
 10
11.89347272274188
 20
3.976109284275679
 30
0.0
 40
0.1
  1
  OPTION-SA
  7
ROMANS
100
AcDbText
  0
TEXT
  5
55A
330
4E0
100
AcDbEntity
  8
INSTRUCT-OPTION
100
AcDbText
 10
11.89347272274188
 20
3.406266495072282
 30
0.0
 40
0.1
  1
%%uRAIN BIRD SWING ASSEMBLY%%u
  7
ROMANS
100
AcDbText
  0
TEXT
  5
55B
330
4E0
100
AcDbEntity
  8
INSTRUCT-OPTION
100
AcDbText
 10
11.89347272274188
 20
4.191030678877377
 30
0.0
 40
0.1
  1
%%uCONTRACTOR ASSEMBLED SWING ASSEMBLY%%u
  7
ROMANS
100
AcDbText
  0
INSERT
  5
5B3
330
4E0
100
AcDbEntity
  8
TITLE
100
AcDbBlockReference
 66
     1
  2
titleblock
 10
-0.0916749879134358
 20
-0.097854729324645
 30
0.0
  0
ATTRIB
  5
5B4
330
5B3
100
AcDbEntity
  8
TITLE
100
AcDbText
 10
0.413880615888905
 20
0.6863723671537226
 30
0.0
 40
0.2
  1
D
  7
L200
 72
     4
 11
0.5147673826010469
 21
0.7863723671537226
 31
0.0
100
AcDbAttribute
  2
D
 70
     0
  0
ATTRIB
  5
5B5
330
5B3
100
AcDbEntity
  8
TITLE
100
AcDbText
 10
1.139767382601046
 20
1.245857573422105
 30
0.0
 40
0.2
  1

  7
L200
100
AcDbAttribute
  2
TITLE1
 70
     0
  0
ATTRIB
  5
5B6
330
5B3
100
AcDbEntity
  8
TITLE
100
AcDbText
 10
1.139767382601046
 20
0.8863723671537222
 30
0.0
 40
0.2
  1
POP-UP SPRAY SPRINKLER
  7
L200
100
AcDbAttribute
  2
TITLE2
 70
     0
  0
ATTRIB
  5
5B7
330
5B3
100
AcDbEntity
  8
TITLE
100
AcDbText
 10
2.621970763254875
 20
0.4949380371336734
 30
0.0
 40
0.2
  1
1812-SI WITH SWING PIPE
  7
L200
100
AcDbAttribute
  2
TITLE3
 70
     0
  0
ATTRIB
  5
5B8
330
5B3
100
AcDbEntity
  8
TITLE
100
AcDbText
 10
2.621970763254875
 20
0.1714013514921291
 30
0.0
 40
0.2
  1

  7
L200
100
AcDbAttribute
  2
TITLE4
 70
     0
  0
ATTRIB
  5
5B9
330
5B3
100
AcDbEntity
  8
TITLE
 62
     7
100
AcDbText
 10
7.597920794433894
 20
0.8717480622199946
 30
0.0
 40
0.08
  1
4-13-04
  7
L80
 72
     2
 11
8.169349365862466
 21
0.8717480622199946
 31
0.0
100
AcDbAttribute
  2
REVISED
 70
     0
  0
ATTRIB
  5
5BA
330
5B3
100
AcDbEntity
  8
TITLE
 62
     7
100
AcDbText
 10
0.1722673826010457
 20
-0.0131430813039231
 30
0.0
 40
0.08
  1
S-1812-SI-SP.DWG
  7
L80
100
AcDbAttribute
  2
DWG-NAME
 70
     0
  0
ATTRIB
  5
5BB
330
5B3
100
AcDbEntity
  8
TITLE
 62
     7
100
AcDbText
 10
1.139767382601046
 20
0.6027090500708443
 30
0.0
 40
0.1
  1
N.T.S.
  7
L100
100
AcDbAttribute
  2
SCALE
 70
     0
  0
SEQEND
  5
5BC
330
5B3
100
AcDbEntity
  8
IMAGE
  0
TEXT
  5
5C9
330
4E0
100
AcDbEntity
  8
OPTION-VPC
100
AcDbText
 10
6.755781015587749
 20
6.747688611431065
 30
0.0
 40
0.125
  1
  WITH 1800 VPC
  7
ROMANS
100
AcDbText
  0
TEXT
  5
5CD
330
4E0
100
AcDbEntity
  8
OPTION-PRS-VPC
100
AcDbText
 10
6.645371402280662
 20
6.747688611431065
 30
0.0
 40
0.125
  1
  -PRS WITH 1800 VPC
  7
ROMANS
100
AcDbText
  0
LEADER
  5
5D3
330
4E0
100
AcDbEntity
  8
TEXT-SA-BUBBLES
100
AcDbLeader
  3
STANDARD
 76
     2
 10
4.088907022531302
 20
4.317180927440683
 30
0.0
 10
3.982922979647168
 20
3.688332663495064
 30
0.0
  0
LEADER
  5
5D4
330
4E0
100
AcDbEntity
  8
TEXT-SA-BUBBLES
100
AcDbLeader
  3
STANDARD
 76
     2
 10
2.648393617829382
 20
4.297773529139043
 30
0.0
 10
2.713272478821588
 20
3.684735944659634
 30
0.0
  0
LEADER
  5
5D5
330
4E0
100
AcDbEntity
  8
TEXT-SA-BUBBLES
100
AcDbLeader
  3
STANDARD
 76
     2
 10
4.389857354192777
 20
4.256698822606718
 30
0.0
 10
4.539549977706974
 20
3.684176917137511
 30
0.0
  0
LEADER
  5
5D6
330
4E0
100
AcDbEntity
  8
TEXT-SA-BUBBLES
100
AcDbLeader
  3
STANDARD
 76
     2
 10
2.891183084410114
 20
4.712625885729693
 30
0.0
 10
3.088091510390881
 20
3.685830109181171
 30
0.0
  0
LEADER
  5
5D7
330
4E0
100
AcDbEntity
  8
TEXT-SA-BUBBLES
100
AcDbLeader
  3
STANDARD
 76
     2
 10
2.181297141767188
 20
4.838087124227961
 30
0.0
 10
0.7111383247544963
 20
4.622743041995752
 30
0.0
  0
LEADER
  5
5D9
330
4E0
100
AcDbEntity
  8
TEXT_BUBBLES
100
AcDbLeader
  3
STANDARD
 76
     2
 10
1.057972699677611
 20
6.084088125473453
 30
0.0
 10
0.7055784965783271
 20
5.5823797628831
 30
0.0
  0
LEADER
  5
5DA
330
4E0
100
AcDbEntity
  8
TEXT_BUBBLES
100
AcDbLeader
  3
STANDARD
 76
     2
 10
2.051508622281948
 20
5.263011579425755
 30
0.0
 10
0.7111383247544963
 20
5.075285388808097
 30
0.0
  0
LEADER
  5
5DF
330
4E0
100
AcDbEntity
  8
TEXT-RB-SA-BUBBLES
100
AcDbLeader
  3
STANDARD
 76
     2
 10
3.07004351166258
 20
4.739519372149677
 30
0.0
 10
3.489504749264829
 20
5.188767018370576
 30
0.0
  0
LEADER
  5
5E0
330
4E0
100
AcDbEntity
  8
TEXT-RB-SA-BUBBLES
100
AcDbLeader
  3
STANDARD
 76
     2
 10
2.714736593986872
 20
4.304400271973999
 30
0.0
 10
2.85321809952523
 20
3.740421111979675
 30
0.0
  0
LEADER
  5
5E1
330
4E0
100
AcDbEntity
  8
TEXT-RB-SA-BUBBLES
100
AcDbLeader
  3
STANDARD
 76
     2
 10
4.153448037418818
 20
4.253786194272331
 30
0.0
 10
4.281810667939578
 20
3.739862084457552
 30
0.0
  0
LEADER
  5
5E3
330
4E0
100
AcDbEntity
  8
TEXT_LEADERS
100
AcDbLeader
  3
STANDARD
 76
     3
 10
2.463486407340884
 20
5.382394205505805
 30
0.0
 10
4.561677452914755
 20
6.981831674201042
 30
0.0
 10
4.742592045524705
 20
6.981831674201041
 30
0.0
  0
LEADER
  5
5E5
330
4E0
100
AcDbEntity
  8
TEXT_LEADERS
100
AcDbLeader
  3
STANDARD
 76
     3
 10
3.666652191149343
 20
6.071942962828736
 30
0.0
 10
4.561677452914756
 20
6.351679556541736
 30
0.0
 10
4.742592045524705
 20
6.351679556541736
 30
0.0
  0
LEADER
  5
5ED
330
4E0
100
AcDbEntity
  8
TEXT-RB-SA-LEADERS
100
AcDbLeader
  3
STANDARD
 76
     3
 10
4.017932499420631
 20
4.258382136956607
 30
0.0
 10
4.385591055386711
 20
3.580751820150731
 30
0.0
 10
4.739504812281426
 20
3.580751820150731
 30
0.0
211
-1.0
221
0.0
231
0.0
210
0.0
220
0.0
230
-1.0
  0
LEADER
  5
5EF
330
4E0
100
AcDbEntity
  8
TEXT-RB-SA-LEADERS
100
AcDbLeader
  3
STANDARD
 76
     3
 10
3.491056190610676
 20
4.299453997650253
 30
0.0
 10
4.150218542068149
 20
3.127911108280883
 30
0.0
 10
4.76295086796932
 20
3.127911108280882
 30
0.0
211
-1.0
221
0.0
231
0.0
210
0.0
220
0.0
230
-1.0
  0
LEADER
  5
5F1
330
4E0
100
AcDbEntity
  8
TEXT-RB-SA-LEADERS
100
AcDbLeader
  3
STANDARD
 76
     3
 10
3.3535824082401
 20
4.678492192174557
 30
0.0
 10
4.47639056599417
 20
5.19861292768504
 30
0.0
 10
4.739504812281426
 20
5.19861292768504
 30
0.0
  0
LEADER
  5
5F4
330
4E0
100
AcDbEntity
  8
TEXT-SA-LEADERS
100
AcDbLeader
  3
STANDARD
 76
     3
 10
3.344382632779167
 20
4.297773529139043
 30
0.0
 10
4.389271454561429
 20
3.147174573623637
 30
0.0
 10
4.570186047171377
 20
3.147174573623637
 30
0.0
211
-1.0
221
0.0
231
0.0
210
0.0
220
0.0
230
-1.0
  0
LEADER
  5
5F6
330
4E0
100
AcDbEntity
  8
TEXT-SA-LEADERS
100
AcDbLeader
  3
STANDARD
 76
     3
 10
4.138569206951111
 20
4.338428171916536
 30
0.0
 10
4.389271454561428
 20
3.883344859191937
 30
0.0
 10
4.570186047171377
 20
3.883344859191937
 30
0.0
211
-1.0
221
0.0
231
0.0
210
0.0
220
0.0
230
-1.0
  0
LEADER
  5
5F8
330
4E0
100
AcDbEntity
  8
TEXT-SA-LEADERS
100
AcDbLeader
  3
STANDARD
 76
     3
 10
4.085429700064084
 20
4.545884898588747
 30
0.0
 10
4.456005505876881
 20
4.669866063290841
 30
0.0
 10
4.570186047171377
 20
4.669866063290841
 30
0.0
  0
LEADER
  5
5FA
330
4E0
100
AcDbEntity
  8
TEXT-SA-LEADERS
100
AcDbLeader
  3
STANDARD
 76
     3
 10
3.365961015122331
 20
4.822416269400537
 30
0.0
 10
4.389271454561427
 20
5.27498625276224
 30
0.0
 10
4.570186047171377
 20
5.274986252762239
 30
0.0
  0
LEADER
  5
5FB
330
4E0
100
AcDbEntity
  8
TEXT-SA-LEADERS
100
AcDbLeader
  3
STANDARD
 76
     3
 10
2.297868029021031
 20
4.921691993501727
 30
0.0
 10
4.389271454561427
 20
5.857365288040917
 30
0.0
 10
4.570186047171377
 20
5.857365288040917
 30
0.0
  0
CIRCLE
  5
60C
330
4E0
100
AcDbEntity
  8
OPTION-VPC
100
AcDbCircle
 10
2.257734159578131
 20
5.959061229580311
 30
0.0
 40
0.0139560404963533
  0
CIRCLE
  5
9DD
330
4E0
100
AcDbEntity
  8
OPTION_RB_SA
100
AcDbCircle
 10
2.257497514811415
 20
4.838678555402531
 30
0.0
 40
0.0813039863675478
  0
CIRCLE
  5
9DE
330
4E0
100
AcDbEntity
  8
OPTION_RB_SA
100
AcDbCircle
 10
2.257497514811415
 20
4.838678555402531
 30
0.0
 40
0.1448741092016655
  0
LINE
  5
9E0
330
4E0
100
AcDbEntity
  8
OPTION_RB_SA
100
AcDbLine
 10
4.345214594769407
 20
4.263328411280355
 30
0.0
 11
4.345214594769407
 21
4.552494451162563
 31
0.0
  0
LINE
  5
9E1
330
4E0
100
AcDbEntity
  8
OPTION_RB_SA
100
AcDbLine
 10
4.345214594769407
 20
4.508020354107992
 30
0.0
 11
4.682311114303281
 21
4.508020354107992
 31
0.0
  0
LINE
  5
9E2
330
4E0
100
AcDbEntity
  8
OPTION_RB_SA
100
AcDbLine
 10
4.345214594769407
 20
4.304400271973999
 30
0.0
 11
4.682311114303281
 21
4.304400271973999
 31
0.0
  0
LWPOLYLINE
  5
9E3
330
4E0
100
AcDbEntity
  8
OPTION_RB_SA
100
AcDbPolyline
 90
        4
 70
     0
 43
0.0
 10
4.682311114303281
 20
4.508020354107992
 42
-0.5107053858875276
 10
4.682311114303292
 20
4.404760074646929
 42
0.5107053858875159
 10
4.682311114303281
 20
4.304400271973999
 42
0.5397302473450178
 10
4.684237283818097
 20
4.406210313040993
 42
0.5397302473450178
  0
LINE
  5
9E6
330
4E0
100
AcDbEntity
  8
OPTION_RB_SA
100
AcDbLine
 10
3.975877543424207
 20
4.339647651330774
 30
0.0
 11
3.921918998359291
 21
4.353620313047453
 31
0.0
  0
LINE
  5
9E7
330
4E0
100
AcDbEntity
  8
OPTION_RB_SA
100
AcDbLine
 10
3.74039588003979
 20
4.377385718289284
 30
0.0
 11
3.74039588003979
 21
4.263328411280355
 31
0.0
  0
ARC
  5
9E9
330
4E0
100
AcDbEntity
  8
OPTION_RB_SA
100
AcDbCircle
 10
4.044285114287804
 20
4.408101379387655
 30
0.0
 40
0.1267079420559205
100
AcDbArc
 50
206.6552486126675
 51
124.308858230473
  0
LINE
  5
9EA
330
4E0
100
AcDbEntity
  8
OPTION_RB_SA
100
AcDbLine
 10
4.017699818340494
 20
4.501153680142324
 30
0.0
 11
3.961008960279409
 21
4.515833879194444
 31
0.0
  0
ARC
  5
9EB
330
4E0
100
AcDbEntity
  8
OPTION_RB_SA
100
AcDbCircle
 10
4.044285114287804
 20
4.408101379387655
 30
0.0
 40
0.0967755580523473
100
AcDbArc
 50
225.019323302424
 51
105.9447835407137
  0
LINE
  5
9EE
330
4E0
100
AcDbEntity
  8
OPTION_RB_SA
100
AcDbLine
 10
4.345214594769407
 20
4.552494451162563
 30
0.0
 11
3.876441523267826
 21
4.552494451162559
 31
0.0
  0
LINE
  5
9EF
330
4E0
100
AcDbEntity
  8
OPTION_RB_SA
100
AcDbLine
 10
3.74039588003979
 20
4.263328411280355
 30
0.0
 11
4.345214594769407
 21
4.263328411280355
 31
0.0
  0
LWPOLYLINE
  5
9F0
330
4E0
100
AcDbEntity
  8
OPTION_RB_SA
100
AcDbPolyline
 90
        4
 70
     0
 43
0.0
 10
1.605940817636364
 20
4.508020354107992
 42
0.5107053858875276
 10
1.605940817636355
 20
4.404760074646929
 42
-0.5107053858875159
 10
1.605940817636364
 20
4.304400271973999
 42
-0.5397302473450178
 10
1.604014648121548
 20
4.406210313040993
 42
-0.5397302473450178
  0
LINE
  5
9F1
330
4E0
100
AcDbEntity
  8
OPTION_RB_SA
100
AcDbLine
 10
3.198294811183052
 20
4.508020354107991
 30
0.0
 11
2.463486407340884
 21
4.508020354107991
 31
0.0
  0
LINE
  5
9F2
330
4E0
100
AcDbEntity
  8
OPTION_RB_SA
100
AcDbLine
 10
3.74039588003979
 20
4.304400271973999
 30
0.0
 11
2.463486407340884
 21
4.304400271973999
 31
0.0
  0
ARC
  5
9F3
330
4E0
100
AcDbEntity
  8
OPTION_RB_SA
100
AcDbCircle
 10
2.257497514811415
 20
4.838678555402531
 30
0.0
 40
0.1448741092016656
100
AcDbArc
 50
127.0611407962445
 51
52.93885920375985
  0
LINE
  5
9F4
330
4E0
100
AcDbEntity
  8
OPTION_SA
100
AcDbLine
 10
2.051508622281948
 20
4.501407719957073
 30
0.0
 11
1.56747900540386
 21
4.501407719957073
 31
0.0
  0
LINE
  5
9F5
330
4E0
100
AcDbEntity
  8
OPTION_SA
100
AcDbLine
 10
2.051508622281948
 20
4.297773529139043
 30
0.0
 11
1.56747900540386
 21
4.297773529139043
 31
0.0
  0
LINE
  5
9F6
330
4E0
100
AcDbEntity
  8
OPTION_SA
100
AcDbLine
 10
2.463486407340884
 20
4.736961557606556
 30
0.0
 11
2.463486407340884
 21
4.651463634301667
 31
0.0
  0
LINE
  5
9F7
330
4E0
100
AcDbEntity
  8
OPTION_SA
100
AcDbLine
 10
2.261931897926949
 20
4.752857216190414
 30
0.0
 11
2.425306056443071
 21
4.752885323168722
 31
0.0
  0
LINE
  5
9F8
330
4E0
100
AcDbEntity
  8
OPTION_SA
100
AcDbLine
 10
2.305405012842518
 20
4.784659066456179
 30
0.0
 11
2.265596747124286
 21
4.837336143898046
 31
0.0
  0
LINE
  5
9F9
330
4E0
100
AcDbEntity
  8
OPTION_SA
100
AcDbLine
 10
2.265596747124286
 20
4.837336143898046
 30
0.0
 11
2.303147933219207
 21
4.887877092830456
 31
0.0
  0
LINE
  5
9FA
330
4E0
100
AcDbEntity
  8
OPTION_SA
100
AcDbLine
 10
2.2663081185262
 20
4.921534995837734
 30
0.0
 11
2.425976743079806
 21
4.922329282027864
 31
0.0
  0
ARC
  5
9FB
330
4E0
100
AcDbEntity
  8
OPTION_SA
100
AcDbCircle
 10
2.265545521244327
 20
4.837286261299223
 30
0.0
 40
0.0842521858823541
100
AcDbArc
 50
89.48138790822198
 51
271.316677525234
  0
ARC
  5
9FD
330
4E0
100
AcDbEntity
  8
OPTION_SA
100
AcDbCircle
 10
2.257497514811415
 20
4.838678555402531
 30
0.0
 40
0.1384171597650545
100
AcDbArc
 50
37.0315052010731
 51
321.6918963541503
  0
LINE
  5
9FE
330
4E0
100
AcDbEntity
  8
OPTION_SA
100
AcDbLine
 10
4.389857354192777
 20
4.545884898588751
 30
0.0
 11
4.020799778556678
 21
4.545884898588746
 31
0.0
  0
LINE
  5
9FF
330
4E0
100
AcDbEntity
  8
OPTION_SA
100
AcDbLine
 10
3.926609397485334
 20
4.37717745996996
 30
0.0
 11
4.024989663210549
 21
4.553389536536086
 31
0.0
  0
LINE
  5
A00
330
4E0
100
AcDbEntity
  8
OPTION_SA
100
AcDbLine
 10
4.389857354192777
 20
4.256698822606718
 30
0.0
 11
4.389857354192777
 21
4.545884898588751
 31
0.0
  0
LINE
  5
A01
330
4E0
100
AcDbEntity
  8
OPTION_SA
100
AcDbLine
 10
3.784996732024281
 20
4.256698822606718
 30
0.0
 11
4.389857354192777
 21
4.256698822606718
 31
0.0
  0
LINE
  5
A02
330
4E0
100
AcDbEntity
  8
OPTION_SA
100
AcDbLine
 10
3.784996732024281
 20
4.449259009082497
 30
0.0
 11
3.784996732024281
 21
4.256698822606718
 31
0.0
  0
LINE
  5
A03
330
4E0
100
AcDbEntity
  8
OPTION_SA
100
AcDbLine
 10
4.079213622061875
 20
4.466793463266252
 30
0.0
 11
4.088907022531302
 21
4.401481821925299
 31
0.0
  0
LINE
  5
A04
330
4E0
100
AcDbEntity
  8
OPTION_SA
100
AcDbLine
 10
4.088907022531302
 20
4.401481821925299
 30
0.0
 11
4.031562611716934
 21
4.375479944214703
 31
0.0
  0
LINE
  5
A05
330
4E0
100
AcDbEntity
  8
OPTION_SA
100
AcDbLine
 10
4.389857354192777
 20
4.501407719957073
 30
0.0
 11
4.660521969603289
 21
4.501407719957073
 31
0.0
  0
LINE
  5
A06
330
4E0
100
AcDbEntity
  8
OPTION_SA
100
AcDbLine
 10
4.389857354192777
 20
4.297773529139043
 30
0.0
 11
4.660521969603289
 21
4.297773529139043
 31
0.0
  0
LWPOLYLINE
  5
A07
330
4E0
100
AcDbEntity
  8
OPTION_SA
100
AcDbPolyline
 90
        4
 70
     0
 43
0.0
 10
4.660521969603289
 20
4.501407719957073
 42
-0.5107053858875276
 10
4.660521969603298
 20
4.39814028566805
 42
0.5107053858875159
 10
4.660521969603289
 20
4.297773529139043
 42
0.5397302473450178
 10
4.662448272580958
 20
4.399590624548055
 42
0.5397302473450178
  0
LINE
  5
A08
330
4E0
100
AcDbEntity
  8
OPTION_SA
100
AcDbLine
 10
3.669052389493839
 20
4.501407719957073
 30
0.0
 11
2.463486407340884
 21
4.501407719957073
 31
0.0
  0
LINE
  5
A09
330
4E0
100
AcDbEntity
  8
OPTION_SA
100
AcDbLine
 10
3.784996732024281
 20
4.297773529139043
 30
0.0
 11
2.463486407340884
 21
4.297773529139043
 31
0.0
  0
LINE
  5
A0A
330
4E0
100
AcDbEntity
  8
OPTION_SA
100
AcDbLine
 10
4.047930405047527
 20
4.327923208990979
 30
0.0
 11
3.934053121272477
 21
4.389191331279405
 31
0.0
  0
LINE
  5
A0B
330
4E0
100
AcDbEntity
  8
OPTION_SA
100
AcDbLine
 10
4.132610070698554
 20
4.473870798483623
 30
0.0
 11
4.016096133926668
 21
4.537460048527877
 31
0.0
  0
ARC
  5
A0C
330
4E0
100
AcDbEntity
  8
OPTION_SA
100
AcDbCircle
 10
4.088907022531302
 20
4.401481821925299
 30
0.0
 40
0.084300894484616
100
AcDbArc
 50
234.4756814862676
 51
62.64469113840124
  0
ARC
  5
A0D
330
4E0
100
AcDbEntity
  8
OPTION_SA
100
AcDbCircle
 10
4.088907022531302
 20
4.401481821925299
 30
0.0
 40
0.1089368104363122
100
AcDbArc
 50
202.3302578892592
 51
100.5273986155499
  0
LWPOLYLINE
  5
A0E
330
4E0
100
AcDbEntity
  8
OPTION_SA
100
AcDbPolyline
 90
        4
 70
     0
 43
0.0
 10
1.56747900540386
 20
4.501407719957073
 42
0.5107053858875276
 10
1.56747900540385
 20
4.39814028566805
 42
-0.5107053858875159
 10
1.56747900540386
 20
4.297773529139043
 42
-0.5397302473450178
 10
1.565552702426192
 20
4.399590624548055
 42
-0.5397302473450178
  0
ARC
  5
A0F
330
4E0
100
AcDbEntity
  8
OPTION_SA
100
AcDbCircle
 10
2.512455344911339
 20
1.789885820524351
 30
0.0
 40
3.150351226838607
100
AcDbArc
 50
61.30701558492705
 51
91.57178904497753
  0
ARC
  5
A10
330
4E0
100
AcDbEntity
  8
OPTION_SA
100
AcDbCircle
 10
2.509059952454805
 20
1.767383285469295
 30
0.0
 40
2.969927955753129
100
AcDbArc
 50
61.49072909609822
 51
91.61727251044183
  0
LINE
  5
A11
330
4E0
100
AcDbEntity
  8
OPTION_SA
100
AcDbLine
 10
2.425239728945115
 20
4.736128177253491
 30
0.0
 11
2.4260429331259
 21
4.939051701759084
 31
0.0
  0
LINE
  5
A12
330
4E0
100
AcDbEntity
  8
IMAGE
100
AcDbLine
 10
2.384233080830652
 20
6.030189766126832
 30
0.0
 11
2.384233080830652
 21
5.894244169880148
 31
0.0
  0
LINE
  5
A13
330
4E0
100
AcDbEntity
  8
IMAGE
100
AcDbLine
 10
2.34576015779122
 20
6.030189766126832
 30
0.0
 11
2.34576015779122
 21
5.894244169880148
 31
0.0
  0
LINE
  5
A14
330
4E0
100
AcDbEntity
  8
IMAGE
100
AcDbLine
 10
2.173632940620805
 20
6.030189766126832
 30
0.0
 11
2.173632940620805
 21
5.894244169880148
 31
0.0
  0
LINE
  5
A15
330
4E0
100
AcDbEntity
  8
IMAGE
100
AcDbLine
 10
2.136451929911279
 20
6.030189766126832
 30
0.0
 11
2.136451929911279
 21
5.894244169880148
 31
0.0
  0
LINE
  5
A16
330
4E0
100
AcDbEntity
  8
IMAGE
100
AcDbLine
 10
2.051508622281948
 20
5.894244169880148
 30
0.0
 11
2.463486407340884
 21
5.894244169880148
 31
0.0
  0
LINE
  5
A17
330
4E0
100
AcDbEntity
  8
IMAGE
100
AcDbLine
 10
1.978432634395806
 20
6.030189766126832
 30
0.0
 11
2.536562395227027
 21
6.030189766126832
 31
0.0
  0
LINE
  5
A18
330
4E0
100
AcDbEntity
  8
IMAGE
100
AcDbLine
 10
1.904070612976759
 20
6.07669344054426
 30
0.0
 11
2.610924416646074
 21
6.07669344054426
 31
0.0
  0
LINE
  5
A19
330
4E0
100
AcDbEntity
  8
IMAGE
100
AcDbLine
 10
2.463486407340884
 20
5.894244169880148
 30
0.0
 11
2.536562395227027
 21
5.894244169880148
 31
0.0
  0
LINE
  5
A1A
330
4E0
100
AcDbEntity
  8
IMAGE
100
AcDbLine
 10
2.536562395227027
 20
5.894244169880148
 30
0.0
 11
2.536562395227027
 21
6.030189766126832
 31
0.0
  0
LINE
  5
A1B
330
4E0
100
AcDbEntity
  8
IMAGE
100
AcDbLine
 10
2.536562395227027
 20
6.030189766126832
 30
0.0
 11
2.610924416646074
 21
6.030189766126832
 31
0.0
  0
LINE
  5
A1C
330
4E0
100
AcDbEntity
  8
IMAGE
100
AcDbLine
 10
2.610924416646074
 20
6.030189766126832
 30
0.0
 11
2.610924416646074
 21
6.07669344054426
 31
0.0
  0
LINE
  5
A1D
330
4E0
100
AcDbEntity
  8
IMAGE
100
AcDbLine
 10
2.610924416646074
 20
6.030189766126828
 30
0.0
 11
2.536562395227027
 21
5.894244169880148
 31
0.0
  0
LINE
  5
A1E
330
4E0
100
AcDbEntity
  8
IMAGE
100
AcDbLine
 10
1.904070612976758
 20
6.030189766126828
 30
0.0
 11
1.978432634395806
 21
5.894244169880148
 31
0.0
  0
LINE
  5
A1F
330
4E0
100
AcDbEntity
  8
IMAGE
100
AcDbLine
 10
1.904070612976759
 20
6.030189766126832
 30
0.0
 11
1.904070612976759
 21
6.07669344054426
 31
0.0
  0
LINE
  5
A20
330
4E0
100
AcDbEntity
  8
IMAGE
100
AcDbLine
 10
1.978432634395806
 20
6.030189766126832
 30
0.0
 11
1.904070612976759
 21
6.030189766126832
 31
0.0
  0
LINE
  5
A21
330
4E0
100
AcDbEntity
  8
IMAGE
100
AcDbLine
 10
1.978432634395806
 20
5.894244169880148
 30
0.0
 11
1.978432634395806
 21
6.030189766126832
 31
0.0
  0
LINE
  5
A22
330
4E0
100
AcDbEntity
  8
IMAGE
100
AcDbLine
 10
2.051508622281948
 20
5.894244169880148
 30
0.0
 11
1.978432634395806
 21
5.894244169880148
 31
0.0
  0
LINE
  5
A23
330
4E0
100
AcDbEntity
  8
IMAGE
100
AcDbLine
 10
2.463486407340884
 20
5.894244169880148
 30
0.0
 11
2.463486407340884
 21
5.463715292233653
 31
0.0
  0
LINE
  5
A24
330
4E0
100
AcDbEntity
  8
IMAGE
100
AcDbLine
 10
2.463486407340884
 20
5.463715292233653
 30
0.0
 11
2.463486407340884
 21
4.978225891689693
 31
0.0
  0
LINE
  5
A29
330
4E0
100
AcDbEntity
  8
IMAGE
100
AcDbLine
 10
2.051508622281948
 20
5.894244169880148
 30
0.0
 11
2.051508622281948
 21
5.463715292233653
 31
0.0
  0
LINE
  5
A2D
330
4E0
100
AcDbEntity
  8
IMAGE
100
AcDbLine
 10
2.051508622281948
 20
5.869294721340268
 30
0.0
 11
2.463486407340884
 21
5.869294721340268
 31
0.0
  0
LINE
  5
A2E
330
4E0
100
AcDbEntity
  8
IMAGE
100
AcDbLine
 10
2.463486407340884
 20
5.850938187084644
 30
0.0
 11
2.051508622281948
 21
5.850938187084644
 31
0.0
  0
LINE
  5
A2F
330
4E0
100
AcDbEntity
  8
IMAGE
100
AcDbLine
 10
2.463486407340884
 20
4.978225891689693
 30
0.0
 11
2.463486407340884
 21
4.939856438736009
 31
0.0
  0
ARC
  5
A39
330
4E0
100
AcDbEntity
  8
IMAGE
100
AcDbCircle
 10
3.619157259155788
 20
6.911435967947324
 30
0.0
 40
0.1566980695398199
100
AcDbArc
 50
98.53076560994793
 51
187.7294390983635
  0
ARC
  5
A3A
330
4E0
100
AcDbEntity
  8
IMAGE
100
AcDbCircle
 10
3.44063825031996
 20
7.045325224574196
 30
0.0
 40
0.1566980695398199
100
AcDbArc
 50
278.5307656099478
 51
7.729439098363577
  0
ARC
  5
A3B
330
4E0
100
AcDbEntity
  8
IMAGE
100
AcDbCircle
 10
3.19666227157766
 20
6.805812221052792
 30
0.0
 40
0.1566980695398199
100
AcDbArc
 50
98.53076560994793
 51
187.7294390983635
  0
ARC
  5
A3C
330
4E0
100
AcDbEntity
  8
IMAGE
100
AcDbCircle
 10
3.018143262741832
 20
6.939701477679665
 30
0.0
 40
0.1566980695398199
100
AcDbArc
 50
278.5307656099478
 51
7.729439098363577
  0
ARC
  5
A3D
330
4E0
100
AcDbEntity
  8
IMAGE
100
AcDbCircle
 10
3.309267927328936
 20
6.575814019847142
 30
0.0
 40
0.1566980695398199
100
AcDbArc
 50
159.7199718669747
 51
248.9186453553905
  0
ARC
  5
A3E
330
4E0
100
AcDbEntity
  8
IMAGE
100
AcDbCircle
 10
3.105920373122854
 20
6.483916567465548
 30
0.0
 40
0.1566980695398199
100
AcDbArc
 50
339.7199718669747
 51
68.91864535539045
  0
ARC
  5
A3F
330
4E0
100
AcDbEntity
  8
IMAGE
100
AcDbCircle
 10
3.627959238063665
 20
6.673782537434628
 30
0.0
 40
0.1566980695398199
100
AcDbArc
 50
98.53076560994793
 51
187.7294390983635
  0
ARC
  5
A40
330
4E0
100
AcDbEntity
  8
IMAGE
100
AcDbCircle
 10
3.449440229227836
 20
6.807671794061499
 30
0.0
 40
0.1566980695398199
100
AcDbArc
 50
278.5307656099478
 51
7.729439098363577
  0
ARC
  5
A41
330
4E0
100
AcDbEntity
  8
IMAGE
100
AcDbCircle
 10
2.814253758868202
 20
6.929433774633619
 30
0.0
 40
0.1566980695398199
100
AcDbArc
 50
143.5307656099477
 51
232.7294390983634
  0
ARC
  5
A42
330
4E0
100
AcDbEntity
  8
IMAGE
100
AcDbCircle
 10
2.5933477558608
 20
6.897875774203991
 30
0.0
 40
0.1566980695398199
100
AcDbArc
 50
323.5307656099477
 51
52.72943909836342
  0
ARC
  5
A43
330
4E0
100
AcDbEntity
  8
IMAGE
100
AcDbCircle
 10
2.959008841064963
 20
6.2512875498565
 30
0.0
 40
0.1566980695398199
100
AcDbArc
 50
98.53076560994793
 51
187.7294390983635
  0
ARC
  5
A44
330
4E0
100
AcDbEntity
  8
IMAGE
100
AcDbCircle
 10
2.780489832229134
 20
6.385176806483371
 30
0.0
 40
0.1566980695398199
100
AcDbArc
 50
278.5307656099478
 51
7.729439098363577
  0
ARC
  5
A45
330
4E0
100
AcDbEntity
  8
IMAGE
100
AcDbCircle
 10
3.302286018472192
 20
6.128059845146212
 30
0.0
 40
0.1566980695398199
100
AcDbArc
 50
98.53076560994793
 51
187.7294390983635
  0
ARC
  5
A46
330
4E0
100
AcDbEntity
  8
IMAGE
100
AcDbCircle
 10
3.123767009636364
 20
6.261949101773084
 30
0.0
 40
0.1566980695398199
100
AcDbArc
 50
278.5307656099478
 51
7.729439098363577
  0
ARC
  5
A47
330
4E0
100
AcDbEntity
  8
IMAGE
100
AcDbCircle
 10
2.85946496370228
 20
6.695164061254613
 30
0.0
 40
0.1566980695398199
100
AcDbArc
 50
339.7199718669747
 51
68.91864535539045
  0
ARC
  5
A48
330
4E0
100
AcDbEntity
  8
IMAGE
100
AcDbCircle
 10
3.062812517908362
 20
6.787061513636207
 30
0.0
 40
0.1566980695398199
100
AcDbArc
 50
159.7199718669747
 51
248.9186453553905
  0
ARC
  5
A49
330
4E0
100
AcDbEntity
  8
IMAGE
100
AcDbCircle
 10
2.877068921518035
 20
6.976827386306697
 30
0.0
 40
0.1566980695398199
100
AcDbArc
 50
339.7199718669747
 51
68.91864535539045
  0
ARC
  5
A4A
330
4E0
100
AcDbEntity
  8
IMAGE
100
AcDbCircle
 10
3.080416475724117
 20
7.068724838688292
 30
0.0
 40
0.1566980695398199
100
AcDbArc
 50
159.7199718669747
 51
248.9186453553905
  0
ARC
  5
A4B
330
4E0
100
AcDbEntity
  8
IMAGE
100
AcDbCircle
 10
3.317167866911918
 20
6.351886883847384
 30
0.0
 40
0.1566980695398199
100
AcDbArc
 50
339.7199718669747
 51
68.91864535539045
  0
ARC
  5
A4C
330
4E0
100
AcDbEntity
  8
IMAGE
100
AcDbCircle
 10
3.520515421118001
 20
6.443784336228977
 30
0.0
 40
0.1566980695398199
100
AcDbArc
 50
159.7199718669747
 51
248.9186453553905
  0
ARC
  5
A4D
330
4E0
100
AcDbEntity
  8
IMAGE
100
AcDbCircle
 10
3.264355993464652
 20
6.281471052584362
 30
0.0
 40
0.1566980695398199
100
AcDbArc
 50
339.7199718669747
 51
68.91864535539045
  0
ARC
  5
A4E
330
4E0
100
AcDbEntity
  8
IMAGE
100
AcDbCircle
 10
3.467703547670735
 20
6.373368504965957
 30
0.0
 40
0.1566980695398199
100
AcDbArc
 50
159.7199718669747
 51
248.9186453553905
  0
ARC
  5
A4F
330
4E0
100
AcDbEntity
  8
IMAGE
100
AcDbCircle
 10
3.431593592714328
 20
6.739173955794
 30
0.0
 40
0.1566980695398199
100
AcDbArc
 50
339.7199718669747
 51
68.91864535539045
  0
ARC
  5
A50
330
4E0
100
AcDbEntity
  8
IMAGE
100
AcDbCircle
 10
3.63494114692041
 20
6.831071408175595
 30
0.0
 40
0.1566980695398199
100
AcDbArc
 50
159.7199718669747
 51
248.9186453553905
  0
ARC
  5
A51
330
4E0
100
AcDbEntity
  8
IMAGE
100
AcDbCircle
 10
3.132326309846488
 20
6.70396604016249
 30
0.0
 40
0.1566980695398199
100
AcDbArc
 50
339.7199718669747
 51
68.91864535539045
  0
ARC
  5
A52
330
4E0
100
AcDbEntity
  8
IMAGE
100
AcDbCircle
 10
3.33567386405257
 20
6.795863492544085
 30
0.0
 40
0.1566980695398199
100
AcDbArc
 50
159.7199718669747
 51
248.9186453553905
  0
ARC
  5
A53
330
4E0
100
AcDbEntity
  8
IMAGE
100
AcDbCircle
 10
3.264355993464652
 20
6.959223428490942
 30
0.0
 40
0.1566980695398199
100
AcDbArc
 50
339.7199718669747
 51
68.91864535539045
  0
ARC
  5
A54
330
4E0
100
AcDbEntity
  8
IMAGE
100
AcDbCircle
 10
3.467703547670735
 20
7.051120880872535
 30
0.0
 40
0.1566980695398199
100
AcDbArc
 50
159.7199718669747
 51
248.9186453553905
  0
ARC
  5
A55
330
4E0
100
AcDbEntity
  8
IMAGE
100
AcDbCircle
 10
2.973890689504689
 20
6.756777913609757
 30
0.0
 40
0.1566980695398199
100
AcDbArc
 50
339.7199718669747
 51
68.91864535539045
  0
ARC
  5
A56
330
4E0
100
AcDbEntity
  8
IMAGE
100
AcDbCircle
 10
3.177238243710772
 20
6.84867536599135
 30
0.0
 40
0.1566980695398199
100
AcDbArc
 50
159.7199718669747
 51
248.9186453553905
  0
ARC
  5
A57
330
4E0
100
AcDbEntity
  8
IMAGE
100
AcDbCircle
 10
2.733645940703161
 20
6.464236823033494
 30
0.0
 40
0.1566980695398199
100
AcDbArc
 50
339.7199718669747
 51
68.91864535539045
  0
ARC
  5
A58
330
4E0
100
AcDbEntity
  8
IMAGE
100
AcDbCircle
 10
2.936993494909243
 20
6.556134275415087
 30
0.0
 40
0.1566980695398199
100
AcDbArc
 50
159.7199718669747
 51
248.9186453553905
  0
ARC
  5
A59
330
4E0
100
AcDbEntity
  8
IMAGE
100
AcDbCircle
 10
2.912276837149546
 20
6.343084904939506
 30
0.0
 40
0.1566980695398199
100
AcDbArc
 50
339.7199718669747
 51
68.91864535539045
  0
ARC
  5
A5A
330
4E0
100
AcDbEntity
  8
IMAGE
100
AcDbCircle
 10
3.115624391355628
 20
6.434982357321099
 30
0.0
 40
0.1566980695398199
100
AcDbArc
 50
159.7199718669747
 51
248.9186453553905
  0
ARC
  5
A5B
330
4E0
100
AcDbEntity
  8
IMAGE
100
AcDbCircle
 10
2.973890689504689
 20
6.492718546373425
 30
0.0
 40
0.1566980695398199
100
AcDbArc
 50
339.7199718669747
 51
68.91864535539045
  0
ARC
  5
A5C
330
4E0
100
AcDbEntity
  8
IMAGE
100
AcDbCircle
 10
3.177238243710772
 20
6.58461599875502
 30
0.0
 40
0.1566980695398199
100
AcDbArc
 50
159.7199718669747
 51
248.9186453553905
  0
ARC
  5
A5D
330
4E0
100
AcDbEntity
  8
IMAGE
100
AcDbCircle
 10
3.334771824727673
 20
6.545530419820692
 30
0.0
 40
0.1566980695398199
100
AcDbArc
 50
339.7199718669747
 51
68.91864535539045
  0
ARC
  5
A5E
330
4E0
100
AcDbEntity
  8
IMAGE
100
AcDbCircle
 10
3.538119378933756
 20
6.637427872202287
 30
0.0
 40
0.1566980695398199
100
AcDbArc
 50
159.7199718669747
 51
248.9186453553905
  0
ARC
  5
A5F
330
4E0
100
AcDbEntity
  8
IMAGE
100
AcDbCircle
 10
3.484405466161593
 20
6.316678968215872
 30
0.0
 40
0.1566980695398199
100
AcDbArc
 50
339.7199718669747
 51
68.91864535539045
  0
ARC
  5
A60
330
4E0
100
AcDbEntity
  8
IMAGE
100
AcDbCircle
 10
3.687753020367676
 20
6.408576420597467
 30
0.0
 40
0.1566980695398199
100
AcDbArc
 50
159.7199718669747
 51
248.9186453553905
  0
ARC
  5
A61
330
4E0
100
AcDbEntity
  8
IMAGE
100
AcDbCircle
 10
2.751783376202598
 20
6.906677753111869
 30
0.0
 40
0.1566980695398199
100
AcDbArc
 50
323.5307656099477
 51
52.72943909836342
  0
ARC
  5
A62
330
4E0
100
AcDbEntity
  8
IMAGE
100
AcDbCircle
 10
2.972689379210001
 20
6.938235753541497
 30
0.0
 40
0.1566980695398199
100
AcDbArc
 50
143.5307656099477
 51
232.7294390983634
  0
ARC
  5
A63
330
4E0
100
AcDbEntity
  8
IMAGE
100
AcDbCircle
 10
3.209486279412237
 20
6.818657964033094
 30
0.0
 40
0.1566980695398199
100
AcDbArc
 50
323.5307656099477
 51
52.72943909836342
  0
ARC
  5
A64
330
4E0
100
AcDbEntity
  8
IMAGE
100
AcDbCircle
 10
3.43039228241964
 20
6.85021596446272
 30
0.0
 40
0.1566980695398199
100
AcDbArc
 50
143.5307656099477
 51
232.7294390983634
  0
ARC
  5
A65
330
4E0
100
AcDbEntity
  8
IMAGE
100
AcDbCircle
 10
3.086258574701949
 20
7.021103478914279
 30
0.0
 40
0.1566980695398199
100
AcDbArc
 50
323.5307656099477
 51
52.72943909836342
  0
ARC
  5
A66
330
4E0
100
AcDbEntity
  8
IMAGE
100
AcDbCircle
 10
3.307164577709353
 20
7.052661479343908
 30
0.0
 40
0.1566980695398199
100
AcDbArc
 50
143.5307656099477
 51
232.7294390983634
  0
ARC
  5
A67
330
4E0
100
AcDbEntity
  8
IMAGE
100
AcDbCircle
 10
3.332713984122525
 20
7.100321289085179
 30
0.0
 40
0.1566980695398199
100
AcDbArc
 50
323.5307656099477
 51
52.72943909836342
  0
ARC
  5
A68
330
4E0
100
AcDbEntity
  8
IMAGE
100
AcDbCircle
 10
3.553619987129926
 20
7.131879289514805
 30
0.0
 40
0.1566980695398199
100
AcDbArc
 50
143.5307656099477
 51
232.7294390983634
  0
ARC
  5
A69
330
4E0
100
AcDbEntity
  8
IMAGE
100
AcDbCircle
 10
3.473545646648567
 20
6.536994638981007
 30
0.0
 40
0.1566980695398199
100
AcDbArc
 50
323.5307656099477
 51
52.72943909836342
  0
ARC
  5
A6A
330
4E0
100
AcDbEntity
  8
IMAGE
100
AcDbCircle
 10
3.694451649655968
 20
6.568552639410635
 30
0.0
 40
0.1566980695398199
100
AcDbArc
 50
143.5307656099477
 51
232.7294390983634
  0
ARC
  5
A6B
330
4E0
100
AcDbEntity
  8
IMAGE
100
AcDbCircle
 10
3.332713984122525
 20
6.220123398297411
 30
0.0
 40
0.1566980695398199
100
AcDbArc
 50
323.5307656099477
 51
52.72943909836342
  0
ARC
  5
A6C
330
4E0
100
AcDbEntity
  8
IMAGE
100
AcDbCircle
 10
3.553619987129926
 20
6.251681398727039
 30
0.0
 40
0.1566980695398199
100
AcDbArc
 50
143.5307656099477
 51
232.7294390983634
  0
ARC
  5
A6D
330
4E0
100
AcDbEntity
  8
IMAGE
100
AcDbCircle
 10
3.174278363780726
 20
6.167311524850146
 30
0.0
 40
0.1566980695398199
100
AcDbArc
 50
323.5307656099477
 51
52.72943909836342
  0
ARC
  5
A6E
330
4E0
100
AcDbEntity
  8
IMAGE
100
AcDbCircle
 10
3.395184366788128
 20
6.198869525279774
 30
0.0
 40
0.1566980695398199
100
AcDbArc
 50
143.5307656099477
 51
232.7294390983634
  0
ARC
  5
A6F
330
4E0
100
AcDbEntity
  8
IMAGE
100
AcDbCircle
 10
2.883813059820762
 20
6.184915482665901
 30
0.0
 40
0.1566980695398199
100
AcDbArc
 50
323.5307656099477
 51
52.72943909836342
  0
ARC
  5
A70
330
4E0
100
AcDbEntity
  8
IMAGE
100
AcDbCircle
 10
3.104719062828166
 20
6.216473483095529
 30
0.0
 40
0.1566980695398199
100
AcDbArc
 50
143.5307656099477
 51
232.7294390983634
  0
ARC
  5
A71
330
4E0
100
AcDbEntity
  8
IMAGE
100
AcDbCircle
 10
3.068654616886194
 20
6.325747145191944
 30
0.0
 40
0.1566980695398199
100
AcDbArc
 50
323.5307656099477
 51
52.72943909836342
  0
ARC
  5
A72
330
4E0
100
AcDbEntity
  8
IMAGE
100
AcDbCircle
 10
3.289560619893597
 20
6.357305145621571
 30
0.0
 40
0.1566980695398199
100
AcDbArc
 50
143.5307656099477
 51
232.7294390983634
  0
ARC
  5
A73
330
4E0
100
AcDbEntity
  8
IMAGE
100
AcDbCircle
 10
3.191882321596481
 20
6.545796617888885
 30
0.0
 40
0.1566980695398199
100
AcDbArc
 50
323.5307656099477
 51
52.72943909836342
  0
ARC
  5
A74
330
4E0
100
AcDbEntity
  8
IMAGE
100
AcDbCircle
 10
3.412788324603883
 20
6.577354618318513
 30
0.0
 40
0.1566980695398199
100
AcDbArc
 50
143.5307656099477
 51
232.7294390983634
  0
ARC
  5
A75
330
4E0
100
AcDbEntity
  8
IMAGE
100
AcDbCircle
 10
3.262298152859502
 20
6.704232238230683
 30
0.0
 40
0.1566980695398199
100
AcDbArc
 50
323.5307656099477
 51
52.72943909836342
  0
ARC
  5
A76
330
4E0
100
AcDbEntity
  8
IMAGE
100
AcDbCircle
 10
3.483204155866906
 20
6.735790238660311
 30
0.0
 40
0.1566980695398199
100
AcDbArc
 50
143.5307656099477
 51
232.7294390983634
  0
ARC
  5
A77
330
4E0
100
AcDbEntity
  8
IMAGE
100
AcDbCircle
 10
3.306308047398891
 20
6.792252027309459
 30
0.0
 40
0.1566980695398199
100
AcDbArc
 50
323.5307656099477
 51
52.72943909836342
  0
ARC
  5
A78
330
4E0
100
AcDbEntity
  8
IMAGE
100
AcDbCircle
 10
3.527214050406294
 20
6.823810027739088
 30
0.0
 40
0.1566980695398199
100
AcDbArc
 50
143.5307656099477
 51
232.7294390983634
  0
ARC
  5
A79
330
4E0
100
AcDbEntity
  8
IMAGE
100
AcDbCircle
 10
2.989436806715295
 20
6.660222343691294
 30
0.0
 40
0.1566980695398199
100
AcDbArc
 50
323.5307656099477
 51
52.72943909836342
  0
ARC
  5
A7A
330
4E0
100
AcDbEntity
  8
IMAGE
100
AcDbCircle
 10
3.210342809722698
 20
6.691780344120922
 30
0.0
 40
0.1566980695398199
100
AcDbArc
 50
143.5307656099477
 51
232.7294390983634
  0
ARC
  5
A7B
330
4E0
100
AcDbEntity
  8
IMAGE
100
AcDbCircle
 10
2.848605144189253
 20
6.536994638981007
 30
0.0
 40
0.1566980695398199
100
AcDbArc
 50
323.5307656099477
 51
52.72943909836342
  0
ARC
  5
A7C
330
4E0
100
AcDbEntity
  8
IMAGE
100
AcDbCircle
 10
3.069511147196655
 20
6.568552639410635
 30
0.0
 40
0.1566980695398199
100
AcDbArc
 50
143.5307656099477
 51
232.7294390983634
  0
ARC
  5
A7D
330
4E0
100
AcDbEntity
  8
IMAGE
100
AcDbCircle
 10
2.769387334018353
 20
6.184915482665901
 30
0.0
 40
0.1566980695398199
100
AcDbArc
 50
323.5307656099477
 51
52.72943909836342
  0
ARC
  5
A7E
330
4E0
100
AcDbEntity
  8
IMAGE
100
AcDbCircle
 10
2.990293337025756
 20
6.216473483095529
 30
0.0
 40
0.1566980695398199
100
AcDbArc
 50
143.5307656099477
 51
232.7294390983634
  0
ARC
  5
A7F
330
4E0
100
AcDbEntity
  8
IMAGE
100
AcDbCircle
 10
2.619753692584433
 20
6.202519440481656
 30
0.0
 40
0.1566980695398199
100
AcDbArc
 50
323.5307656099477
 51
52.72943909836342
  0
ARC
  5
A80
330
4E0
100
AcDbEntity
  8
IMAGE
100
AcDbCircle
 10
2.840659695591836
 20
6.234077440911284
 30
0.0
 40
0.1566980695398199
100
AcDbArc
 50
143.5307656099477
 51
232.7294390983634
  0
ARC
  5
A81
330
4E0
100
AcDbEntity
  8
IMAGE
100
AcDbCircle
 10
2.663763587123821
 20
6.325747145191944
 30
0.0
 40
0.1566980695398199
100
AcDbArc
 50
323.5307656099477
 51
52.72943909836342
  0
ARC
  5
A82
330
4E0
100
AcDbEntity
  8
IMAGE
100
AcDbCircle
 10
2.884669590131224
 20
6.357305145621571
 30
0.0
 40
0.1566980695398199
100
AcDbArc
 50
143.5307656099477
 51
232.7294390983634
  0
ARC
  5
A83
330
4E0
100
AcDbEntity
  8
IMAGE
100
AcDbCircle
 10
2.751783376202598
 20
6.721836196046438
 30
0.0
 40
0.1566980695398199
100
AcDbArc
 50
323.5307656099477
 51
52.72943909836342
  0
ARC
  5
A84
330
4E0
100
AcDbEntity
  8
IMAGE
100
AcDbCircle
 10
2.972689379210001
 20
6.753394196476066
 30
0.0
 40
0.1566980695398199
100
AcDbArc
 50
143.5307656099477
 51
232.7294390983634
  0
ARC
  5
A85
330
4E0
100
AcDbEntity
  8
IMAGE
100
AcDbCircle
 10
3.473545646648567
 20
6.880271816388236
 30
0.0
 40
0.1566980695398199
100
AcDbArc
 50
323.5307656099477
 51
52.72943909836342
  0
ARC
  5
A86
330
4E0
100
AcDbEntity
  8
IMAGE
100
AcDbCircle
 10
3.694451649655968
 20
6.911829816817864
 30
0.0
 40
0.1566980695398199
100
AcDbArc
 50
143.5307656099477
 51
232.7294390983634
  0
ARC
  5
A87
330
4E0
100
AcDbEntity
  8
IMAGE
100
AcDbCircle
 10
2.945426912175907
 20
7.038707436730034
 30
0.0
 40
0.1566980695398199
100
AcDbArc
 50
323.5307656099477
 51
52.72943909836342
  0
ARC
  5
A88
330
4E0
100
AcDbEntity
  8
IMAGE
100
AcDbCircle
 10
3.16633291518331
 20
7.070265437159663
 30
0.0
 40
0.1566980695398199
100
AcDbArc
 50
143.5307656099477
 51
232.7294390983634
  0
ARC
  5
A89
330
4E0
100
AcDbEntity
  8
IMAGE
100
AcDbCircle
 10
3.429535752109179
 20
6.193717461573778
 30
0.0
 40
0.1566980695398199
100
AcDbArc
 50
323.5307656099477
 51
52.72943909836342
  0
ARC
  5
A8A
330
4E0
100
AcDbEntity
  8
IMAGE
100
AcDbCircle
 10
3.650441755116581
 20
6.225275462003406
 30
0.0
 40
0.1566980695398199
100
AcDbArc
 50
143.5307656099477
 51
232.7294390983634
  0
ARC
  5
A8B
330
4E0
100
AcDbEntity
  8
IMAGE
100
AcDbCircle
 10
3.175098720646469
 20
6.434919954011376
 30
0.0
 40
0.1566980695398199
100
AcDbArc
 50
296.0563205359582
 51
25.25499402437389
  0
ARC
  5
A8C
330
4E0
100
AcDbEntity
  8
IMAGE
100
AcDbCircle
 10
3.385649590520589
 20
6.361003103760066
 30
0.0
 40
0.1566980695398199
100
AcDbArc
 50
116.0563205359582
 51
205.2549940243739
  0
ARC
  5
A8D
330
4E0
100
AcDbEntity
  8
IMAGE
100
AcDbCircle
 10
3.006853810459106
 20
6.273990171456193
 30
0.0
 40
0.1566980695398199
100
AcDbArc
 50
296.0563205359582
 51
25.25499402437389
  0
ARC
  5
A8E
330
4E0
100
AcDbEntity
  8
IMAGE
100
AcDbCircle
 10
3.217404680333227
 20
6.200073321204883
 30
0.0
 40
0.1566980695398199
100
AcDbArc
 50
116.0563205359582
 51
205.2549940243739
  0
ARC
  5
A8F
330
4E0
100
AcDbEntity
  8
IMAGE
100
AcDbCircle
 10
2.984908822173798
 20
6.427604963895231
 30
0.0
 40
0.1566980695398199
100
AcDbArc
 50
296.0563205359582
 51
25.25499402437389
  0
ARC
  5
A90
330
4E0
100
AcDbEntity
  8
IMAGE
100
AcDbCircle
 10
3.195459692047917
 20
6.353688113643921
 30
0.0
 40
0.1566980695398199
100
AcDbArc
 50
116.0563205359582
 51
205.2549940243739
  0
ARC
  5
A91
330
4E0
100
AcDbEntity
  8
IMAGE
100
AcDbCircle
 10
2.652076499846625
 20
6.753122024063666
 30
0.0
 40
0.1566980695398199
100
AcDbArc
 50
296.0563205359582
 51
25.25499402437389
  0
ARC
  5
A92
330
4E0
100
AcDbEntity
  8
IMAGE
100
AcDbCircle
 10
2.862627369720746
 20
6.679205173812357
 30
0.0
 40
0.1566980695398199
100
AcDbArc
 50
116.0563205359582
 51
205.2549940243739
  0
ARC
  5
A93
330
4E0
100
AcDbEntity
  8
IMAGE
100
AcDbCircle
 10
3.401863599594653
 20
6.522699835405112
 30
0.0
 40
0.1566980695398199
100
AcDbArc
 50
296.0563205359582
 51
25.25499402437389
  0
ARC
  5
A94
330
4E0
100
AcDbEntity
  8
IMAGE
100
AcDbCircle
 10
3.612414469468772
 20
6.448782985153802
 30
0.0
 40
0.1566980695398199
100
AcDbArc
 50
116.0563205359582
 51
205.2549940243739
  0
ARC
  5
A95
330
4E0
100
AcDbEntity
  8
IMAGE
100
AcDbCircle
 10
3.080003771410134
 20
6.734834548773306
 30
0.0
 40
0.1566980695398199
100
AcDbArc
 50
296.0563205359582
 51
25.25499402437389
  0
ARC
  5
A96
330
4E0
100
AcDbEntity
  8
IMAGE
100
AcDbCircle
 10
3.290554641284254
 20
6.660917698521996
 30
0.0
 40
0.1566980695398199
100
AcDbArc
 50
116.0563205359582
 51
205.2549940243739
  0
ARC
  5
A97
330
4E0
100
AcDbEntity
  8
IMAGE
100
AcDbCircle
 10
3.138523740170955
 20
6.928681786851139
 30
0.0
 40
0.1566980695398199
100
AcDbArc
 50
296.0563205359582
 51
25.25499402437389
  0
ARC
  5
A98
330
4E0
100
AcDbEntity
  8
IMAGE
100
AcDbCircle
 10
3.349074610045075
 20
6.854764936599829
 30
0.0
 40
0.1566980695398199
100
AcDbArc
 50
116.0563205359582
 51
205.2549940243739
  0
ARC
  5
A99
330
4E0
100
AcDbEntity
  8
IMAGE
100
AcDbCircle
 10
2.871526382699707
 20
6.943311767083428
 30
0.0
 40
0.1566980695398199
100
AcDbArc
 50
296.0563205359582
 51
25.25499402437389
  0
ARC
  5
A9A
330
4E0
100
AcDbEntity
  8
IMAGE
100
AcDbCircle
 10
3.082077252573827
 20
6.869394916832118
 30
0.0
 40
0.1566980695398199
100
AcDbArc
 50
116.0563205359582
 51
205.2549940243739
  0
ARC
  5
A9B
330
4E0
100
AcDbEntity
  8
IMAGE
100
AcDbCircle
 10
2.706938970559896
 20
7.129844015045116
 30
0.0
 40
0.1566980695398199
100
AcDbArc
 50
296.0563205359582
 51
25.25499402437389
  0
ARC
  5
A9C
330
4E0
100
AcDbEntity
  8
IMAGE
100
AcDbCircle
 10
2.917489840434016
 20
7.055927164793806
 30
0.0
 40
0.1566980695398199
100
AcDbArc
 50
116.0563205359582
 51
205.2549940243739
  0
ARC
  5
A9D
330
4E0
100
AcDbEntity
  8
IMAGE
100
AcDbCircle
 10
2.692308978369691
 20
6.972571727548007
 30
0.0
 40
0.1566980695398199
100
AcDbArc
 50
296.0563205359582
 51
25.25499402437389
  0
ARC
  5
A9E
330
4E0
100
AcDbEntity
  8
IMAGE
100
AcDbCircle
 10
2.902859848243811
 20
6.898654877296695
 30
0.0
 40
0.1566980695398199
100
AcDbArc
 50
116.0563205359582
 51
205.2549940243739
  0
ARC
  5
A9F
330
4E0
100
AcDbEntity
  8
IMAGE
100
AcDbCircle
 10
2.600871527180907
 20
6.533672320579328
 30
0.0
 40
0.1566980695398199
100
AcDbArc
 50
296.0563205359582
 51
25.25499402437389
  0
ARC
  5
AA0
330
4E0
100
AcDbEntity
  8
IMAGE
100
AcDbCircle
 10
2.811422397055027
 20
6.459755470328018
 30
0.0
 40
0.1566980695398199
100
AcDbArc
 50
116.0563205359582
 51
205.2549940243739
  0
ARC
  5
AA1
330
4E0
100
AcDbEntity
  8
IMAGE
100
AcDbCircle
 10
3.277508665977905
 20
6.592192241508485
 30
0.0
 40
0.1566980695398199
100
AcDbArc
 50
296.0563205359582
 51
25.25499402437389
  0
ARC
  5
AA2
330
4E0
100
AcDbEntity
  8
IMAGE
100
AcDbCircle
 10
3.488059535852026
 20
6.518275391257176
 30
0.0
 40
0.1566980695398199
100
AcDbArc
 50
116.0563205359582
 51
205.2549940243739
  0
ARC
  5
AA3
330
4E0
100
AcDbEntity
  8
IMAGE
100
AcDbCircle
 10
1.871195703560657
 20
6.911435967947324
 30
0.0
 40
0.1566980695398199
100
AcDbArc
 50
98.53076560994793
 51
187.7294390983635
  0
ARC
  5
AA4
330
4E0
100
AcDbEntity
  8
IMAGE
100
AcDbCircle
 10
1.692676694724829
 20
7.045325224574196
 30
0.0
 40
0.1566980695398199
100
AcDbArc
 50
278.5307656099478
 51
7.729439098363577
  0
ARC
  5
AA5
330
4E0
100
AcDbEntity
  8
IMAGE
100
AcDbCircle
 10
1.448700715982528
 20
6.805812221052792
 30
0.0
 40
0.1566980695398199
100
AcDbArc
 50
98.53076560994793
 51
187.7294390983635
  0
ARC
  5
AA6
330
4E0
100
AcDbEntity
  8
IMAGE
100
AcDbCircle
 10
1.270181707146701
 20
6.939701477679665
 30
0.0
 40
0.1566980695398199
100
AcDbArc
 50
278.5307656099478
 51
7.729439098363577
  0
ARC
  5
AA7
330
4E0
100
AcDbEntity
  8
IMAGE
100
AcDbCircle
 10
1.561306371733805
 20
6.575814019847142
 30
0.0
 40
0.1566980695398199
100
AcDbArc
 50
159.7199718669747
 51
248.9186453553905
  0
ARC
  5
AA8
330
4E0
100
AcDbEntity
  8
IMAGE
100
AcDbCircle
 10
1.357958817527723
 20
6.483916567465548
 30
0.0
 40
0.1566980695398199
100
AcDbArc
 50
339.7199718669747
 51
68.91864535539045
  0
ARC
  5
AA9
330
4E0
100
AcDbEntity
  8
IMAGE
100
AcDbCircle
 10
1.879997682468534
 20
6.673782537434628
 30
0.0
 40
0.1566980695398199
100
AcDbArc
 50
98.53076560994793
 51
187.7294390983635
  0
ARC
  5
AAA
330
4E0
100
AcDbEntity
  8
IMAGE
100
AcDbCircle
 10
1.701478673632705
 20
6.807671794061499
 30
0.0
 40
0.1566980695398199
100
AcDbArc
 50
278.5307656099478
 51
7.729439098363577
  0
ARC
  5
AAB
330
4E0
100
AcDbEntity
  8
IMAGE
100
AcDbCircle
 10
1.066292203273071
 20
6.929433774633619
 30
0.0
 40
0.1566980695398199
100
AcDbArc
 50
143.5307656099477
 51
232.7294390983634
  0
ARC
  5
AAC
330
4E0
100
AcDbEntity
  8
IMAGE
100
AcDbCircle
 10
0.8453862002656693
 20
6.897875774203991
 30
0.0
 40
0.1566980695398199
100
AcDbArc
 50
323.5307656099477
 51
52.72943909836342
  0
ARC
  5
AAD
330
4E0
100
AcDbEntity
  8
IMAGE
100
AcDbCircle
 10
1.211047285469832
 20
6.2512875498565
 30
0.0
 40
0.1566980695398199
100
AcDbArc
 50
98.53076560994793
 51
187.7294390983635
  0
ARC
  5
AAE
330
4E0
100
AcDbEntity
  8
IMAGE
100
AcDbCircle
 10
1.032528276634003
 20
6.385176806483371
 30
0.0
 40
0.1566980695398199
100
AcDbArc
 50
278.5307656099478
 51
7.729439098363577
  0
ARC
  5
AAF
330
4E0
100
AcDbEntity
  8
IMAGE
100
AcDbCircle
 10
1.554324462877061
 20
6.128059845146212
 30
0.0
 40
0.1566980695398199
100
AcDbArc
 50
98.53076560994793
 51
187.7294390983635
  0
ARC
  5
AB0
330
4E0
100
AcDbEntity
  8
IMAGE
100
AcDbCircle
 10
1.375805454041232
 20
6.261949101773084
 30
0.0
 40
0.1566980695398199
100
AcDbArc
 50
278.5307656099478
 51
7.729439098363577
  0
ARC
  5
AB1
330
4E0
100
AcDbEntity
  8
IMAGE
100
AcDbCircle
 10
1.111503408107149
 20
6.695164061254613
 30
0.0
 40
0.1566980695398199
100
AcDbArc
 50
339.7199718669747
 51
68.91864535539045
  0
ARC
  5
AB2
330
4E0
100
AcDbEntity
  8
IMAGE
100
AcDbCircle
 10
1.31485096231323
 20
6.787061513636207
 30
0.0
 40
0.1566980695398199
100
AcDbArc
 50
159.7199718669747
 51
248.9186453553905
  0
ARC
  5
AB3
330
4E0
100
AcDbEntity
  8
IMAGE
100
AcDbCircle
 10
1.129107365922904
 20
6.976827386306697
 30
0.0
 40
0.1566980695398199
100
AcDbArc
 50
339.7199718669747
 51
68.91864535539045
  0
ARC
  5
AB4
330
4E0
100
AcDbEntity
  8
IMAGE
100
AcDbCircle
 10
1.332454920128987
 20
7.068724838688292
 30
0.0
 40
0.1566980695398199
100
AcDbArc
 50
159.7199718669747
 51
248.9186453553905
  0
ARC
  5
AB5
330
4E0
100
AcDbEntity
  8
IMAGE
100
AcDbCircle
 10
1.569206311316787
 20
6.351886883847384
 30
0.0
 40
0.1566980695398199
100
AcDbArc
 50
339.7199718669747
 51
68.91864535539045
  0
ARC
  5
AB6
330
4E0
100
AcDbEntity
  8
IMAGE
100
AcDbCircle
 10
1.77255386552287
 20
6.443784336228977
 30
0.0
 40
0.1566980695398199
100
AcDbArc
 50
159.7199718669747
 51
248.9186453553905
  0
ARC
  5
AB7
330
4E0
100
AcDbEntity
  8
IMAGE
100
AcDbCircle
 10
1.516394437869521
 20
6.281471052584362
 30
0.0
 40
0.1566980695398199
100
AcDbArc
 50
339.7199718669747
 51
68.91864535539045
  0
ARC
  5
AB8
330
4E0
100
AcDbEntity
  8
IMAGE
100
AcDbCircle
 10
1.719741992075604
 20
6.373368504965957
 30
0.0
 40
0.1566980695398199
100
AcDbArc
 50
159.7199718669747
 51
248.9186453553905
  0
ARC
  5
AB9
330
4E0
100
AcDbEntity
  8
IMAGE
100
AcDbCircle
 10
1.683632037119197
 20
6.739173955794
 30
0.0
 40
0.1566980695398199
100
AcDbArc
 50
339.7199718669747
 51
68.91864535539045
  0
ARC
  5
ABA
330
4E0
100
AcDbEntity
  8
IMAGE
100
AcDbCircle
 10
1.886979591325279
 20
6.831071408175595
 30
0.0
 40
0.1566980695398199
100
AcDbArc
 50
159.7199718669747
 51
248.9186453553905
  0
ARC
  5
ABB
330
4E0
100
AcDbEntity
  8
IMAGE
100
AcDbCircle
 10
1.384364754251357
 20
6.70396604016249
 30
0.0
 40
0.1566980695398199
100
AcDbArc
 50
339.7199718669747
 51
68.91864535539045
  0
ARC
  5
ABC
330
4E0
100
AcDbEntity
  8
IMAGE
100
AcDbCircle
 10
1.587712308457438
 20
6.795863492544085
 30
0.0
 40
0.1566980695398199
100
AcDbArc
 50
159.7199718669747
 51
248.9186453553905
  0
ARC
  5
ABD
330
4E0
100
AcDbEntity
  8
IMAGE
100
AcDbCircle
 10
1.516394437869521
 20
6.959223428490942
 30
0.0
 40
0.1566980695398199
100
AcDbArc
 50
339.7199718669747
 51
68.91864535539045
  0
ARC
  5
ABE
330
4E0
100
AcDbEntity
  8
IMAGE
100
AcDbCircle
 10
1.719741992075604
 20
7.051120880872535
 30
0.0
 40
0.1566980695398199
100
AcDbArc
 50
159.7199718669747
 51
248.9186453553905
  0
ARC
  5
ABF
330
4E0
100
AcDbEntity
  8
IMAGE
100
AcDbCircle
 10
1.225929133909558
 20
6.756777913609757
 30
0.0
 40
0.1566980695398199
100
AcDbArc
 50
339.7199718669747
 51
68.91864535539045
  0
ARC
  5
AC0
330
4E0
100
AcDbEntity
  8
IMAGE
100
AcDbCircle
 10
1.429276688115641
 20
6.84867536599135
 30
0.0
 40
0.1566980695398199
100
AcDbArc
 50
159.7199718669747
 51
248.9186453553905
  0
ARC
  5
AC1
330
4E0
100
AcDbEntity
  8
IMAGE
100
AcDbCircle
 10
0.9856843851080299
 20
6.464236823033494
 30
0.0
 40
0.1566980695398199
100
AcDbArc
 50
339.7199718669747
 51
68.91864535539045
  0
ARC
  5
AC2
330
4E0
100
AcDbEntity
  8
IMAGE
100
AcDbCircle
 10
1.189031939314111
 20
6.556134275415087
 30
0.0
 40
0.1566980695398199
100
AcDbArc
 50
159.7199718669747
 51
248.9186453553905
  0
ARC
  5
AC3
330
4E0
100
AcDbEntity
  8
IMAGE
100
AcDbCircle
 10
1.164315281554415
 20
6.343084904939506
 30
0.0
 40
0.1566980695398199
100
AcDbArc
 50
339.7199718669747
 51
68.91864535539045
  0
ARC
  5
AC4
330
4E0
100
AcDbEntity
  8
IMAGE
100
AcDbCircle
 10
1.367662835760497
 20
6.434982357321099
 30
0.0
 40
0.1566980695398199
100
AcDbArc
 50
159.7199718669747
 51
248.9186453553905
  0
ARC
  5
AC5
330
4E0
100
AcDbEntity
  8
IMAGE
100
AcDbCircle
 10
1.225929133909558
 20
6.492718546373425
 30
0.0
 40
0.1566980695398199
100
AcDbArc
 50
339.7199718669747
 51
68.91864535539045
  0
ARC
  5
AC6
330
4E0
100
AcDbEntity
  8
IMAGE
100
AcDbCircle
 10
1.429276688115641
 20
6.58461599875502
 30
0.0
 40
0.1566980695398199
100
AcDbArc
 50
159.7199718669747
 51
248.9186453553905
  0
ARC
  5
AC7
330
4E0
100
AcDbEntity
  8
IMAGE
100
AcDbCircle
 10
1.586810269132542
 20
6.545530419820692
 30
0.0
 40
0.1566980695398199
100
AcDbArc
 50
339.7199718669747
 51
68.91864535539045
  0
ARC
  5
AC8
330
4E0
100
AcDbEntity
  8
IMAGE
100
AcDbCircle
 10
1.790157823338625
 20
6.637427872202287
 30
0.0
 40
0.1566980695398199
100
AcDbArc
 50
159.7199718669747
 51
248.9186453553905
  0
ARC
  5
AC9
330
4E0
100
AcDbEntity
  8
IMAGE
100
AcDbCircle
 10
1.736443910566462
 20
6.316678968215872
 30
0.0
 40
0.1566980695398199
100
AcDbArc
 50
339.7199718669747
 51
68.91864535539045
  0
ARC
  5
ACA
330
4E0
100
AcDbEntity
  8
IMAGE
100
AcDbCircle
 10
1.939791464772545
 20
6.408576420597467
 30
0.0
 40
0.1566980695398199
100
AcDbArc
 50
159.7199718669747
 51
248.9186453553905
  0
ARC
  5
ACB
330
4E0
100
AcDbEntity
  8
IMAGE
100
AcDbCircle
 10
1.003821820607466
 20
6.906677753111869
 30
0.0
 40
0.1566980695398199
100
AcDbArc
 50
323.5307656099477
 51
52.72943909836342
  0
ARC
  5
ACC
330
4E0
100
AcDbEntity
  8
IMAGE
100
AcDbCircle
 10
1.22472782361487
 20
6.938235753541497
 30
0.0
 40
0.1566980695398199
100
AcDbArc
 50
143.5307656099477
 51
232.7294390983634
  0
ARC
  5
ACD
330
4E0
100
AcDbEntity
  8
IMAGE
100
AcDbCircle
 10
1.461524723817106
 20
6.818657964033094
 30
0.0
 40
0.1566980695398199
100
AcDbArc
 50
323.5307656099477
 51
52.72943909836342
  0
ARC
  5
ACE
330
4E0
100
AcDbEntity
  8
IMAGE
100
AcDbCircle
 10
1.682430726824509
 20
6.85021596446272
 30
0.0
 40
0.1566980695398199
100
AcDbArc
 50
143.5307656099477
 51
232.7294390983634
  0
ARC
  5
ACF
330
4E0
100
AcDbEntity
  8
IMAGE
100
AcDbCircle
 10
1.338297019106818
 20
7.021103478914279
 30
0.0
 40
0.1566980695398199
100
AcDbArc
 50
323.5307656099477
 51
52.72943909836342
  0
ARC
  5
AD0
330
4E0
100
AcDbEntity
  8
IMAGE
100
AcDbCircle
 10
1.559203022114222
 20
7.052661479343908
 30
0.0
 40
0.1566980695398199
100
AcDbArc
 50
143.5307656099477
 51
232.7294390983634
  0
ARC
  5
AD1
330
4E0
100
AcDbEntity
  8
IMAGE
100
AcDbCircle
 10
1.584752428527393
 20
7.100321289085179
 30
0.0
 40
0.1566980695398199
100
AcDbArc
 50
323.5307656099477
 51
52.72943909836342
  0
ARC
  5
AD2
330
4E0
100
AcDbEntity
  8
IMAGE
100
AcDbCircle
 10
1.805658431534795
 20
7.131879289514805
 30
0.0
 40
0.1566980695398199
100
AcDbArc
 50
143.5307656099477
 51
232.7294390983634
  0
ARC
  5
AD3
330
4E0
100
AcDbEntity
  8
IMAGE
100
AcDbCircle
 10
1.725584091053436
 20
6.536994638981007
 30
0.0
 40
0.1566980695398199
100
AcDbArc
 50
323.5307656099477
 51
52.72943909836342
  0
ARC
  5
AD4
330
4E0
100
AcDbEntity
  8
IMAGE
100
AcDbCircle
 10
1.946490094060837
 20
6.568552639410635
 30
0.0
 40
0.1566980695398199
100
AcDbArc
 50
143.5307656099477
 51
232.7294390983634
  0
ARC
  5
AD5
330
4E0
100
AcDbEntity
  8
IMAGE
100
AcDbCircle
 10
1.584752428527393
 20
6.220123398297411
 30
0.0
 40
0.1566980695398199
100
AcDbArc
 50
323.5307656099477
 51
52.72943909836342
  0
ARC
  5
AD6
330
4E0
100
AcDbEntity
  8
IMAGE
100
AcDbCircle
 10
1.805658431534795
 20
6.251681398727039
 30
0.0
 40
0.1566980695398199
100
AcDbArc
 50
143.5307656099477
 51
232.7294390983634
  0
ARC
  5
AD7
330
4E0
100
AcDbEntity
  8
IMAGE
100
AcDbCircle
 10
1.426316808185595
 20
6.167311524850146
 30
0.0
 40
0.1566980695398199
100
AcDbArc
 50
323.5307656099477
 51
52.72943909836342
  0
ARC
  5
AD8
330
4E0
100
AcDbEntity
  8
IMAGE
100
AcDbCircle
 10
1.647222811192997
 20
6.198869525279774
 30
0.0
 40
0.1566980695398199
100
AcDbArc
 50
143.5307656099477
 51
232.7294390983634
  0
ARC
  5
AD9
330
4E0
100
AcDbEntity
  8
IMAGE
100
AcDbCircle
 10
1.135851504225632
 20
6.184915482665901
 30
0.0
 40
0.1566980695398199
100
AcDbArc
 50
323.5307656099477
 51
52.72943909836342
  0
ARC
  5
ADA
330
4E0
100
AcDbEntity
  8
IMAGE
100
AcDbCircle
 10
1.356757507233035
 20
6.216473483095529
 30
0.0
 40
0.1566980695398199
100
AcDbArc
 50
143.5307656099477
 51
232.7294390983634
  0
ARC
  5
ADB
330
4E0
100
AcDbEntity
  8
IMAGE
100
AcDbCircle
 10
1.320693061291063
 20
6.325747145191944
 30
0.0
 40
0.1566980695398199
100
AcDbArc
 50
323.5307656099477
 51
52.72943909836342
  0
ARC
  5
ADC
330
4E0
100
AcDbEntity
  8
IMAGE
100
AcDbCircle
 10
1.541599064298465
 20
6.357305145621571
 30
0.0
 40
0.1566980695398199
100
AcDbArc
 50
143.5307656099477
 51
232.7294390983634
  0
ARC
  5
ADD
330
4E0
100
AcDbEntity
  8
IMAGE
100
AcDbCircle
 10
1.443920766001351
 20
6.545796617888885
 30
0.0
 40
0.1566980695398199
100
AcDbArc
 50
323.5307656099477
 51
52.72943909836342
  0
ARC
  5
ADE
330
4E0
100
AcDbEntity
  8
IMAGE
100
AcDbCircle
 10
1.664826769008752
 20
6.577354618318513
 30
0.0
 40
0.1566980695398199
100
AcDbArc
 50
143.5307656099477
 51
232.7294390983634
  0
ARC
  5
ADF
330
4E0
100
AcDbEntity
  8
IMAGE
100
AcDbCircle
 10
1.514336597264371
 20
6.704232238230683
 30
0.0
 40
0.1566980695398199
100
AcDbArc
 50
323.5307656099477
 51
52.72943909836342
  0
ARC
  5
AE0
330
4E0
100
AcDbEntity
  8
IMAGE
100
AcDbCircle
 10
1.735242600271774
 20
6.735790238660311
 30
0.0
 40
0.1566980695398199
100
AcDbArc
 50
143.5307656099477
 51
232.7294390983634
  0
ARC
  5
AE1
330
4E0
100
AcDbEntity
  8
IMAGE
100
AcDbCircle
 10
1.55834649180376
 20
6.792252027309459
 30
0.0
 40
0.1566980695398199
100
AcDbArc
 50
323.5307656099477
 51
52.72943909836342
  0
ARC
  5
AE2
330
4E0
100
AcDbEntity
  8
IMAGE
100
AcDbCircle
 10
1.779252494811163
 20
6.823810027739088
 30
0.0
 40
0.1566980695398199
100
AcDbArc
 50
143.5307656099477
 51
232.7294390983634
  0
ARC
  5
AE3
330
4E0
100
AcDbEntity
  8
IMAGE
100
AcDbCircle
 10
1.241475251120164
 20
6.660222343691294
 30
0.0
 40
0.1566980695398199
100
AcDbArc
 50
323.5307656099477
 51
52.72943909836342
  0
ARC
  5
AE4
330
4E0
100
AcDbEntity
  8
IMAGE
100
AcDbCircle
 10
1.462381254127567
 20
6.691780344120922
 30
0.0
 40
0.1566980695398199
100
AcDbArc
 50
143.5307656099477
 51
232.7294390983634
  0
ARC
  5
AE5
330
4E0
100
AcDbEntity
  8
IMAGE
100
AcDbCircle
 10
1.100643588594122
 20
6.536994638981007
 30
0.0
 40
0.1566980695398199
100
AcDbArc
 50
323.5307656099477
 51
52.72943909836342
  0
ARC
  5
AE6
330
4E0
100
AcDbEntity
  8
IMAGE
100
AcDbCircle
 10
1.321549591601524
 20
6.568552639410635
 30
0.0
 40
0.1566980695398199
100
AcDbArc
 50
143.5307656099477
 51
232.7294390983634
  0
ARC
  5
AE7
330
4E0
100
AcDbEntity
  8
IMAGE
100
AcDbCircle
 10
1.021425778423223
 20
6.184915482665901
 30
0.0
 40
0.1566980695398199
100
AcDbArc
 50
323.5307656099477
 51
52.72943909836342
  0
ARC
  5
AE8
330
4E0
100
AcDbEntity
  8
IMAGE
100
AcDbCircle
 10
1.242331781430625
 20
6.216473483095529
 30
0.0
 40
0.1566980695398199
100
AcDbArc
 50
143.5307656099477
 51
232.7294390983634
  0
ARC
  5
AE9
330
4E0
100
AcDbEntity
  8
IMAGE
100
AcDbCircle
 10
0.8717921369893026
 20
6.202519440481656
 30
0.0
 40
0.1566980695398199
100
AcDbArc
 50
323.5307656099477
 51
52.72943909836342
  0
ARC
  5
AEA
330
4E0
100
AcDbEntity
  8
IMAGE
100
AcDbCircle
 10
1.092698139996705
 20
6.234077440911284
 30
0.0
 40
0.1566980695398199
100
AcDbArc
 50
143.5307656099477
 51
232.7294390983634
  0
ARC
  5
AEB
330
4E0
100
AcDbEntity
  8
IMAGE
100
AcDbCircle
 10
0.9158020315286904
 20
6.325747145191944
 30
0.0
 40
0.1566980695398199
100
AcDbArc
 50
323.5307656099477
 51
52.72943909836342
  0
ARC
  5
AEC
330
4E0
100
AcDbEntity
  8
IMAGE
100
AcDbCircle
 10
1.136708034536094
 20
6.357305145621571
 30
0.0
 40
0.1566980695398199
100
AcDbArc
 50
143.5307656099477
 51
232.7294390983634
  0
ARC
  5
AED
330
4E0
100
AcDbEntity
  8
IMAGE
100
AcDbCircle
 10
1.003821820607466
 20
6.721836196046438
 30
0.0
 40
0.1566980695398199
100
AcDbArc
 50
323.5307656099477
 51
52.72943909836342
  0
ARC
  5
AEE
330
4E0
100
AcDbEntity
  8
IMAGE
100
AcDbCircle
 10
1.22472782361487
 20
6.753394196476066
 30
0.0
 40
0.1566980695398199
100
AcDbArc
 50
143.5307656099477
 51
232.7294390983634
  0
ARC
  5
AEF
330
4E0
100
AcDbEntity
  8
IMAGE
100
AcDbCircle
 10
1.725584091053436
 20
6.880271816388236
 30
0.0
 40
0.1566980695398199
100
AcDbArc
 50
323.5307656099477
 51
52.72943909836342
  0
ARC
  5
AF0
330
4E0
100
AcDbEntity
  8
IMAGE
100
AcDbCircle
 10
1.946490094060837
 20
6.911829816817864
 30
0.0
 40
0.1566980695398199
100
AcDbArc
 50
143.5307656099477
 51
232.7294390983634
  0
ARC
  5
AF1
330
4E0
100
AcDbEntity
  8
IMAGE
100
AcDbCircle
 10
1.197465356580776
 20
7.038707436730034
 30
0.0
 40
0.1566980695398199
100
AcDbArc
 50
323.5307656099477
 51
52.72943909836342
  0
ARC
  5
AF2
330
4E0
100
AcDbEntity
  8
IMAGE
100
AcDbCircle
 10
1.418371359588179
 20
7.070265437159663
 30
0.0
 40
0.1566980695398199
100
AcDbArc
 50
143.5307656099477
 51
232.7294390983634
  0
ARC
  5
AF3
330
4E0
100
AcDbEntity
  8
IMAGE
100
AcDbCircle
 10
1.681574196514048
 20
6.193717461573778
 30
0.0
 40
0.1566980695398199
100
AcDbArc
 50
323.5307656099477
 51
52.72943909836342
  0
ARC
  5
AF4
330
4E0
100
AcDbEntity
  8
IMAGE
100
AcDbCircle
 10
1.902480199521451
 20
6.225275462003406
 30
0.0
 40
0.1566980695398199
100
AcDbArc
 50
143.5307656099477
 51
232.7294390983634
  0
ARC
  5
AF5
330
4E0
100
AcDbEntity
  8
IMAGE
100
AcDbCircle
 10
1.427137165051338
 20
6.434919954011376
 30
0.0
 40
0.1566980695398199
100
AcDbArc
 50
296.0563205359582
 51
25.25499402437389
  0
ARC
  5
AF6
330
4E0
100
AcDbEntity
  8
IMAGE
100
AcDbCircle
 10
1.637688034925458
 20
6.361003103760066
 30
0.0
 40
0.1566980695398199
100
AcDbArc
 50
116.0563205359582
 51
205.2549940243739
  0
ARC
  5
AF7
330
4E0
100
AcDbEntity
  8
IMAGE
100
AcDbCircle
 10
1.258892254863976
 20
6.273990171456193
 30
0.0
 40
0.1566980695398199
100
AcDbArc
 50
296.0563205359582
 51
25.25499402437389
  0
ARC
  5
AF8
330
4E0
100
AcDbEntity
  8
IMAGE
100
AcDbCircle
 10
1.469443124738096
 20
6.200073321204883
 30
0.0
 40
0.1566980695398199
100
AcDbArc
 50
116.0563205359582
 51
205.2549940243739
  0
ARC
  5
AF9
330
4E0
100
AcDbEntity
  8
IMAGE
100
AcDbCircle
 10
1.236947266578667
 20
6.427604963895231
 30
0.0
 40
0.1566980695398199
100
AcDbArc
 50
296.0563205359582
 51
25.25499402437389
  0
ARC
  5
AFA
330
4E0
100
AcDbEntity
  8
IMAGE
100
AcDbCircle
 10
1.447498136452786
 20
6.353688113643921
 30
0.0
 40
0.1566980695398199
100
AcDbArc
 50
116.0563205359582
 51
205.2549940243739
  0
ARC
  5
AFB
330
4E0
100
AcDbEntity
  8
IMAGE
100
AcDbCircle
 10
0.9041149442514955
 20
6.753122024063666
 30
0.0
 40
0.1566980695398199
100
AcDbArc
 50
296.0563205359582
 51
25.25499402437389
  0
ARC
  5
AFC
330
4E0
100
AcDbEntity
  8
IMAGE
100
AcDbCircle
 10
1.114665814125615
 20
6.679205173812357
 30
0.0
 40
0.1566980695398199
100
AcDbArc
 50
116.0563205359582
 51
205.2549940243739
  0
ARC
  5
AFD
330
4E0
100
AcDbEntity
  8
IMAGE
100
AcDbCircle
 10
1.653902043999522
 20
6.522699835405112
 30
0.0
 40
0.1566980695398199
100
AcDbArc
 50
296.0563205359582
 51
25.25499402437389
  0
ARC
  5
AFE
330
4E0
100
AcDbEntity
  8
IMAGE
100
AcDbCircle
 10
1.864452913873641
 20
6.448782985153802
 30
0.0
 40
0.1566980695398199
100
AcDbArc
 50
116.0563205359582
 51
205.2549940243739
  0
ARC
  5
AFF
330
4E0
100
AcDbEntity
  8
IMAGE
100
AcDbCircle
 10
1.332042215815003
 20
6.734834548773306
 30
0.0
 40
0.1566980695398199
100
AcDbArc
 50
296.0563205359582
 51
25.25499402437389
  0
ARC
  5
B00
330
4E0
100
AcDbEntity
  8
IMAGE
100
AcDbCircle
 10
1.542593085689123
 20
6.660917698521996
 30
0.0
 40
0.1566980695398199
100
AcDbArc
 50
116.0563205359582
 51
205.2549940243739
  0
ARC
  5
B01
330
4E0
100
AcDbEntity
  8
IMAGE
100
AcDbCircle
 10
1.390562184575824
 20
6.928681786851139
 30
0.0
 40
0.1566980695398199
100
AcDbArc
 50
296.0563205359582
 51
25.25499402437389
  0
ARC
  5
B02
330
4E0
100
AcDbEntity
  8
IMAGE
100
AcDbCircle
 10
1.601113054449944
 20
6.854764936599829
 30
0.0
 40
0.1566980695398199
100
AcDbArc
 50
116.0563205359582
 51
205.2549940243739
  0
ARC
  5
B03
330
4E0
100
AcDbEntity
  8
IMAGE
100
AcDbCircle
 10
1.123564827104576
 20
6.943311767083428
 30
0.0
 40
0.1566980695398199
100
AcDbArc
 50
296.0563205359582
 51
25.25499402437389
  0
ARC
  5
B04
330
4E0
100
AcDbEntity
  8
IMAGE
100
AcDbCircle
 10
1.334115696978696
 20
6.869394916832118
 30
0.0
 40
0.1566980695398199
100
AcDbArc
 50
116.0563205359582
 51
205.2549940243739
  0
ARC
  5
B05
330
4E0
100
AcDbEntity
  8
IMAGE
100
AcDbCircle
 10
0.9589774149647656
 20
7.129844015045116
 30
0.0
 40
0.1566980695398199
100
AcDbArc
 50
296.0563205359582
 51
25.25499402437389
  0
ARC
  5
B06
330
4E0
100
AcDbEntity
  8
IMAGE
100
AcDbCircle
 10
1.169528284838886
 20
7.055927164793806
 30
0.0
 40
0.1566980695398199
100
AcDbArc
 50
116.0563205359582
 51
205.2549940243739
  0
ARC
  5
B07
330
4E0
100
AcDbEntity
  8
IMAGE
100
AcDbCircle
 10
0.9443474227745607
 20
6.972571727548007
 30
0.0
 40
0.1566980695398199
100
AcDbArc
 50
296.0563205359582
 51
25.25499402437389
  0
ARC
  5
B08
330
4E0
100
AcDbEntity
  8
IMAGE
100
AcDbCircle
 10
1.154898292648679
 20
6.898654877296695
 30
0.0
 40
0.1566980695398199
100
AcDbArc
 50
116.0563205359582
 51
205.2549940243739
  0
ARC
  5
B09
330
4E0
100
AcDbEntity
  8
IMAGE
100
AcDbCircle
 10
0.8529099715857766
 20
6.533672320579328
 30
0.0
 40
0.1566980695398199
100
AcDbArc
 50
296.0563205359582
 51
25.25499402437389
  0
ARC
  5
B0A
330
4E0
100
AcDbEntity
  8
IMAGE
100
AcDbCircle
 10
1.063460841459896
 20
6.459755470328018
 30
0.0
 40
0.1566980695398199
100
AcDbArc
 50
116.0563205359582
 51
205.2549940243739
  0
ARC
  5
B0B
330
4E0
100
AcDbEntity
  8
IMAGE
100
AcDbCircle
 10
1.529547110382774
 20
6.592192241508485
 30
0.0
 40
0.1566980695398199
100
AcDbArc
 50
296.0563205359582
 51
25.25499402437389
  0
ARC
  5
B0C
330
4E0
100
AcDbEntity
  8
IMAGE
100
AcDbCircle
 10
1.740097980256895
 20
6.518275391257176
 30
0.0
 40
0.1566980695398199
100
AcDbArc
 50
116.0563205359582
 51
205.2549940243739
  0
LINE
  5
B0D
330
4E0
100
AcDbEntity
  8
IMAGE
100
AcDbLine
 10
2.610924416646068
 20
6.071942962828738
 30
0.0
 11
3.701835110229254
 21
6.071942962828736
 31
0.0
  0
LINE
  5
B0E
330
4E0
100
AcDbEntity
  8
IMAGE
100
AcDbLine
 10
1.90407061297676
 20
6.071942962828738
 30
0.0
 11
0.850093560325423
 21
6.071942962828738
 31
0.0
  0
LINE
  5
B30
330
4E0
100
AcDbEntity
  8
INSTRUCT-OPTION
100
AcDbLine
 10
11.79067555744075
 20
7.951636441785132
 30
0.0
 11
11.79067555744076
 21
2.718712428131149
 31
0.0
  0
LINE
  5
B31
330
4E0
100
AcDbEntity
  8
INSTRUCT-OPTION
100
AcDbLine
 10
11.79067555744076
 20
2.718712428131149
 30
0.0
 11
16.19496131588471
 21
2.718712428131149
 31
0.0
  0
LINE
  5
B32
330
4E0
100
AcDbEntity
  8
INSTRUCT-OPTION
100
AcDbLine
 10
16.19496131588472
 20
7.951636441785131
 30
0.0
 11
11.79067555744075
 21
7.951636441785132
 31
0.0
  0
LINE
  5
B33
330
4E0
100
AcDbEntity
  8
INSTRUCT-OPTION
100
AcDbLine
 10
16.19496131588471
 20
2.718712428131149
 30
0.0
 11
16.19496131588472
 21
7.95163644178513
 31
0.0
  0
TEXT
  5
B34
330
4E0
100
AcDbEntity
  8
INSTRUCT-OPTION
100
AcDbText
 10
11.88021115233263
 20
7.082538795094576
 30
0.0
 40
0.1
  1
%%uVAN NOZZLE%%u
  7
ROMANS
100
AcDbText
  0
TEXT
  5
B35
330
4E0
100
AcDbEntity
  8
INSTRUCT-OPTION
100
AcDbText
 10
14.02993106017867
 20
7.46795085191856
 30
0.0
 40
0.1
  1
%%uU-SERIES NOZZLE%%u
  7
ROMANS
100
AcDbText
  0
TEXT
  5
B36
330
4E0
100
AcDbEntity
  8
INSTRUCT-OPTION
100
AcDbText
 10
11.88021115233263
 20
7.475799737192629
 30
0.0
 40
0.1
  1
%%uPLASTIC MPR NOZZLE%%u
  7
ROMANS
100
AcDbText
  0
TEXT
  5
B37
330
4E0
100
AcDbEntity
  8
INSTRUCT-OPTION
100
AcDbText
 10
11.85675962807234
 20
7.787006208386273
 30
0.0
 40
0.1
  1
CHOOSE A DIFFERENT SPRINKLER NOZZLE 
  7
ROMANS
100
AcDbText
  0
TEXT
  5
B38
330
4E0
100
AcDbEntity
  8
INSTRUCT-OPTION
100
AcDbText
 10
11.88021115233263
 20
6.916412873434108
 30
0.0
 40
0.1
  1
  OPTION-NOZ-VAN
  7
ROMANS
100
AcDbText
  0
TEXT
  5
B39
330
4E0
100
AcDbEntity
  8
INSTRUCT-OPTION
100
AcDbText
 10
14.04353188467736
 20
7.292749096834522
 30
0.0
 40
0.1
  1
  OPTION-NOZ-U-SERIES
  7
ROMANS
100
AcDbText
  0
TEXT
  5
B3A
330
4E0
100
AcDbEntity
  8
INSTRUCT-OPTION
100
AcDbText
 10
11.83937566609327
 20
2.383862089469416
 30
0.0
 40
0.1
  1
LAYER "INSTRUCT-OPTION".
  7
ROMANS
100
AcDbText
  0
TEXT
  5
B3B
330
4E0
100
AcDbEntity
  8
INSTRUCT-OPTION
100
AcDbText
 10
11.83937566609327
 20
2.553782660896618
 30
0.0
 40
0.1
  1
TO TURN OFF THIS INSTRUCTION BOX, TURN OFF
  7
ROMANS
100
AcDbText
  0
TEXT
  5
B3C
330
4E0
100
AcDbEntity
  8
INSTRUCT-OPTION
100
AcDbText
 10
12.00083469190818
 20
7.986755068358752
 30
0.0
 40
0.1
  1
CHOOSING NOZZLES AND OPTIONAL FEATURES
  7
ROMANS
100
AcDbText
  0
TEXT
  5
B3D
330
4E0
100
AcDbEntity
  8
INSTRUCT-OPTION
100
AcDbText
 10
11.88021115233263
 20
7.295110799487919
 30
0.0
 40
0.1
  1
  OPTION-NOZ-PLASTIC
  7
ROMANS
100
AcDbText
  0
TEXT
  5
B3E
330
4E0
100
AcDbEntity
  8
INSTRUCT-OPTION
100
AcDbText
 10
11.85675962807234
 20
7.647006208386274
 30
0.0
 40
0.1
  1
BY TURNING ON THE APPROPRIATE LAYER:
  7
ROMANS
100
AcDbText
  0
TEXT
  5
B3F
330
4E0
100
AcDbEntity
  8
INSTRUCT-OPTION
100
AcDbText
 10
11.85675962807234
 20
6.71723748184393
 30
0.0
 40
0.1
  1
CHOOSE ONE OF THE FOLLOWING OPTIONS
  7
ROMANS
100
AcDbText
  0
TEXT
  5
B40
330
4E0
100
AcDbEntity
  8
INSTRUCT-OPTION
100
AcDbText
 10
11.85675962807234
 20
6.57723748184393
 30
0.0
 40
0.1
  1
BY TURNING ON THE APPROPRIATE LAYER:
  7
ROMANS
100
AcDbText
  0
TEXT
  5
B41
330
4E0
100
AcDbEntity
  8
INSTRUCT-OPTION
100
AcDbText
 10
14.02993106017867
 20
6.362196285389712
 30
0.0
 40
0.1
  1
%%uPRS SERIES%%u
  7
ROMANS
100
AcDbText
  0
TEXT
  5
B42
330
4E0
100
AcDbEntity
  8
INSTRUCT-OPTION
100
AcDbText
 10
14.02993106017867
 20
6.157117704680509
 30
0.0
 40
0.1
  1
  OPTION-PRS
  7
ROMANS
100
AcDbText
  0
TEXT
  5
B43
330
4E0
100
AcDbEntity
  8
INSTRUCT-OPTION
100
AcDbText
 10
11.88021115233263
 20
6.367696052165988
 30
0.0
 40
0.1
  1
%%uVANDAL-PROOF CAP%%u
  7
ROMANS
100
AcDbText
  0
TEXT
  5
B44
330
4E0
100
AcDbEntity
  8
INSTRUCT-OPTION
100
AcDbText
 10
11.88021115233263
 20
6.16362109591219
 30
0.0
 40
0.1
  1
  OPTION-VPC
  7
ROMANS
100
AcDbText
  0
TEXT
  5
B45
330
4E0
100
AcDbEntity
  8
INSTRUCT-OPTION
100
AcDbText
 10
11.89218794317424
 20
5.729267911382169
 30
0.0
 40
0.1
  1
%%uNON-POTABLE CAP%%u
  7
ROMANS
100
AcDbText
  0
TEXT
  5
B46
330
4E0
100
AcDbEntity
  8
INSTRUCT-OPTION
100
AcDbText
 10
11.89218794317424
 20
5.524189330672964
 30
0.0
 40
0.1
  1
  OPTION-NP
  7
ROMANS
100
AcDbText
  0
TEXT
  5
B47
330
4E0
100
AcDbEntity
  8
INSTRUCT-OPTION
100
AcDbText
 10
14.02993106017867
 20
5.887676399101265
 30
0.0
 40
0.1
  1
PRS SERIES WITH
  7
ROMANS
100
AcDbText
  0
TEXT
  5
B48
330
4E0
100
AcDbEntity
  8
INSTRUCT-OPTION
100
AcDbText
 10
14.02993106017867
 20
5.724496611464666
 30
0.0
 40
0.1
  1
%%uVANDAL-PROOF CAP%%u
  7
ROMANS
100
AcDbText
  0
TEXT
  5
B49
330
4E0
100
AcDbEntity
  8
INSTRUCT-OPTION
100
AcDbText
 10
14.02993106017867
 20
5.520421655210868
 30
0.0
 40
0.1
  1
  OPTION-PRS-VPC
  7
ROMANS
100
AcDbText
  0
TEXT
  5
B4A
330
4E0
100
AcDbEntity
  8
INSTRUCT-OPTION
100
AcDbText
 10
11.8976363622699
 20
5.225307719169967
 30
0.0
 40
0.1
  1
PRS SERIES WITH
  7
ROMANS
100
AcDbText
  0
TEXT
  5
B4B
330
4E0
100
AcDbEntity
  8
INSTRUCT-OPTION
100
AcDbText
 10
11.8976363622699
 20
4.860005224617933
 30
0.0
 40
0.1
  1
  OPTION-PRS-NP
  7
ROMANS
100
AcDbText
  0
TEXT
  5
B4C
330
4E0
100
AcDbEntity
  8
INSTRUCT-OPTION
100
AcDbText
 10
11.8976363622699
 20
5.065083805327138
 30
0.0
 40
0.1
  1
%%uNON-POTABLE CAP%%u
  7
ROMANS
100
AcDbText
  0
LINE
  5
B50
330
4E0
100
AcDbEntity
  8
OPTION_RB_SA
100
AcDbLine
 10
2.463486407340884
 20
4.939856438736009
 30
0.0
 11
2.463486407340884
 21
4.892986081969645
 31
0.0
  0
LINE
  5
B53
330
4E0
100
AcDbEntity
  8
OPTION_RB_SA
100
AcDbLine
 10
2.051508622281948
 20
4.508020354107991
 30
0.0
 11
1.605940817636363
 21
4.508020354107992
 31
0.0
  0
LINE
  5
B54
330
4E0
100
AcDbEntity
  8
OPTION_RB_SA
100
AcDbLine
 10
2.051508622281948
 20
4.304400271973999
 30
0.0
 11
1.605940817636363
 21
4.304400271973999
 31
0.0
  0
LINE
  5
B5C
330
4E0
100
AcDbEntity
  8
OPTION_RB_SA
100
AcDbLine
 10
2.447644981272703
 20
4.896803523115131
 30
0.0
 11
3.964717148797509
 21
4.531221934181438
 31
0.0
  0
LINE
  5
B5D
330
4E0
100
AcDbEntity
  8
OPTION_RB_SA
100
AcDbLine
 10
2.400296847347495
 20
4.700320608393741
 30
0.0
 11
3.917369014872302
 21
4.334739019460047
 31
0.0
  0
LINE
  5
B5E
330
4E0
100
AcDbEntity
  8
OPTION_RB_SA
100
AcDbLine
 10
3.96471714879751
 20
4.531221934181439
 30
0.0
 11
3.917369014872302
 21
4.334739019460046
 31
0.0
  0
LINE
  5
B5F
330
4E0
100
AcDbEntity
  8
OPTION_RB_SA
100
AcDbLine
 10
2.447644981272703
 20
4.896803523115132
 30
0.0
 11
2.400296847347495
 21
4.700320608393741
 31
0.0
  0
LINE
  5
B60
330
4E0
100
AcDbEntity
  8
OPTION_RB_SA
100
AcDbLine
 10
2.39213808588271
 20
4.892161488554815
 30
0.0
 11
2.443541334922144
 21
4.879774417021592
 31
0.0
  0
LINE
  5
B61
330
4E0
100
AcDbEntity
  8
OPTION_RB_SA
100
AcDbLine
 10
2.352997244658618
 20
4.729736786020501
 30
0.0
 11
2.404400493698053
 21
4.717349714487279
 31
0.0
  0
LINE
  5
B6F
330
4E0
100
AcDbEntity
  8
OPTION_RB_SA
100
AcDbLine
 10
2.463486407340884
 20
4.651463634301667
 30
0.0
 11
2.463486407340884
 21
4.685093290774373
 31
0.0
  0
HATCH
  5
BB8
330
4E0
100
AcDbEntity
  8
IMAGE
100
AcDbHatch
 10
0.0
 20
0.0
 30
0.0
210
0.0
220
0.0
230
1.0
  2
EARTH
 70
     0
 71
     0
 91
        2
 92
        7
 72
     0
 73
     1
 93
       12
 10
2.051508622281942
 20
5.889493692164626
 10
1.978432634395801
 20
5.889493692164626
 10
1.904070612976756
 20
6.025439288411302
 10
1.904070612976756
 20
6.071942962828738
 10
1.162037483572682
 20
6.071942962828738
 10
1.329236895379888
 20
5.781762005793765
 10
1.439045222345669
 20
5.649625560693708
 10
1.600517984100571
 20
5.487357669565208
 10
1.750678967051289
 20
5.4188812466843
 10
1.930733989536526
 20
5.395806815283359
 10
2.051508622281942
 20
5.395806815283359
 10
2.051508622281942
 20
5.458964814518133
 97
        0
 92
        7
 72
     0
 73
     1
 93
       12
 10
3.163445074029986
 20
5.882707767961806
 10
3.246520787294224
 20
5.986512289902488
 10
3.281146754640847
 20
6.071942962828737
 10
2.610924416646068
 20
6.071942962828738
 10
2.610924416646068
 20
6.025439288411308
 10
2.536562395227023
 20
5.889493692164626
 10
2.463486407340877
 20
5.889493692164626
 10
2.463486407340877
 20
5.458964814518133
 10
2.463486407340877
 20
5.388660870391812
 10
2.64633734042408
 20
5.527331084520401
 10
2.807925175179654
 20
5.642703241525106
 10
2.97914082026615
 20
5.734609655832313
 97
        0
 75
     0
 76
     1
 52
45.0
 41
0.65
 77
     0
 78
     6
 53
45.0
 43
0.1405395637703926
 44
0.8311226701677965
 45
0.0
 46
0.229809703885628
 79
     2
 49
0.1625
 49
-0.1625
 53
45.0
 43
0.0974502442918373
 44
0.8742119896463513
 45
0.0
 46
0.229809703885628
 79
     2
 49
0.1625
 49
-0.1625
 53
45.0
 43
0.0543609248132822
 44
0.9173013091249071
 45
0.0
 46
0.229809703885628
 79
     2
 49
0.1625
 49
-0.1625
 53
135.0
 43
0.0543609248132822
 44
0.9460275221106106
 45
-0.2298097038856279
 46
0.0
 79
     2
 49
0.1625
 49
-0.1625
 53
135.0
 43
0.0974502442918373
 44
0.9891168415891655
 45
-0.2298097038856279
 46
0.0
 79
     2
 49
0.1625
 49
-0.1625
 53
135.0
 43
0.1405395637703926
 44
1.032206161067721
 45
-0.2298097038856279
 46
0.0
 79
     2
 49
0.1625
 49
-0.1625
 47
0.0023074432789715
 98
        2
 10
1.78068811817249
 20
5.753460527627145
 10
2.634795338446538
 20
5.769612614230283
  0
LINE
  5
BD9
330
4E0
100
AcDbEntity
  8
IMAGE
100
AcDbLine
 10
2.463486407340884
 20
4.685093290774373
 30
0.0
 11
2.463486407340884
 21
2.591391151355306
 31
0.0
  0
LINE
  5
BDA
330
4E0
100
AcDbEntity
  8
IMAGE
100
AcDbLine
 10
2.463486407340882
 20
2.591391151355304
 30
0.0
 11
2.371746718990467
 21
2.467831581902376
 31
0.0
  0
LINE
  5
BDB
330
4E0
100
AcDbEntity
  8
IMAGE
100
AcDbLine
 10
2.051508622281948
 20
2.591391151355304
 30
0.0
 11
2.143248310632364
 21
2.467831581902376
 31
0.0
  0
LINE
  5
BDC
330
4E0
100
AcDbEntity
  8
IMAGE
100
AcDbLine
 10
2.143248310632364
 20
2.467831581902376
 30
0.0
 11
2.371746718990465
 21
2.467831581902375
 31
0.0
  0
LINE
  5
BDD
330
4E0
100
AcDbEntity
  8
IMAGE
100
AcDbLine
 10
2.051508622281948
 20
2.591391151355304
 30
0.0
 11
2.463486407340884
 21
2.591391151355304
 31
0.0
  0
LINE
  5
BDE
330
4E0
100
AcDbEntity
  8
IMAGE
100
AcDbLine
 10
2.051508622281948
 20
5.463715292233652
 30
0.0
 11
2.051508622281948
 21
2.591391151355304
 31
0.0
  0
LINE
  5
BDF
330
4E0
100
AcDbEntity
  8
IMAGE
100
AcDbLine
 10
2.147106689433931
 20
2.467831581902376
 30
0.0
 11
2.147106689433931
 21
2.591391151355304
 31
0.0
  0
LINE
  5
BE0
330
4E0
100
AcDbEntity
  8
IMAGE
100
AcDbLine
 10
2.366484093830377
 20
2.467831581902376
 30
0.0
 11
2.366484093830377
 21
2.591391151355304
 31
0.0
  0
LINE
  5
BE1
330
4E0
100
AcDbEntity
  8
IMAGE
100
AcDbLine
 10
2.246298002096272
 20
2.591391151355304
 30
0.0
 11
2.246298002096272
 21
2.467831581902376
 31
0.0
  0
LINE
  5
BE2
330
4E0
100
AcDbEntity
  8
IMAGE
100
AcDbLine
 10
2.335742180504494
 20
2.467831581902376
 30
0.0
 11
2.335742180504494
 21
2.413348889616333
 31
0.0
  0
LINE
  5
BE3
330
4E0
100
AcDbEntity
  8
IMAGE
100
AcDbLine
 10
2.335742180504494
 20
2.413348889616333
 30
0.0
 11
2.281253633967754
 21
2.413348889616333
 31
0.0
  0
LINE
  5
BE4
330
4E0
100
AcDbEntity
  8
IMAGE
100
AcDbLine
 10
2.175909110663393
 20
2.413348889616333
 30
0.0
 11
2.175909110663393
 21
2.467831581902376
 31
0.0
  0
LINE
  5
BE5
330
4E0
100
AcDbEntity
  8
IMAGE
100
AcDbLine
 10
2.281253633967754
 20
2.413348889616333
 30
0.0
 11
2.281253633967754
 21
2.427342271992475
 31
0.0
  0
LINE
  5
BE6
330
4E0
100
AcDbEntity
  8
IMAGE
100
AcDbLine
 10
2.281253633967754
 20
2.427342271992475
 30
0.0
 11
2.230498505894415
 21
2.427342271992475
 31
0.0
  0
LINE
  5
BE7
330
4E0
100
AcDbEntity
  8
IMAGE
100
AcDbLine
 10
2.230498505894415
 20
2.427342271992475
 30
0.0
 11
2.230498505894415
 21
2.413348889616333
 31
0.0
  0
LINE
  5
BE8
330
4E0
100
AcDbEntity
  8
IMAGE
100
AcDbLine
 10
2.230498505894415
 20
2.413348889616333
 30
0.0
 11
2.175909110663393
 21
2.413348889616333
 31
0.0
  0
LINE
  5
BE9
330
4E0
100
AcDbEntity
  8
IMAGE
100
AcDbLine
 10
2.266394881040726
 20
2.591391151355304
 30
0.0
 11
2.266394881040726
 21
2.467831581902376
 31
0.0
  0
LINE
  5
BEA
330
4E0
100
AcDbEntity
  8
IMAGE
100
AcDbLine
 10
2.143599001078248
 20
2.467831581902376
 30
0.0
 11
2.357283678997523
 21
2.467831581902376
 31
0.0
  0
TEXT
  5
BF1
330
4E0
100
AcDbEntity
  8
IMAGE
100
AcDbText
 10
1.002379713997827
 20
1.777253380450291
 30
0.0
 40
0.125
  1
SIDE INLET CONNECTION SHOULD NOT BE USED IN FREEZING CLIMATES.
  7
ROMANS
100
AcDbText
  0
TEXT
  5
BF2
330
4E0
100
AcDbEntity
  8
IMAGE
100
AcDbText
 10
1.002379713997827
 20
1.979634332831243
 30
0.0
 40
0.125
  1
NOTE:
  7
ROMANS
100
AcDbText
  0
TEXT
  5
C05
330
4E0
100
AcDbEntity
  8
OPTION-NOZ-ROTARY
100
AcDbText
 10
4.774006067410544
 20
6.57853243846113
 30
0.0
 40
0.125
  1
  WITH RAIN BIRD ROTARY NOZZLE
  7
ROMANS
100
AcDbText
  0
TEXT
  5
C06
330
4E0
100
AcDbEntity
  8
INSTRUCT-OPTION
100
AcDbText
 10
14.03659402180473
 20
7.082538795094576
 30
0.0
 40
0.1
  1
%%uROTARY NOZZLE%%u
  7
ROMANS
100
AcDbText
  0
TEXT
  5
C07
330
4E0
100
AcDbEntity
  8
INSTRUCT-OPTION
100
AcDbText
 10
14.03659402180473
 20
6.916412873434108
 30
0.0
 40
0.1
  1
  OPTION-NOZ-ROTARY
  7
ROMANS
100
AcDbText
  0
ENDSEC
  0
SECTION
  2
OBJECTS
  0
DICTIONARY
  5
4CE
330
0
100
AcDbDictionary
281
     1
  3
ACAD_GROUP
350
4CF
  3
ACAD_LAYOUT
350
4DB
  3
ACAD_MLINESTYLE
350
4D8
  3
ACAD_PLOTSETTINGS
350
4DA
  3
ACAD_PLOTSTYLENAME
350
4D0
  3
AcDbVariableDictionary
350
513
  0
DICTIONARY
  5
51F
330
4C4
100
AcDbDictionary
280
     1
281
     1
  3
ACAD_LAYERFILTERS
360
593
  3
ACAD_LAYERSTATES
360
520
  0
DICTIONARY
  5
4CF
102
{ACAD_REACTORS
330
4CE
102
}
330
4CE
100
AcDbDictionary
281
     1
  0
DICTIONARY
  5
4DB
102
{ACAD_REACTORS
330
4CE
102
}
330
4CE
100
AcDbDictionary
281
     1
  3
Layout1
350
4DF
  3
Model
350
4E3
  0
DICTIONARY
  5
4D8
102
{ACAD_REACTORS
330
4CE
102
}
330
4CE
100
AcDbDictionary
281
     1
  3
Standard
350
4D9
  0
DICTIONARY
  5
4DA
102
{ACAD_REACTORS
330
4CE
102
}
330
4CE
100
AcDbDictionary
281
     1
  0
ACDBDICTIONARYWDFLT
  5
4D0
102
{ACAD_REACTORS
330
4CE
102
}
330
4CE
100
AcDbDictionary
281
     1
  3
Normal
350
4D1
100
AcDbDictionaryWithDefault
340
4D1
  0
DICTIONARY
  5
513
102
{ACAD_REACTORS
330
4CE
102
}
330
4CE
100
AcDbDictionary
281
     1
  3
DIMASSOC
350
516
  3
HIDETEXT
350
515
  3
SORTENTS
350
514
  0
DICTIONARY
  5
593
102
{ACAD_REACTORS
330
51F
102
}
330
51F
100
AcDbDictionary
280
     1
281
     1
  0
DICTIONARY
  5
520
102
{ACAD_REACTORS
330
51F
102
}
330
51F
100
AcDbDictionary
281
     1
  0
LAYOUT
  5
4DF
102
{ACAD_REACTORS
330
4DB
102
}
330
4DB
100
AcDbPlotSettings
  1

  2
S:\AutoCAD 2002\Plotters\1055B&WDraftShaded.pc3
  4

  6

 40
0.0
 41
0.0
 42
0.0
 43
0.0
 44
0.0
 45
0.0
 46
0.0
 47
0.0
 48
0.0
 49
0.0
140
0.0
141
0.0
142
1.0
143
1.0
 70
   688
 72
     0
 73
     0
 74
     5
  7
8500ColorShaded.ctb
 75
    16
147
1.0
148
0.0
149
0.0
100
AcDbLayout
  1
Layout1
 70
     1
 71
     1
 10
0.0
 20
0.0
 11
12.0
 21
9.0
 12
0.0
 22
0.0
 32
0.0
 14
1.000000000000000E+20
 24
1.000000000000000E+20
 34
1.000000000000000E+20
 15
-1.000000000000000E+20
 25
-1.000000000000000E+20
 35
-1.000000000000000E+20
146
0.0
 13
0.0
 23
0.0
 33
0.0
 16
1.0
 26
0.0
 36
0.0
 17
0.0
 27
1.0
 37
0.0
 76
     0
330
4DC
  0
LAYOUT
  5
4E3
102
{ACAD_REACTORS
330
4DB
102
}
330
4DB
100
AcDbPlotSettings
  1

  2
8500ColorShaded.pc3
  4
Letter
  6

 40
5.027083396911621
 41
5.027085304260253
 42
5.027084350585937
 43
5.027069091796875
 44
215.8999938964843
 45
279.3999938964843
 46
0.0
 47
0.0
 48
7.663858036417532
 49
-3.090597652711787
140
15.26477396019782
141
5.07064620808942
142
1.0
143
0.9379022546917438
 70
 11952
 72
     0
 73
     0
 74
     4
  7
8500ColorShaded.ctb
 75
     0
147
1.066209186509169
148
-194.6619941250053
149
78.5011803788794
100
AcDbLayout
  1
Model
 70
     1
 71
     0
 10
0.0
 20
0.0
 11
12.0
 21
9.0
 12
0.0
 22
0.0
 32
0.0
 14
0.0
 24
0.0
 34
0.0
 15
0.0
 25
0.0
 35
0.0
146
0.0
 13
0.0
 23
0.0
 33
0.0
 16
1.0
 26
0.0
 36
0.0
 17
0.0
 27
1.0
 37
0.0
 76
     0
330
4E0
  0
MLINESTYLE
  5
4D9
102
{ACAD_REACTORS
330
4D8
102
}
330
4D8
100
AcDbMlineStyle
  2
STANDARD
 70
     0
  3

 62
   256
 51
90.0
 52
90.0
 71
     2
 49
0.5
 62
   256
  6
BYLAYER
 49
-0.5
 62
   256
  6
BYLAYER
  0
ACDBPLACEHOLDER
  5
4D1
102
{ACAD_REACTORS
330
4D0
102
}
330
4D0
  0
DICTIONARYVAR
  5
516
102
{ACAD_REACTORS
330
513
102
}
330
513
100
DictionaryVariables
280
     0
  1
1
  0
DICTIONARYVAR
  5
515
102
{ACAD_REACTORS
330
513
102
}
330
513
100
DictionaryVariables
280
     0
  1
1
  0
DICTIONARYVAR
  5
514
102
{ACAD_REACTORS
330
513
102
}
330
513
100
DictionaryVariables
280
     0
  1
1
  0
ENDSEC
  0
EOF
