  0
SECTION
  2
HEADER
  9
$ACADVER
  1
AC1015
  9
$ACADMAINTVER
 70
    13
  9
$DWGCODEPAGE
  3
ANSI_1252
  9
$INSBASE
 10
0.0
 20
0.0
 30
0.0
  9
$EXTMIN
 10
0.0
 20
0.0
 30
0.0
  9
$EXTMAX
 10
16.48999999999999
 20
10.44
 30
0.03
  9
$LIMMIN
 10
0.0
 20
0.0
  9
$LIMMAX
 10
12.0
 20
9.0
  9
$ORTHOMODE
 70
     1
  9
$REGENMODE
 70
     1
  9
$FILLMODE
 70
     1
  9
$QTEXTMODE
 70
     0
  9
$MIRRTEXT
 70
     0
  9
$LTSCALE
 40
1.0
  9
$ATTMODE
 70
     1
  9
$TEXTSIZE
 40
0.2420757873425856
  9
$TRACEWID
 40
0.05
  9
$TEXTSTYLE
  7
ROMANS
  9
$CLAYER
  8
OPTION-NOZ-ROTARY
  9
$CELTYPE
  6
ByLayer
  9
$CECOLOR
 62
   256
  9
$CELTSCALE
 40
1.0
  9
$DISPSILH
 70
     0
  9
$DIMSCALE
 40
1.0
  9
$DIMASZ
 40
0.18
  9
$DIMEXO
 40
0.0625
  9
$DIMDLI
 40
0.38
  9
$DIMRND
 40
0.0
  9
$DIMDLE
 40
0.0
  9
$DIMEXE
 40
0.18
  9
$DIMTP
 40
0.0
  9
$DIMTM
 40
0.0
  9
$DIMTXT
 40
0.18
  9
$DIMCEN
 40
0.09
  9
$DIMTSZ
 40
0.0
  9
$DIMTOL
 70
     0
  9
$DIMLIM
 70
     0
  9
$DIMTIH
 70
     1
  9
$DIMTOH
 70
     1
  9
$DIMSE1
 70
     0
  9
$DIMSE2
 70
     0
  9
$DIMTAD
 70
     0
  9
$DIMZIN
 70
     0
  9
$DIMBLK
  1

  9
$DIMASO
 70
     1
  9
$DIMSHO
 70
     1
  9
$DIMPOST
  1

  9
$DIMAPOST
  1

  9
$DIMALT
 70
     0
  9
$DIMALTD
 70
     2
  9
$DIMALTF
 40
25.4
  9
$DIMLFAC
 40
1.0
  9
$DIMTOFL
 70
     0
  9
$DIMTVP
 40
0.0
  9
$DIMTIX
 70
     0
  9
$DIMSOXD
 70
     0
  9
$DIMSAH
 70
     0
  9
$DIMBLK1
  1

  9
$DIMBLK2
  1

  9
$DIMSTYLE
  2
STANDARD
  9
$DIMCLRD
 70
     0
  9
$DIMCLRE
 70
     0
  9
$DIMCLRT
 70
     0
  9
$DIMTFAC
 40
1.0
  9
$DIMGAP
 40
0.09
  9
$DIMJUST
 70
     0
  9
$DIMSD1
 70
     0
  9
$DIMSD2
 70
     0
  9
$DIMTOLJ
 70
     1
  9
$DIMTZIN
 70
     0
  9
$DIMALTZ
 70
     0
  9
$DIMALTTZ
 70
     0
  9
$DIMUPT
 70
     0
  9
$DIMDEC
 70
     4
  9
$DIMTDEC
 70
     4
  9
$DIMALTU
 70
     2
  9
$DIMALTTD
 70
     2
  9
$DIMTXSTY
  7
STANDARD
  9
$DIMAUNIT
 70
     0
  9
$DIMADEC
 70
     0
  9
$DIMALTRND
 40
0.0
  9
$DIMAZIN
 70
     0
  9
$DIMDSEP
 70
    46
  9
$DIMATFIT
 70
     3
  9
$DIMFRAC
 70
     0
  9
$DIMLDRBLK
  1

  9
$DIMLUNIT
 70
     2
  9
$DIMLWD
 70
    -2
  9
$DIMLWE
 70
    -2
  9
$DIMTMOVE
 70
     2
  9
$LUNITS
 70
     2
  9
$LUPREC
 70
     4
  9
$SKETCHINC
 40
0.1
  9
$FILLETRAD
 40
0.0
  9
$AUNITS
 70
     0
  9
$AUPREC
 70
     0
  9
$MENU
  1
ACAD
  9
$ELEVATION
 40
0.0
  9
$PELEVATION
 40
0.0
  9
$THICKNESS
 40
0.0
  9
$LIMCHECK
 70
     0
  9
$CHAMFERA
 40
0.0
  9
$CHAMFERB
 40
0.0
  9
$CHAMFERC
 40
0.0
  9
$CHAMFERD
 40
0.0
  9
$SKPOLY
 70
     0
  9
$TDCREATE
 40
2451466.408799768
  9
$TDUCREATE
 40
2451466.658799768
  9
$TDUPDATE
 40
2453109.587706446
  9
$TDUUPDATE
 40
2453109.837706446
  9
$TDINDWG
 40
0.1502543403
  9
$TDUSRTIMER
 40
0.1502543403
  9
$USRTIMER
 70
     1
  9
$ANGBASE
 50
0.0
  9
$ANGDIR
 70
     0
  9
$PDMODE
 70
     0
  9
$PDSIZE
 40
0.0
  9
$PLINEWID
 40
0.0
  9
$SPLFRAME
 70
     0
  9
$SPLINETYPE
 70
     6
  9
$SPLINESEGS
 70
     8
  9
$HANDSEED
  5
CB3
  9
$SURFTAB1
 70
     6
  9
$SURFTAB2
 70
     6
  9
$SURFTYPE
 70
     6
  9
$SURFU
 70
     6
  9
$SURFV
 70
     6
  9
$UCSBASE
  2

  9
$UCSNAME
  2

  9
$UCSORG
 10
0.0
 20
0.0
 30
0.0
  9
$UCSXDIR
 10
1.0
 20
0.0
 30
0.0
  9
$UCSYDIR
 10
0.0
 20
1.0
 30
0.0
  9
$UCSORTHOREF
  2

  9
$UCSORTHOVIEW
 70
     0
  9
$UCSORGTOP
 10
0.0
 20
0.0
 30
0.0
  9
$UCSORGBOTTOM
 10
0.0
 20
0.0
 30
0.0
  9
$UCSORGLEFT
 10
0.0
 20
0.0
 30
0.0
  9
$UCSORGRIGHT
 10
0.0
 20
0.0
 30
0.0
  9
$UCSORGFRONT
 10
0.0
 20
0.0
 30
0.0
  9
$UCSORGBACK
 10
0.0
 20
0.0
 30
0.0
  9
$PUCSBASE
  2

  9
$PUCSNAME
  2

  9
$PUCSORG
 10
0.0
 20
0.0
 30
0.0
  9
$PUCSXDIR
 10
1.0
 20
0.0
 30
0.0
  9
$PUCSYDIR
 10
0.0
 20
1.0
 30
0.0
  9
$PUCSORTHOREF
  2

  9
$PUCSORTHOVIEW
 70
     0
  9
$PUCSORGTOP
 10
0.0
 20
0.0
 30
0.0
  9
$PUCSORGBOTTOM
 10
0.0
 20
0.0
 30
0.0
  9
$PUCSORGLEFT
 10
0.0
 20
0.0
 30
0.0
  9
$PUCSORGRIGHT
 10
0.0
 20
0.0
 30
0.0
  9
$PUCSORGFRONT
 10
0.0
 20
0.0
 30
0.0
  9
$PUCSORGBACK
 10
0.0
 20
0.0
 30
0.0
  9
$USERI1
 70
     0
  9
$USERI2
 70
     0
  9
$USERI3
 70
     0
  9
$USERI4
 70
     0
  9
$USERI5
 70
     0
  9
$USERR1
 40
0.0
  9
$USERR2
 40
0.0
  9
$USERR3
 40
0.0
  9
$USERR4
 40
0.0
  9
$USERR5
 40
0.0
  9
$WORLDVIEW
 70
     1
  9
$SHADEDGE
 70
     3
  9
$SHADEDIF
 70
    70
  9
$TILEMODE
 70
     1
  9
$MAXACTVP
 70
    16
  9
$PINSBASE
 10
0.0
 20
0.0
 30
0.0
  9
$PLIMCHECK
 70
     0
  9
$PEXTMIN
 10
1.000000000000000E+20
 20
1.000000000000000E+20
 30
1.000000000000000E+20
  9
$PEXTMAX
 10
-1.000000000000000E+20
 20
-1.000000000000000E+20
 30
-1.000000000000000E+20
  9
$PLIMMIN
 10
0.0
 20
0.0
  9
$PLIMMAX
 10
12.0
 20
9.0
  9
$UNITMODE
 70
     0
  9
$VISRETAIN
 70
     0
  9
$PLINEGEN
 70
     1
  9
$PSLTSCALE
 70
     1
  9
$TREEDEPTH
 70
  3020
  9
$CMLSTYLE
  2
Standard
  9
$CMLJUST
 70
     0
  9
$CMLSCALE
 40
1.0
  9
$PROXYGRAPHICS
 70
     1
  9
$MEASUREMENT
 70
     0
  9
$CELWEIGHT
370
    -1
  9
$ENDCAPS
280
     0
  9
$JOINSTYLE
280
     0
  9
$LWDISPLAY
290
     0
  9
$INSUNITS
 70
     0
  9
$HYPERLINKBASE
  1

  9
$STYLESHEET
  1
OKIColorShaded.ctb
  9
$XEDIT
290
     1
  9
$CEPSNTYPE
380
     0
  9
$PSTYLEMODE
290
     1
  9
$FINGERPRINTGUID
  2
{56EF7DB9-F1D8-455F-BBD0-A224B8D92934}
  9
$VERSIONGUID
  2
{C7D60126-4AB2-4931-A728-A90B3B466961}
  9
$EXTNAMES
290
     1
  9
$PSVPSCALE
 40
0.0
  9
$OLESTARTUP
290
     1
  0
ENDSEC
  0
SECTION
  2
CLASSES
  0
CLASS
  1
ACDBDICTIONARYWDFLT
  2
AcDbDictionaryWithDefault
  3
AutoCAD 2000
 90
        0
280
     0
281
     0
  0
CLASS
  1
ACDBPLACEHOLDER
  2
AcDbPlaceHolder
  3
AutoCAD 2000
 90
        0
280
     0
281
     0
  0
CLASS
  1
LAYOUT
  2
AcDbLayout
  3
AutoCAD 2000
 90
        0
280
     0
281
     0
  0
CLASS
  1
DICTIONARYVAR
  2
AcDbDictionaryVar
  3
AutoCAD 2000
 90
        0
280
     0
281
     0
  0
CLASS
  1
PLOTSETTINGS
  2
AcDbPlotSettings
  3
AutoCAD 2000
 90
        0
280
     0
281
     0
  0
ENDSEC
  0
SECTION
  2
TABLES
  0
TABLE
  2
VPORT
  5
B33
330
0
100
AcDbSymbolTable
 70
     2
  0
VPORT
  5
CB2
330
B33
100
AcDbSymbolTableRecord
100
AcDbViewportTableRecord
  2
*Active
 70
     0
 10
0.0
 20
0.0
 11
1.0
 21
1.0
 12
8.245150918268381
 22
5.220000048616521
 13
0.0
 23
0.0
 14
0.14
 24
0.14
 15
0.0
 25
0.0
 16
0.0
 26
0.0
 36
1.0
 17
0.0
 27
0.0
 37
0.0
 40
11.00895401539815
 41
1.505548705302096
 42
50.0
 43
0.0
 44
0.0
 50
0.0
 51
0.0
 71
     0
 72
  5000
 73
     1
 74
     0
 75
     0
 76
     0
 77
     0
 78
     1
281
     0
 65
     1
110
0.0
120
0.0
130
0.0
111
1.0
121
0.0
131
0.0
112
0.0
122
1.0
132
0.0
 79
     0
146
0.0
  0
ENDTAB
  0
TABLE
  2
LTYPE
  5
B30
330
0
100
AcDbSymbolTable
 70
     1
  0
LTYPE
  5
B3E
330
B30
100
AcDbSymbolTableRecord
100
AcDbLinetypeTableRecord
  2
ByBlock
 70
     0
  3

 72
    65
 73
     0
 40
0.0
  0
LTYPE
  5
B3F
330
B30
100
AcDbSymbolTableRecord
100
AcDbLinetypeTableRecord
  2
ByLayer
 70
     0
  3

 72
    65
 73
     0
 40
0.0
  0
LTYPE
  5
B40
330
B30
100
AcDbSymbolTableRecord
100
AcDbLinetypeTableRecord
  2
CONTINUOUS
 70
     0
  3
Solid line
 72
    65
 73
     0
 40
0.0
  0
ENDTAB
  0
TABLE
  2
LAYER
  5
B2D
102
{ACAD_XDICTIONARY
360
C3F
102
}
330
0
100
AcDbSymbolTable
 70
    19
  0
LAYER
  5
B3B
330
B2D
100
AcDbSymbolTableRecord
100
AcDbLayerTableRecord
  2
0
 70
     0
 62
     7
  6
CONTINUOUS
370
    -3
390
B3A
  0
LAYER
  5
B54
330
B2D
100
AcDbSymbolTableRecord
100
AcDbLayerTableRecord
  2
TEXT_BUBBLES
 70
     0
 62
     6
  6
CONTINUOUS
370
    -3
390
B3A
  0
LAYER
  5
B55
330
B2D
100
AcDbSymbolTableRecord
100
AcDbLayerTableRecord
  2
IMAGE
 70
     0
 62
     7
  6
CONTINUOUS
370
    -3
390
B3A
  0
LAYER
  5
B58
330
B2D
100
AcDbSymbolTableRecord
100
AcDbLayerTableRecord
  2
TEXT_LEADERS
 70
     0
 62
    -5
  6
CONTINUOUS
370
    -3
390
B3A
  0
LAYER
  5
B59
330
B2D
100
AcDbSymbolTableRecord
100
AcDbLayerTableRecord
  2
OPTION-NOZ-VAN
 70
     0
 62
    -1
  6
CONTINUOUS
370
    -3
390
B3A
  0
LAYER
  5
B5B
330
B2D
100
AcDbSymbolTableRecord
100
AcDbLayerTableRecord
  2
OPTION-NOZ-PLASTIC
 70
     0
 62
    -1
  6
CONTINUOUS
370
    -3
390
B3A
  0
LAYER
  5
B5C
330
B2D
100
AcDbSymbolTableRecord
100
AcDbLayerTableRecord
  2
INSTRUCT-OPTION
 70
     0
 62
     7
  6
CONTINUOUS
370
    -3
390
B3A
  0
LAYER
  5
B5D
330
B2D
100
AcDbSymbolTableRecord
100
AcDbLayerTableRecord
  2
INSTRUCT-CALLOUT
 70
     0
 62
     4
  6
CONTINUOUS
370
    -3
390
B3A
  0
LAYER
  5
B5F
330
B2D
100
AcDbSymbolTableRecord
100
AcDbLayerTableRecord
  2
OPTION-NOZ-U-SERIES
 70
     0
 62
    -1
  6
CONTINUOUS
370
    -3
390
B3A
  0
LAYER
  5
B60
330
B2D
100
AcDbSymbolTableRecord
100
AcDbLayerTableRecord
  2
OPTION-VPC
 70
     0
 62
     1
  6
CONTINUOUS
370
    -3
390
B3A
  0
LAYER
  5
B61
330
B2D
100
AcDbSymbolTableRecord
100
AcDbLayerTableRecord
  2
OPTION-NP
 70
     0
 62
    -1
  6
CONTINUOUS
370
    -3
390
B3A
  0
LAYER
  5
B62
330
B2D
100
AcDbSymbolTableRecord
100
AcDbLayerTableRecord
  2
OPTION-SA
 70
     0
 62
    -1
  6
CONTINUOUS
370
    -3
390
B3A
  0
LAYER
  5
B63
330
B2D
100
AcDbSymbolTableRecord
100
AcDbLayerTableRecord
  2
TEXT-SA-BUBBLES
 70
     0
 62
    -1
  6
CONTINUOUS
370
    -3
390
B3A
  0
LAYER
  5
B64
330
B2D
100
AcDbSymbolTableRecord
100
AcDbLayerTableRecord
  2
TEXT-SA-LEADERS
 70
     0
 62
    -1
  6
CONTINUOUS
370
    -3
390
B3A
  0
LAYER
  5
B65
330
B2D
100
AcDbSymbolTableRecord
100
AcDbLayerTableRecord
  2
OPTION-RB-SA
 70
     0
 62
     1
  6
CONTINUOUS
370
    -3
390
B3A
  0
LAYER
  5
B66
330
B2D
100
AcDbSymbolTableRecord
100
AcDbLayerTableRecord
  2
TEXT-RB-SA-LEADERS
 70
     0
 62
    -1
  6
CONTINUOUS
370
    -3
390
B3A
  0
LAYER
  5
B67
330
B2D
100
AcDbSymbolTableRecord
100
AcDbLayerTableRecord
  2
TEXT-RB-SA-BUBBLES
 70
     0
 62
     1
  6
CONTINUOUS
370
    -3
390
B3A
  0
LAYER
  5
B7B
330
B2D
100
AcDbSymbolTableRecord
100
AcDbLayerTableRecord
  2
TITLE
 70
     0
 62
     4
  6
CONTINUOUS
370
    -3
390
B3A
  0
LAYER
  5
CA2
330
B2D
100
AcDbSymbolTableRecord
100
AcDbLayerTableRecord
  2
OPTION-NOZ-ROTARY
 70
     0
 62
     1
  6
CONTINUOUS
370
    -3
390
B3A
  0
ENDTAB
  0
TABLE
  2
STYLE
  5
B2E
330
0
100
AcDbSymbolTable
 70
     6
  0
STYLE
  5
B3C
330
B2E
100
AcDbSymbolTableRecord
100
AcDbTextStyleTableRecord
  2
STANDARD
 70
     0
 40
0.0
 41
1.0
 50
0.0
 71
     0
 42
0.2
  3
txt
  4

  0
STYLE
  5
B4F
330
B2E
100
AcDbSymbolTableRecord
100
AcDbTextStyleTableRecord
  2
ROMANS
 70
     0
 40
0.0
 41
1.0
 50
0.0
 71
     0
 42
0.2420757873425856
  3
ROMANS.SHX
  4

  0
STYLE
  5
B50
330
B2E
100
AcDbSymbolTableRecord
100
AcDbTextStyleTableRecord
  2
SIMPLEX
 70
     0
 40
0.0
 41
1.0
 50
0.0
 71
     0
 42
0.2420757873425856
  3
SIMPLEX
  4

  0
STYLE
  5
B7C
330
B2E
100
AcDbSymbolTableRecord
100
AcDbTextStyleTableRecord
  2
L100
 70
     0
 40
0.1
 41
1.0
 50
0.0
 71
     0
 42
0.1
  3
romans.shx
  4

  0
STYLE
  5
B7D
330
B2E
100
AcDbSymbolTableRecord
100
AcDbTextStyleTableRecord
  2
L200
 70
     0
 40
0.2
 41
1.0
 50
0.0
 71
     0
 42
0.081
  3
ARIAL.TTF
  4

1001
ACAD
1000
Arial
1071
       34
  0
STYLE
  5
B7E
330
B2E
100
AcDbSymbolTableRecord
100
AcDbTextStyleTableRecord
  2
L80
 70
     0
 40
0.08
 41
1.0
 50
0.0
 71
     0
 42
0.08
  3
ROMANS
  4

  0
ENDTAB
  0
TABLE
  2
VIEW
  5
B31
330
0
100
AcDbSymbolTable
 70
     1
  0
VIEW
  5
BFF
330
B31
100
AcDbSymbolTableRecord
100
AcDbViewTableRecord
  2
ps1
 70
     0
 40
10.44
 10
8.244999999999997
 20
5.219999999999999
 41
16.48999999999999
 11
0.0
 21
0.0
 31
1.0
 12
0.0
 22
0.0
 32
0.0
 42
50.0
 43
0.0
 44
0.0
 50
0.0
 71
     0
281
     0
 72
     1
110
0.0
120
0.0
130
0.0
111
1.0
121
0.0
131
0.0
112
0.0
122
1.0
132
0.0
 79
     0
146
0.0
  0
ENDTAB
  0
TABLE
  2
UCS
  5
B32
330
0
100
AcDbSymbolTable
 70
     0
  0
ENDTAB
  0
TABLE
  2
APPID
  5
B34
330
0
100
AcDbSymbolTable
 70
     3
  0
APPID
  5
B3D
330
B34
100
AcDbSymbolTableRecord
100
AcDbRegAppTableRecord
  2
ACAD
 70
     0
  0
APPID
  5
B52
330
B34
100
AcDbSymbolTableRecord
100
AcDbRegAppTableRecord
  2
RAK
 70
     0
  0
APPID
  5
B7F
330
B34
100
AcDbSymbolTableRecord
100
AcDbRegAppTableRecord
  2
DCO15
 70
     0
  0
ENDTAB
  0
TABLE
  2
DIMSTYLE
  5
B35
330
0
100
AcDbSymbolTable
 70
     1
100
AcDbDimStyleTable
 71
     0
  0
DIMSTYLE
105
B53
330
B35
100
AcDbSymbolTableRecord
100
AcDbDimStyleTableRecord
  2
STANDARD
 70
     0
279
     2
340
B3C
  0
ENDTAB
  0
TABLE
  2
BLOCK_RECORD
  5
B2C
330
0
100
AcDbSymbolTable
 70
     2
  0
BLOCK_RECORD
  5
B49
330
B2C
100
AcDbSymbolTableRecord
100
AcDbBlockTableRecord
  2
*Model_Space
340
B4C
  0
BLOCK_RECORD
  5
B45
330
B2C
100
AcDbSymbolTableRecord
100
AcDbBlockTableRecord
  2
*Paper_Space
340
B48
  0
BLOCK_RECORD
  5
B4D
330
B2C
100
AcDbSymbolTableRecord
100
AcDbBlockTableRecord
  2
*X0
340
0
102
{BLKREFS
331
A19
102
}
  0
BLOCK_RECORD
  5
B80
330
B2C
100
AcDbSymbolTableRecord
100
AcDbBlockTableRecord
  2
titleblock
340
0
102
{BLKREFS
331
B8F
102
}
  0
ENDTAB
  0
ENDSEC
  0
SECTION
  2
BLOCKS
  0
BLOCK
  5
B6A
330
B49
100
AcDbEntity
  8
0
100
AcDbBlockBegin
  2
*Model_Space
 70
     0
 10
0.0
 20
0.0
 30
0.0
  3
*Model_Space
  1

  0
ENDBLK
  5
B6B
330
B49
100
AcDbEntity
  8
0
100
AcDbBlockEnd
  0
BLOCK
  5
B68
330
B45
100
AcDbEntity
 67
     1
  8
0
100
AcDbBlockBegin
  2
*Paper_Space
 70
     0
 10
0.0
 20
0.0
 30
0.0
  3
*Paper_Space
  1

  0
ENDBLK
  5
B69
330
B45
100
AcDbEntity
 67
     1
  8
0
100
AcDbBlockEnd
  0
BLOCK
  5
AFA
330
B4D
100
AcDbEntity
  8
0
100
AcDbBlockBegin
  2
*X0
 70
     1
 10
0.0
 20
0.0
 30
0.0
  3
*X0
  1

  0
LINE
  5
A8B
330
B4D
100
AcDbEntity
  8
0
 62
     0
100
AcDbLine
 10
3.228763794413874
 20
5.021828124973287
 30
0.0
 11
3.189753154837935
 21
5.060838764549226
 31
0.0
  0
LINE
  5
A8C
330
B4D
100
AcDbEntity
  8
0
 62
     0
100
AcDbLine
 10
3.074848302895123
 20
4.945933912606411
 30
0.0
 11
2.959943450952309
 21
5.060838764549226
 31
0.0
  0
LINE
  5
A8D
330
B4D
100
AcDbEntity
  8
0
 62
     0
100
AcDbLine
 10
2.845038599009495
 20
4.945933912606411
 30
0.0
 11
2.73013374706668
 21
5.060838764549226
 31
0.0
  0
LINE
  5
A8E
330
B4D
100
AcDbEntity
  8
0
 62
     0
100
AcDbLine
 10
3.004484618143712
 20
4.786487893472194
 30
0.0
 11
2.959943450952309
 21
4.831029060663597
 31
0.0
  0
LINE
  5
A8F
330
B4D
100
AcDbEntity
  8
0
 62
     0
100
AcDbLine
 10
2.615228895123866
 20
4.945933912606411
 30
0.0
 11
2.567250776982436
 21
4.993912030747841
 31
0.0
  0
LINE
  5
A90
330
B4D
100
AcDbEntity
  8
0
 62
     0
100
AcDbLine
 10
2.832179596412003
 20
4.728983211318274
 30
0.0
 11
2.73013374706668
 21
4.831029060663596
 31
0.0
  0
LINE
  5
A91
330
B4D
100
AcDbEntity
  8
0
 62
     0
100
AcDbLine
 10
2.615228895123865
 20
4.716124208720784
 30
0.0
 11
2.500324043181051
 21
4.831029060663598
 31
0.0
  0
LINE
  5
A92
330
B4D
100
AcDbEntity
  8
0
 62
     0
100
AcDbLine
 10
2.564489047074309
 20
4.537054352884713
 30
0.0
 11
2.500324043181052
 21
4.60121935677797
 31
0.0
  0
LINE
  5
A93
330
B4D
100
AcDbEntity
  8
0
 62
     0
100
AcDbLine
 10
1.925799783466982
 20
4.945933912606412
 30
0.0
 11
1.810894931524168
 21
5.060838764549226
 31
0.0
  0
LINE
  5
A94
330
B4D
100
AcDbEntity
  8
0
 62
     0
100
AcDbLine
 10
2.054407537523053
 20
4.817326158550341
 30
0.0
 11
2.040704635409796
 21
4.831029060663598
 31
0.0
  0
LINE
  5
A95
330
B4D
100
AcDbEntity
  8
0
 62
     0
100
AcDbLine
 10
1.695990079581354
 20
4.945933912606413
 30
0.0
 11
1.58108522763854
 21
5.060838764549227
 31
0.0
  0
LINE
  5
A96
330
B4D
100
AcDbEntity
  8
0
 62
     0
100
AcDbLine
 10
1.925799783466982
 20
4.716124208720785
 30
0.0
 11
1.810894931524168
 21
4.831029060663599
 31
0.0
  0
LINE
  5
A97
330
B4D
100
AcDbEntity
  8
0
 62
     0
100
AcDbLine
 10
2.054407537523053
 20
4.587516454664712
 30
0.0
 11
2.040704635409796
 21
4.601219356777971
 31
0.0
  0
LINE
  5
A98
330
B4D
100
AcDbEntity
  8
0
 62
     0
100
AcDbLine
 10
1.466180375695726
 20
4.945933912606413
 30
0.0
 11
1.351275523752912
 21
5.060838764549227
 31
0.0
  0
LINE
  5
A99
330
B4D
100
AcDbEntity
  8
0
 62
     0
100
AcDbLine
 10
1.695990079581354
 20
4.716124208720785
 30
0.0
 11
1.58108522763854
 21
4.831029060663599
 31
0.0
  0
LINE
  5
A9A
330
B4D
100
AcDbEntity
  8
0
 62
     0
100
AcDbLine
 10
1.925799783466982
 20
4.486314504835156
 30
0.0
 11
1.810894931524168
 21
4.601219356777971
 31
0.0
  0
LINE
  5
A9B
330
B4D
100
AcDbEntity
  8
0
 62
     0
100
AcDbLine
 10
1.466180375695727
 20
4.716124208720785
 30
0.0
 11
1.351275523752913
 21
4.831029060663599
 31
0.0
  0
LINE
  5
A9C
330
B4D
100
AcDbEntity
  8
0
 62
     0
100
AcDbLine
 10
1.677942502129882
 20
4.504362082286629
 30
0.0
 11
1.581085227638541
 21
4.601219356777971
 31
0.0
  0
LINE
  5
A9D
330
B4D
100
AcDbEntity
  8
0
 62
     0
100
AcDbLine
 10
3.20024833826104
 20
4.964164942169009
 30
0.0
 11
3.14666383535938
 21
5.01774944507067
 31
0.0
  0
LINE
  5
A9E
330
B4D
100
AcDbEntity
  8
0
 62
     0
100
AcDbLine
 10
3.031758983416566
 20
4.902844593127857
 30
0.0
 11
2.916854131473752
 21
5.017749445070671
 31
0.0
  0
LINE
  5
A9F
330
B4D
100
AcDbEntity
  8
0
 62
     0
100
AcDbLine
 10
2.801949279530938
 20
4.902844593127857
 30
0.0
 11
2.687044427588124
 21
5.017749445070672
 31
0.0
  0
LINE
  5
AA0
330
B4D
100
AcDbEntity
  8
0
 62
     0
100
AcDbLine
 10
2.945100819081285
 20
4.759693053577509
 30
0.0
 11
2.916854131473752
 21
4.787939741185043
 31
0.0
  0
LINE
  5
AA1
330
B4D
100
AcDbEntity
  8
0
 62
     0
100
AcDbLine
 10
2.57213957564531
 20
4.902844593127857
 30
0.0
 11
2.531875700416063
 21
4.943108468357104
 31
0.0
  0
LINE
  5
AA2
330
B4D
100
AcDbEntity
  8
0
 62
     0
100
AcDbLine
 10
2.759948925655052
 20
4.715035243118114
 30
0.0
 11
2.687044427588123
 21
4.787939741185043
 31
0.0
  0
LINE
  5
AA3
330
B4D
100
AcDbEntity
  8
0
 62
     0
100
AcDbLine
 10
2.572139575645311
 20
4.673034889242229
 30
0.0
 11
2.46638532258199
 21
4.77878914230555
 31
0.0
  0
LINE
  5
AA4
330
B4D
100
AcDbEntity
  8
0
 62
     0
100
AcDbLine
 10
2.520654350034094
 20
4.494710410967817
 30
0.0
 11
2.466385322581992
 21
4.54897943841992
 31
0.0
  0
LINE
  5
AA5
330
B4D
100
AcDbEntity
  8
0
 62
     0
100
AcDbLine
 10
1.882710463988426
 20
4.902844593127857
 30
0.0
 11
1.767805612045612
 21
5.017749445070672
 31
0.0
  0
LINE
  5
AA6
330
B4D
100
AcDbEntity
  8
0
 62
     0
100
AcDbLine
 10
2.054407537523053
 20
4.731147519593229
 30
0.0
 11
1.997615315931239
 21
4.787939741185043
 31
0.0
  0
LINE
  5
AA7
330
B4D
100
AcDbEntity
  8
0
 62
     0
100
AcDbLine
 10
1.652900760102798
 20
4.902844593127857
 30
0.0
 11
1.537995908159984
 21
5.017749445070672
 31
0.0
  0
LINE
  5
AA8
330
B4D
100
AcDbEntity
  8
0
 62
     0
100
AcDbLine
 10
1.882710463988426
 20
4.673034889242229
 30
0.0
 11
1.767805612045612
 21
4.787939741185043
 31
0.0
  0
LINE
  5
AA9
330
B4D
100
AcDbEntity
  8
0
 62
     0
100
AcDbLine
 10
2.054407537523053
 20
4.501337815707602
 30
0.0
 11
1.99761531593124
 21
4.558130037299415
 31
0.0
  0
LINE
  5
AAA
330
B4D
100
AcDbEntity
  8
0
 62
     0
100
AcDbLine
 10
1.423091056217171
 20
4.902844593127858
 30
0.0
 11
1.308186204274357
 21
5.017749445070672
 31
0.0
  0
LINE
  5
AAB
330
B4D
100
AcDbEntity
  8
0
 62
     0
100
AcDbLine
 10
1.652900760102799
 20
4.67303488924223
 30
0.0
 11
1.537995908159985
 21
4.787939741185044
 31
0.0
  0
LINE
  5
AAC
330
B4D
100
AcDbEntity
  8
0
 62
     0
100
AcDbLine
 10
1.862125365792531
 20
4.463810283552497
 30
0.0
 11
1.767805612045613
 21
4.558130037299416
 31
0.0
  0
LINE
  5
AAD
330
B4D
100
AcDbEntity
  8
0
 62
     0
100
AcDbLine
 10
3.218479367823638
 20
5.089564977534929
 30
0.0
 11
3.18248660633735
 21
5.125557739021217
 31
0.0
  0
LINE
  5
AAE
330
B4D
100
AcDbEntity
  8
0
 62
     0
100
AcDbLine
 10
2.988669663938009
 20
5.08956497753493
 30
0.0
 11
2.952676902451721
 21
5.125557739021218
 31
0.0
  0
LINE
  5
AAF
330
B4D
100
AcDbEntity
  8
0
 62
     0
100
AcDbLine
 10
3.157475210576881
 20
4.920759430896058
 30
0.0
 11
3.103574515880823
 21
4.974660125592116
 31
0.0
  0
LINE
  5
AB0
330
B4D
100
AcDbEntity
  8
0
 62
     0
100
AcDbLine
 10
2.758859960052383
 20
5.08956497753493
 30
0.0
 11
2.722867198566094
 21
5.125557739021219
 31
0.0
  0
LINE
  5
AB1
330
B4D
100
AcDbEntity
  8
0
 62
     0
100
AcDbLine
 10
2.988669663938011
 20
4.859755273649302
 30
0.0
 11
2.873764811995197
 21
4.974660125592116
 31
0.0
  0
LINE
  5
AB2
330
B4D
100
AcDbEntity
  8
0
 62
     0
100
AcDbLine
 10
2.758859960052382
 20
4.859755273649302
 30
0.0
 11
2.643955108109568
 21
4.974660125592116
 31
0.0
  0
LINE
  5
AB3
330
B4D
100
AcDbEntity
  8
0
 62
     0
100
AcDbLine
 10
2.87835000777285
 20
4.740265225928834
 30
0.0
 11
2.873764811995196
 21
4.744850421706487
 31
0.0
  0
LINE
  5
AB4
330
B4D
100
AcDbEntity
  8
0
 62
     0
100
AcDbLine
 10
2.529050256166754
 20
4.859755273649302
 30
0.0
 11
2.466385322581988
 21
4.922420207234067
 31
0.0
  0
LINE
  5
AB5
330
B4D
100
AcDbEntity
  8
0
 62
     0
100
AcDbLine
 10
2.711380276336024
 20
4.677425253480032
 30
0.0
 11
2.643955108109568
 21
4.744850421706487
 31
0.0
  0
LINE
  5
AB6
330
B4D
100
AcDbEntity
  8
0
 62
     0
100
AcDbLine
 10
2.529050256166755
 20
4.629945569763673
 30
0.0
 11
2.466385322581991
 21
4.692610503348437
 31
0.0
  0
LINE
  5
AB7
330
B4D
100
AcDbEntity
  8
0
 62
     0
100
AcDbLine
 10
2.054407537523054
 20
4.874778584521746
 30
0.0
 11
1.986077653687695
 21
4.943108468357106
 31
0.0
  0
LINE
  5
AB8
330
B4D
100
AcDbEntity
  8
0
 62
     0
100
AcDbLine
 10
1.839621144509872
 20
5.089564977534929
 30
0.0
 11
1.803628383023584
 21
5.125557739021217
 31
0.0
  0
LINE
  5
AB9
330
B4D
100
AcDbEntity
  8
0
 62
     0
100
AcDbLine
 10
1.975600640184697
 20
4.953585481860104
 30
0.0
 11
1.954525996452686
 21
4.974660125592115
 31
0.0
  0
LINE
  5
ABA
330
B4D
100
AcDbEntity
  8
0
 62
     0
100
AcDbLine
 10
2.476819652993879
 20
4.452366469050921
 30
0.0
 11
2.466385322581992
 21
4.462800799462807
 31
0.0
  0
LINE
  5
ABB
330
B4D
100
AcDbEntity
  8
0
 62
     0
100
AcDbLine
 10
1.609811440624243
 20
5.08956497753493
 30
0.0
 11
1.573818679137955
 21
5.125557739021219
 31
0.0
  0
LINE
  5
ABC
330
B4D
100
AcDbEntity
  8
0
 62
     0
100
AcDbLine
 10
1.839621144509871
 20
4.859755273649302
 30
0.0
 11
1.724716292567057
 21
4.974660125592116
 31
0.0
  0
LINE
  5
ABD
330
B4D
100
AcDbEntity
  8
0
 62
     0
100
AcDbLine
 10
2.054407537523053
 20
4.644968880636119
 30
0.0
 11
1.954525996452685
 21
4.744850421706487
 31
0.0
  0
LINE
  5
ABE
330
B4D
100
AcDbEntity
  8
0
 62
     0
100
AcDbLine
 10
1.380001736738614
 20
5.089564977534931
 30
0.0
 11
1.344008975252325
 21
5.125557739021219
 31
0.0
  0
LINE
  5
ABF
330
B4D
100
AcDbEntity
  8
0
 62
     0
100
AcDbLine
 10
1.609811440624242
 20
4.859755273649303
 30
0.0
 11
1.494906588681428
 21
4.974660125592117
 31
0.0
  0
LINE
  5
AC0
330
B4D
100
AcDbEntity
  8
0
 62
     0
100
AcDbLine
 10
1.83962114450987
 20
4.629945569763674
 30
0.0
 11
1.724716292567056
 21
4.744850421706488
 31
0.0
  0
LINE
  5
AC1
330
B4D
100
AcDbEntity
  8
0
 62
     0
100
AcDbLine
 10
2.027387160985245
 20
4.442179553288299
 30
0.0
 11
1.954525996452684
 21
4.51504071782086
 31
0.0
  0
LINE
  5
AC2
330
B4D
100
AcDbEntity
  8
0
 62
     0
100
AcDbLine
 10
1.380001736738615
 20
4.859755273649302
 30
0.0
 11
1.285696817557305
 21
4.954060192830612
 31
0.0
  0
LINE
  5
AC3
330
B4D
100
AcDbEntity
  8
0
 62
     0
100
AcDbLine
 10
1.609811440624243
 20
4.629945569763673
 30
0.0
 11
1.494906588681429
 21
4.744850421706487
 31
0.0
  0
LINE
  5
AC4
330
B4D
100
AcDbEntity
  8
0
 62
     0
100
AcDbLine
 10
1.753382529112603
 20
4.486374481275313
 30
0.0
 11
1.724716292567057
 21
4.515040717820859
 31
0.0
  0
LINE
  5
AC5
330
B4D
100
AcDbEntity
  8
0
 62
     0
100
AcDbLine
 10
3.218479367823639
 20
5.060838764549226
 30
0.0
 11
3.25944435111329
 21
5.101803747838878
 31
0.0
  0
LINE
  5
AC6
330
B4D
100
AcDbEntity
  8
0
 62
     0
100
AcDbLine
 10
2.988669663938011
 20
4.831029060663598
 30
0.0
 11
3.103574515880825
 21
4.945933912606412
 31
0.0
  0
LINE
  5
AC7
330
B4D
100
AcDbEntity
  8
0
 62
     0
100
AcDbLine
 10
2.988669663938012
 20
5.060838764549228
 30
0.0
 11
3.053388638410003
 21
5.125557739021219
 31
0.0
  0
LINE
  5
AC8
330
B4D
100
AcDbEntity
  8
0
 62
     0
100
AcDbLine
 10
2.758859960052384
 20
4.8310290606636
 30
0.0
 11
2.873764811995198
 21
4.945933912606414
 31
0.0
  0
LINE
  5
AC9
330
B4D
100
AcDbEntity
  8
0
 62
     0
100
AcDbLine
 10
2.529050256166756
 20
4.601219356777972
 30
0.0
 11
2.64395510810957
 21
4.716124208720786
 31
0.0
  0
LINE
  5
ACA
330
B4D
100
AcDbEntity
  8
0
 62
     0
100
AcDbLine
 10
2.758859960052383
 20
5.060838764549226
 30
0.0
 11
2.823578934524375
 21
5.125557739021218
 31
0.0
  0
LINE
  5
ACB
330
B4D
100
AcDbEntity
  8
0
 62
     0
100
AcDbLine
 10
2.529050256166755
 20
4.831029060663598
 30
0.0
 11
2.643955108109569
 21
4.945933912606412
 31
0.0
  0
LINE
  5
ACC
330
B4D
100
AcDbEntity
  8
0
 62
     0
100
AcDbLine
 10
1.922144262256618
 20
4.45393277063909
 30
0.0
 11
1.954525996452685
 21
4.486314504835156
 31
0.0
  0
LINE
  5
ACD
330
B4D
100
AcDbEntity
  8
0
 62
     0
100
AcDbLine
 10
1.839621144509871
 20
4.601219356777971
 30
0.0
 11
1.954525996452685
 21
4.716124208720785
 31
0.0
  0
LINE
  5
ACE
330
B4D
100
AcDbEntity
  8
0
 62
     0
100
AcDbLine
 10
1.839621144509871
 20
4.8310290606636
 30
0.0
 11
1.954525996452685
 21
4.945933912606414
 31
0.0
  0
LINE
  5
ACF
330
B4D
100
AcDbEntity
  8
0
 62
     0
100
AcDbLine
 10
1.609811440624243
 20
4.601219356777972
 30
0.0
 11
1.724716292567057
 21
4.716124208720786
 31
0.0
  0
LINE
  5
AD0
330
B4D
100
AcDbEntity
  8
0
 62
     0
100
AcDbLine
 10
1.839621144509871
 20
5.060838764549226
 30
0.0
 11
1.904340118981862
 21
5.125557739021219
 31
0.0
  0
LINE
  5
AD1
330
B4D
100
AcDbEntity
  8
0
 62
     0
100
AcDbLine
 10
1.609811440624243
 20
4.831029060663598
 30
0.0
 11
1.724716292567057
 21
4.945933912606412
 31
0.0
  0
LINE
  5
AD2
330
B4D
100
AcDbEntity
  8
0
 62
     0
100
AcDbLine
 10
1.467821272772333
 20
4.689038892811688
 30
0.0
 11
1.494906588681429
 21
4.716124208720784
 31
0.0
  0
LINE
  5
AD3
330
B4D
100
AcDbEntity
  8
0
 62
     0
100
AcDbLine
 10
1.609811440624243
 20
5.060838764549227
 30
0.0
 11
1.674530415096234
 21
5.125557739021219
 31
0.0
  0
LINE
  5
AD4
330
B4D
100
AcDbEntity
  8
0
 62
     0
100
AcDbLine
 10
1.380001736738615
 20
4.831029060663599
 30
0.0
 11
1.494906588681429
 21
4.945933912606413
 31
0.0
  0
LINE
  5
AD5
330
B4D
100
AcDbEntity
  8
0
 62
     0
100
AcDbLine
 10
1.380001736738615
 20
5.060838764549226
 30
0.0
 11
1.444720711210607
 21
5.125557739021218
 31
0.0
  0
LINE
  5
AD6
330
B4D
100
AcDbEntity
  8
0
 62
     0
100
AcDbLine
 10
3.062314172376241
 20
4.818494930144717
 30
0.0
 11
3.142367802721135
 21
4.898548560489611
 31
0.0
  0
LINE
  5
AD7
330
B4D
100
AcDbEntity
  8
0
 62
     0
100
AcDbLine
 10
3.031758983416568
 20
5.017749445070672
 30
0.0
 11
3.139567277367115
 21
5.125557739021219
 31
0.0
  0
LINE
  5
AD8
330
B4D
100
AcDbEntity
  8
0
 62
     0
100
AcDbLine
 10
2.80194927953094
 20
4.787939741185044
 30
0.0
 11
2.916854131473754
 21
4.902844593127858
 31
0.0
  0
LINE
  5
AD9
330
B4D
100
AcDbEntity
  8
0
 62
     0
100
AcDbLine
 10
2.572139575645311
 20
4.558130037299416
 30
0.0
 11
2.687044427588126
 21
4.67303488924223
 31
0.0
  0
LINE
  5
ADA
330
B4D
100
AcDbEntity
  8
0
 62
     0
100
AcDbLine
 10
2.80194927953094
 20
5.017749445070672
 30
0.0
 11
2.909757573481486
 21
5.125557739021218
 31
0.0
  0
LINE
  5
ADB
330
B4D
100
AcDbEntity
  8
0
 62
     0
100
AcDbLine
 10
2.572139575645311
 20
4.787939741185043
 30
0.0
 11
2.687044427588126
 21
4.902844593127857
 31
0.0
  0
LINE
  5
ADC
330
B4D
100
AcDbEntity
  8
0
 62
     0
100
AcDbLine
 10
2.590131185719833
 20
5.035741055145194
 30
0.0
 11
2.679947869595857
 21
5.125557739021219
 31
0.0
  0
LINE
  5
ADD
330
B4D
100
AcDbEntity
  8
0
 62
     0
100
AcDbLine
 10
1.882710463988428
 20
4.558130037299416
 30
0.0
 11
1.997615315931242
 21
4.67303488924223
 31
0.0
  0
LINE
  5
ADE
330
B4D
100
AcDbEntity
  8
0
 62
     0
100
AcDbLine
 10
1.882710463988426
 20
4.787939741185043
 30
0.0
 11
1.99761531593124
 21
4.902844593127857
 31
0.0
  0
LINE
  5
ADF
330
B4D
100
AcDbEntity
  8
0
 62
     0
100
AcDbLine
 10
1.652900760102798
 20
4.558130037299415
 30
0.0
 11
1.767805612045612
 21
4.673034889242229
 31
0.0
  0
LINE
  5
AE0
330
B4D
100
AcDbEntity
  8
0
 62
     0
100
AcDbLine
 10
1.882710463988427
 20
5.017749445070672
 30
0.0
 11
1.920068351777133
 21
5.055107332859377
 31
0.0
  0
LINE
  5
AE1
330
B4D
100
AcDbEntity
  8
0
 62
     0
100
AcDbLine
 10
1.652900760102799
 20
4.787939741185043
 30
0.0
 11
1.767805612045613
 21
4.902844593127857
 31
0.0
  0
LINE
  5
AE2
330
B4D
100
AcDbEntity
  8
0
 62
     0
100
AcDbLine
 10
1.509017876615122
 20
4.644056857697366
 30
0.0
 11
1.537995908159985
 21
4.673034889242229
 31
0.0
  0
LINE
  5
AE3
330
B4D
100
AcDbEntity
  8
0
 62
     0
100
AcDbLine
 10
1.652900760102799
 20
5.017749445070672
 30
0.0
 11
1.760709054053345
 21
5.125557739021219
 31
0.0
  0
LINE
  5
AE4
330
B4D
100
AcDbEntity
  8
0
 62
     0
100
AcDbLine
 10
1.423091056217171
 20
4.787939741185043
 30
0.0
 11
1.537995908159985
 21
4.902844593127857
 31
0.0
  0
LINE
  5
AE5
330
B4D
100
AcDbEntity
  8
0
 62
     0
100
AcDbLine
 10
1.423091056217171
 20
5.017749445070672
 30
0.0
 11
1.530899350167717
 21
5.125557739021218
 31
0.0
  0
LINE
  5
AE6
330
B4D
100
AcDbEntity
  8
0
 62
     0
100
AcDbLine
 10
1.306499495544454
 20
4.901157884397955
 30
0.0
 11
1.308186204274357
 21
4.902844593127857
 31
0.0
  0
LINE
  5
AE7
330
B4D
100
AcDbEntity
  8
0
 62
     0
100
AcDbLine
 10
1.241886726922698
 20
5.066354819661826
 30
0.0
 11
1.301089646282091
 21
5.125557739021219
 31
0.0
  0
LINE
  5
AE8
330
B4D
100
AcDbEntity
  8
0
 62
     0
100
AcDbLine
 10
3.074848302895123
 20
4.974660125592117
 30
0.0
 11
3.189753154837937
 21
5.089564977534931
 31
0.0
  0
LINE
  5
AE9
330
B4D
100
AcDbEntity
  8
0
 62
     0
100
AcDbLine
 10
2.845038599009495
 20
4.744850421706488
 30
0.0
 11
2.959943450952309
 21
4.859755273649303
 31
0.0
  0
LINE
  5
AEA
330
B4D
100
AcDbEntity
  8
0
 62
     0
100
AcDbLine
 10
2.845038599009495
 20
4.974660125592117
 30
0.0
 11
2.95994345095231
 21
5.089564977534931
 31
0.0
  0
LINE
  5
AEB
330
B4D
100
AcDbEntity
  8
0
 62
     0
100
AcDbLine
 10
2.615228895123867
 20
4.744850421706488
 30
0.0
 11
2.730133747066681
 21
4.859755273649303
 31
0.0
  0
LINE
  5
AEC
330
B4D
100
AcDbEntity
  8
0
 62
     0
100
AcDbLine
 10
2.466385322581992
 20
4.596006849164613
 30
0.0
 11
2.500324043181053
 21
4.629945569763674
 31
0.0
  0
LINE
  5
AED
330
B4D
100
AcDbEntity
  8
0
 62
     0
100
AcDbLine
 10
2.615228895123867
 20
4.974660125592116
 30
0.0
 11
2.730133747066681
 21
5.08956497753493
 31
0.0
  0
LINE
  5
AEE
330
B4D
100
AcDbEntity
  8
0
 62
     0
100
AcDbLine
 10
2.466385322581989
 20
4.825816553050239
 30
0.0
 11
2.500324043181053
 21
4.859755273649302
 31
0.0
  0
LINE
  5
AEF
330
B4D
100
AcDbEntity
  8
0
 62
     0
100
AcDbLine
 10
1.925799783466983
 20
4.51504071782086
 30
0.0
 11
2.040704635409797
 21
4.629945569763674
 31
0.0
  0
LINE
  5
AF0
330
B4D
100
AcDbEntity
  8
0
 62
     0
100
AcDbLine
 10
1.925799783466982
 20
4.744850421706487
 30
0.0
 11
2.040704635409796
 21
4.859755273649302
 31
0.0
  0
LINE
  5
AF1
330
B4D
100
AcDbEntity
  8
0
 62
     0
100
AcDbLine
 10
1.695990079581354
 20
4.515040717820859
 30
0.0
 11
1.810894931524168
 21
4.629945569763673
 31
0.0
  0
LINE
  5
AF2
330
B4D
100
AcDbEntity
  8
0
 62
     0
100
AcDbLine
 10
1.925799783466983
 20
4.974660125592117
 30
0.0
 11
1.950539990736871
 21
4.999400332862006
 31
0.0
  0
LINE
  5
AF3
330
B4D
100
AcDbEntity
  8
0
 62
     0
100
AcDbLine
 10
1.695990079581355
 20
4.744850421706488
 30
0.0
 11
1.810894931524169
 21
4.859755273649303
 31
0.0
  0
LINE
  5
AF4
330
B4D
100
AcDbEntity
  8
0
 62
     0
100
AcDbLine
 10
1.55021448045791
 20
4.599074822583043
 30
0.0
 11
1.581085227638541
 21
4.629945569763674
 31
0.0
  0
LINE
  5
AF5
330
B4D
100
AcDbEntity
  8
0
 62
     0
100
AcDbLine
 10
1.695990079581355
 20
4.974660125592117
 30
0.0
 11
1.810894931524169
 21
5.089564977534931
 31
0.0
  0
LINE
  5
AF6
330
B4D
100
AcDbEntity
  8
0
 62
     0
100
AcDbLine
 10
1.466180375695727
 20
4.744850421706488
 30
0.0
 11
1.581085227638541
 21
4.859755273649303
 31
0.0
  0
LINE
  5
AF7
330
B4D
100
AcDbEntity
  8
0
 62
     0
100
AcDbLine
 10
1.466180375695727
 20
4.974660125592116
 30
0.0
 11
1.581085227638541
 21
5.08956497753493
 31
0.0
  0
LINE
  5
AF8
330
B4D
100
AcDbEntity
  8
0
 62
     0
100
AcDbLine
 10
1.331025447292017
 20
4.839505197188406
 30
0.0
 11
1.351275523752913
 21
4.859755273649302
 31
0.0
  0
LINE
  5
AF9
330
B4D
100
AcDbEntity
  8
0
 62
     0
100
AcDbLine
 10
1.266029468997009
 20
5.004318922779026
 30
0.0
 11
1.351275523752914
 21
5.08956497753493
 31
0.0
  0
ENDBLK
  5
AFB
330
B4D
100
AcDbEntity
  8
0
100
AcDbBlockEnd
  0
BLOCK
  5
B8C
330
B80
100
AcDbEntity
  8
0
100
AcDbBlockBegin
  2
titleblock
 70
     2
 10
0.0
 20
0.0
 30
0.0
  3
titleblock
  1

  0
LWPOLYLINE
  5
B81
330
B80
100
AcDbEntity
  8
IMAGE
100
AcDbPolyline
 90
        4
 70
     1
 43
0.0
 10
0.0
 20
0.0
 10
16.48999999999999
 20
0.0000000000000001
 10
16.48999999999999
 20
10.44
 10
0.0
 20
10.44
  0
ATTDEF
  5
B82
330
B80
100
AcDbEntity
  8
TITLE
100
AcDbText
 10
0.5055556038023421
 20
0.7842270964783673
 30
0.0
 40
0.2
  1
D
  7
L200
 72
     4
 11
0.6064423705144839
 21
0.8842270964783672
 31
0.0
100
AcDbAttributeDefinition
  3
#
  2
D
 70
     0
  0
ATTDEF
  5
B83
330
B80
100
AcDbEntity
  8
TITLE
100
AcDbText
 10
1.231442370514484
 20
1.34371230274675
 30
0.0
 40
0.2
  1

  7
L200
100
AcDbAttributeDefinition
  3
DETAIL TITLE TOP LINE
  2
TITLE1
 70
     0
  0
ATTDEF
  5
B84
330
B80
100
AcDbEntity
  8
TITLE
100
AcDbText
 10
1.231442370514484
 20
0.9842270964783674
 30
0.0
 40
0.2
  1
TITLE
  7
L200
100
AcDbAttributeDefinition
  3
DETAIL TITLE TOP 2ND LINE
  2
TITLE2
 70
     0
  0
ATTDEF
  5
B85
330
B80
100
AcDbEntity
  8
TITLE
100
AcDbText
 10
2.713645751168312
 20
0.5927927664583189
 30
0.0
 40
0.2
  1
TITLE2
  7
L200
100
AcDbAttributeDefinition
  3
DETAIL TITLE BOTTOM 1
  2
TITLE3
 70
     0
  0
ATTDEF
  5
B86
330
B80
100
AcDbEntity
  8
TITLE
100
AcDbText
 10
2.713645751168312
 20
0.2692560808167741
 30
0.0
 40
0.2
  1

  7
L200
100
AcDbAttributeDefinition
  3
DETAIL TITLE BOTTOM 2
  2
TITLE4
 70
     0
  0
ATTDEF
  5
B87
330
B80
100
AcDbEntity
  8
TITLE
 62
     7
100
AcDbText
 10
8.177214829966379
 20
0.9696027915446398
 30
0.0
 40
0.08
  1
-
  7
L80
 72
     2
 11
8.261024353775903
 21
0.9696027915446398
 31
0.0
100
AcDbAttributeDefinition
  3
REVISION DATE
  2
REVISED
 70
     0
  0
ATTDEF
  5
B88
330
B80
100
AcDbEntity
  8
TITLE
 62
     7
100
AcDbText
 10
0.2639423705144838
 20
0.0847116480207214
 30
0.0
 40
0.08
  1
-
  7
L80
100
AcDbAttributeDefinition
  3
DWG-NAME
  2
DWG-NAME
 70
     0
  0
LWPOLYLINE
  5
B89
330
B80
100
AcDbEntity
  8
TITLE
 62
     3
100
AcDbPolyline
 90
        2
 70
     1
 43
0.03
 10
0.6064423705144839
 20
0.5417270964783675
 42
0.9999999999999998
 10
0.6064423705144839
 20
1.226727096478367
 42
0.9999999999999998
  0
ATTDEF
  5
B8A
330
B80
100
AcDbEntity
  8
TITLE
 62
     7
100
AcDbText
 10
1.231442370514484
 20
0.7005637793954894
 30
0.0
 40
0.1
  1
N.T.S.
  7
L100
100
AcDbAttributeDefinition
  3
SCALE
  2
SCALE
 70
     0
  0
LWPOLYLINE
  5
B8B
330
B80
100
AcDbEntity
  8
TITLE
 62
     3
100
AcDbPolyline
 90
        2
 70
     0
 43
0.04
 39
0.03
 10
0.9489423705144833
 20
0.8842270964783672
 10
8.261024353775903
 20
0.8842270964783672
  0
ENDBLK
  5
B8D
330
B80
100
AcDbEntity
  8
0
100
AcDbBlockEnd
  0
ENDSEC
  0
SECTION
  2
ENTITIES
  0
TEXT
  5
100
330
B49
100
AcDbEntity
  8
TEXT_BUBBLES
100
AcDbText
 10
4.844174035539295
 20
2.896780311205588
 30
0.0
 40
0.10000000149
  1

  7
ROMANS
100
AcDbText
  0
TEXT
  5
102
330
B49
100
AcDbEntity
  8
TEXT_BUBBLES
100
AcDbText
 10
4.844174035539295
 20
3.053690253832588
 30
0.0
 40
0.10000000149
  1

  7
ROMANS
100
AcDbText
  0
TEXT
  5
107
330
B49
100
AcDbEntity
  8
TEXT_BUBBLES
100
AcDbText
 10
4.535363392516432
 20
3.099761337167027
 30
0.0
 40
0.1
  1

  7
ROMANS
 72
     4
 11
4.535363392516432
 21
3.099761337167027
 31
0.0
100
AcDbText
  0
TEXT
  5
118
330
B49
100
AcDbEntity
  8
TEXT_BUBBLES
100
AcDbText
 10
12.63305410530537
 20
3.530870548993056
 30
0.0
 40
0.10000000149
  1

  7
ROMANS
100
AcDbText
  0
TEXT
  5
119
330
B49
100
AcDbEntity
  8
TEXT_BUBBLES
100
AcDbText
 10
12.63305410530537
 20
3.687780491620055
 30
0.0
 40
0.10000000149
  1

  7
ROMANS
100
AcDbText
  0
TEXT
  5
11A
330
B49
100
AcDbEntity
  8
TEXT_BUBBLES
100
AcDbText
 10
12.32424346228251
 20
3.001193611735554
 30
0.0
 40
0.1
  1

  7
ROMANS
 72
     4
 11
12.32424346228251
 21
3.001193611735554
 31
0.0
100
AcDbText
  0
TEXT
  5
122
330
B49
100
AcDbEntity
  8
INSTRUCT-OPTION
100
AcDbText
 10
10.24738160999999
 20
6.286335529999999
 30
0.0
 40
0.125
  1

  7
ROMANS
100
AcDbText
  0
TEXT
  5
124
330
B49
100
AcDbEntity
  8
INSTRUCT-OPTION
100
AcDbText
 10
10.34877158
 20
7.415933858688273
 30
0.0
 40
0.125
  1
BY TURNING ON THE APPROPRIATE LAYER:
  7
ROMANS
100
AcDbText
  0
TEXT
  5
125
330
B49
100
AcDbEntity
  8
INSTRUCT-OPTION
100
AcDbText
 10
7.830880165099999
 20
4.045942306518999
 30
0.0
 40
0.10000000149
  1

  7
ROMANS
100
AcDbText
  0
TEXT
  5
128
330
B49
100
AcDbEntity
  8
INSTRUCT-OPTION
100
AcDbText
 10
10.34877158
 20
6.785840556540627
 30
0.0
 40
0.125
  1
  OPTION-NOZ-PLASTIC
  7
ROMANS
100
AcDbText
  0
TEXT
  5
129
330
B49
100
AcDbEntity
  8
INSTRUCT-OPTION
100
AcDbText
 10
7.830880165099999
 20
3.398343086242999
 30
0.0
 40
0.10000000149
  1

  7
ROMANS
100
AcDbText
  0
TEXT
  5
12A
330
B49
100
AcDbEntity
  8
INSTRUCT-OPTION
100
AcDbText
 10
7.830880165099999
 20
2.588844060897999
 30
0.0
 40
0.10000000149
  1

  7
ROMANS
100
AcDbText
  0
TEXT
  5
12B
330
B49
100
AcDbEntity
  8
INSTRUCT-OPTION
100
AcDbText
 10
10.74611697864829
 20
7.856648696849038
 30
0.0
 40
0.125
  1
CHOOSING NOZZLES AND OPTIONAL FEATURES
  7
ROMANS
100
AcDbText
  0
TEXT
  5
132
330
B49
100
AcDbEntity
  8
INSTRUCT-OPTION
100
AcDbText
 10
10.37589885395028
 20
0.5314897002158716
 30
0.0
 40
0.125
  1
TO TURN OFF THIS INSTRUCTION BOX, TURN OFF
  7
ROMANS
100
AcDbText
  0
TEXT
  5
133
330
B49
100
AcDbEntity
  8
INSTRUCT-OPTION
100
AcDbText
 10
10.37589885395028
 20
0.3190889859318693
 30
0.0
 40
0.125
  1
LAYER "INSTRUCT-OPTION".
  7
ROMANS
100
AcDbText
  0
LWPOLYLINE
  5
134
330
B49
100
AcDbEntity
  8
INSTRUCT-CALLOUT
100
AcDbPolyline
 90
        4
 70
     1
 43
0.0
 10
10.11718109158537
 20
10.0596740986779
 10
10.11718109158537
 20
8.628188077335657
 10
15.68617656855698
 20
8.628188077335657
 10
15.68617656855698
 20
10.0596740986779
  0
TEXT
  5
13A
330
B49
100
AcDbEntity
  8
INSTRUCT-CALLOUT
100
AcDbText
 10
10.64033665674436
 20
10.1167895893951
 30
0.0
 40
0.125
  1
CHOOSING EQUIPMENT CALLOUT METHOD
  7
ROMANS
100
AcDbText
  0
TEXT
  5
13B
330
B49
100
AcDbEntity
  8
INSTRUCT-CALLOUT
100
AcDbText
 10
10.34877158
 20
9.742678530491359
 30
0.0
 40
0.125
  1
CHOOSE EITHER LEADERS OR BUBBLE CALLOUTS
  7
ROMANS
100
AcDbText
  0
TEXT
  5
13C
330
B49
100
AcDbEntity
  8
INSTRUCT-CALLOUT
100
AcDbText
 10
10.34877158
 20
9.56767853049136
 30
0.0
 40
0.125
  1
BY TURNING ON THE APPROPRIATE LAYER:
  7
ROMANS
100
AcDbText
  0
TEXT
  5
13D
330
B49
100
AcDbEntity
  8
INSTRUCT-CALLOUT
100
AcDbText
 10
10.84393061996046
 20
9.243761187958041
 30
0.0
 40
0.125
  1
TEXT_LEADERS         TEXT_BUBBLES
  7
ROMANS
100
AcDbText
  0
LINE
  5
13E
330
B49
100
AcDbEntity
  8
INSTRUCT-CALLOUT
100
AcDbLine
 10
11.15105527191725
 20
8.991289934256426
 30
0.0
 11
11.28732381777588
 21
8.991289934256426
 31
0.0
  0
LINE
  5
13F
330
B49
100
AcDbEntity
  8
INSTRUCT-CALLOUT
100
AcDbLine
 10
10.86328485743892
 20
8.871538232450145
 30
0.0
 11
11.15105527191725
 21
8.991289934256426
 31
0.0
  0
SOLID
  5
140
330
B49
100
AcDbEntity
  8
INSTRUCT-CALLOUT
100
AcDbTrace
 10
10.94867085497925
 20
8.874576558312034
 30
0.0
 11
10.92561897008752
 21
8.92997159963288
 31
0.0
 12
10.77095978857085
 22
8.833118424297257
 32
0.0
 13
10.77095978857085
 23
8.833118424297257
 33
0.0
  0
TEXT
  5
141
330
B49
100
AcDbEntity
  8
INSTRUCT-CALLOUT
100
AcDbText
 10
11.313298554793
 20
8.926539324862526
 30
0.0
 40
0.125
  1
ITEM 1
  7
ROMANS
100
AcDbText
  0
SOLID
  5
142
330
B49
100
AcDbEntity
  8
INSTRUCT-CALLOUT
100
AcDbTrace
 10
13.64720963788733
 20
8.888002592863431
 30
0.0
 11
13.66301193154167
 21
8.830120924649202
 31
0.0
 12
13.48146578007182
 22
8.811654877793301
 32
0.0
 13
13.48146578007182
 23
8.811654877793301
 33
0.0
  0
LINE
  5
143
330
B49
100
AcDbEntity
  8
INSTRUCT-CALLOUT
100
AcDbLine
 10
13.57793522709553
 20
8.837992033883866
 30
0.0
 11
13.83381664402038
 21
8.907850305348484
 31
0.0
  0
TEXT
  5
144
330
B49
100
AcDbEntity
  8
INSTRUCT-CALLOUT
100
AcDbText
 10
13.93395491689969
 20
8.886502111739991
 30
0.0
 40
0.125
  1
1
  7
ROMANS
 72
     4
 11
13.98455015499493
 21
8.949002111739991
 31
0.0
100
AcDbText
  0
CIRCLE
  5
145
330
B49
100
AcDbEntity
  8
INSTRUCT-CALLOUT
100
AcDbCircle
 10
13.98455015499493
 20
8.949002111739991
 30
0.0
 40
0.15625
  0
TEXT
  5
146
330
B49
100
AcDbEntity
  8
INSTRUCT-CALLOUT
100
AcDbText
 10
10.34877158
 20
8.248421307638677
 30
0.0
 40
0.125
  1
LAYER "INSTRUCT-CALLOUT".
  7
ROMANS
100
AcDbText
  0
TEXT
  5
147
330
B49
100
AcDbEntity
  8
INSTRUCT-CALLOUT
100
AcDbText
 10
10.34877158
 20
8.423421307638676
 30
0.0
 40
0.125
  1
TO TURN OFF THIS INSTRUCTION BOX, TURN OFF
  7
ROMANS
100
AcDbText
  0
TEXT
  5
1DF
330
B49
100
AcDbEntity
  8
INSTRUCT-OPTION
100
AcDbText
 10
10.34877158
 20
6.115708984818331
 30
0.0
 40
0.125
  1
  OPTION-NOZ-U-SERIES
  7
ROMANS
100
AcDbText
  0
TEXT
  5
269
330
B49
100
AcDbEntity
  8
INSTRUCT-OPTION
100
AcDbText
 10
10.24738160999999
 20
4.71133553
 30
0.0
 40
0.125
  1

  7
ROMANS
100
AcDbText
  0
TEXT
  5
26A
330
B49
100
AcDbEntity
  8
INSTRUCT-OPTION
100
AcDbText
 10
10.34877158
 20
5.579912114965129
 30
0.0
 40
0.125
  1
  OPTION-NOZ-VAN
  7
ROMANS
100
AcDbText
  0
TEXT
  5
26B
330
B49
100
AcDbEntity
  8
INSTRUCT-OPTION
100
AcDbText
 10
10.24738160999999
 20
5.06133553
 30
0.0
 40
0.125
  1

  7
ROMANS
100
AcDbText
  0
TEXT
  5
26C
330
B49
100
AcDbEntity
  8
INSTRUCT-OPTION
100
AcDbText
 10
10.34877158
 20
4.536335529999999
 30
0.0
 40
0.125
  1

  7
ROMANS
100
AcDbText
  0
TEXT
  5
322
330
B49
100
AcDbEntity
  8
INSTRUCT-OPTION
100
AcDbText
 10
10.24738160999999
 20
4.01133553
 30
0.0
 40
0.125
  1

  7
ROMANS
100
AcDbText
  0
TEXT
  5
323
330
B49
100
AcDbEntity
  8
INSTRUCT-OPTION
100
AcDbText
 10
10.37589884993084
 20
2.660677089234087
 30
0.0
 40
0.125
  1
%%uCONTRACTOR ASSEMBLED SWING ASSEMBLY%%u
  7
ROMANS
100
AcDbText
  0
TEXT
  5
324
330
B49
100
AcDbEntity
  8
INSTRUCT-OPTION
100
AcDbText
 10
10.37589884993084
 20
1.679721859477718
 30
0.0
 40
0.125
  1
%%uRAIN BIRD SWING ASSEMBLY%%u
  7
ROMANS
100
AcDbText
  0
TEXT
  5
325
330
B49
100
AcDbEntity
  8
INSTRUCT-OPTION
100
AcDbText
 10
10.34877158
 20
2.611335529999999
 30
0.0
 40
0.125
  1

  7
ROMANS
100
AcDbText
  0
TEXT
  5
328
330
B49
100
AcDbEntity
  8
INSTRUCT-OPTION
100
AcDbText
 10
10.34877158
 20
3.836335529999999
 30
0.0
 40
0.125
  1

  7
ROMANS
100
AcDbText
  0
TEXT
  5
329
330
B49
100
AcDbEntity
  8
INSTRUCT-OPTION
100
AcDbText
 10
10.34877158
 20
3.486335529999999
 30
0.0
 40
0.125
  1

  7
ROMANS
100
AcDbText
  0
TEXT
  5
32A
330
B49
100
AcDbEntity
  8
INSTRUCT-OPTION
100
AcDbText
 10
10.34877158
 20
2.78633553
 30
0.0
 40
0.125
  1

  7
ROMANS
100
AcDbText
  0
TEXT
  5
32B
330
B49
100
AcDbEntity
  8
INSTRUCT-OPTION
100
AcDbText
 10
10.24738160999999
 20
2.961335529999999
 30
0.0
 40
0.125
  1

  7
ROMANS
100
AcDbText
  0
TEXT
  5
68C
330
B49
100
AcDbEntity
  8
TEXT_BUBBLES
100
AcDbText
 10
-4.318985310465081
 20
11.46594596000471
 30
0.0
 40
0.10000000149
  1

  7
ROMANS
100
AcDbText
  0
TEXT
  5
68D
330
B49
100
AcDbEntity
  8
TEXT_BUBBLES
100
AcDbText
 10
-4.318985310465081
 20
11.62285590263171
 30
0.0
 40
0.10000000149
  1

  7
ROMANS
100
AcDbText
  0
TEXT
  5
69A
330
B49
100
AcDbEntity
  8
TEXT_BUBBLES
100
AcDbText
 10
-4.627795953487945
 20
11.66892698596614
 30
0.0
 40
0.1
  1

  7
ROMANS
 72
     4
 11
-4.627795953487945
 21
11.66892698596614
 31
0.0
100
AcDbText
  0
TEXT
  5
6E8
330
B49
100
AcDbEntity
  8
TEXT_BUBBLES
100
AcDbText
 10
3.469894759301
 20
12.10003619779217
 30
0.0
 40
0.10000000149
  1

  7
ROMANS
100
AcDbText
  0
TEXT
  5
6E9
330
B49
100
AcDbEntity
  8
TEXT_BUBBLES
100
AcDbText
 10
3.469894759301
 20
12.25694614041917
 30
0.0
 40
0.10000000149
  1

  7
ROMANS
100
AcDbText
  0
TEXT
  5
6EA
330
B49
100
AcDbEntity
  8
TEXT_BUBBLES
100
AcDbText
 10
3.161084116278136
 20
11.57035926053467
 30
0.0
 40
0.1
  1

  7
ROMANS
 72
     4
 11
3.161084116278136
 21
11.57035926053467
 31
0.0
100
AcDbText
  0
TEXT
  5
706
330
B49
100
AcDbEntity
  8
INSTRUCT-OPTION
100
AcDbText
 10
-1.332279180904377
 20
12.61510795531812
 30
0.0
 40
0.10000000149
  1

  7
ROMANS
100
AcDbText
  0
TEXT
  5
70A
330
B49
100
AcDbEntity
  8
INSTRUCT-OPTION
100
AcDbText
 10
-1.332279180904377
 20
11.96750873504212
 30
0.0
 40
0.10000000149
  1

  7
ROMANS
100
AcDbText
  0
TEXT
  5
70B
330
B49
100
AcDbEntity
  8
INSTRUCT-OPTION
100
AcDbText
 10
-1.332279180904377
 20
11.15800970969712
 30
0.0
 40
0.10000000149
  1

  7
ROMANS
100
AcDbText
  0
TEXT
  5
762
330
B49
100
AcDbEntity
  8
TEXT_BUBBLES
100
AcDbText
 10
-4.574796826890633
 20
14.49826442175267
 30
0.0
 40
0.10000000149
  1

  7
ROMANS
100
AcDbText
  0
TEXT
  5
763
330
B49
100
AcDbEntity
  8
TEXT_BUBBLES
100
AcDbText
 10
-4.574796826890633
 20
12.32420264654567
 30
0.0
 40
0.10000000149
  1

  7
ROMANS
100
AcDbText
  0
TEXT
  5
764
330
B49
100
AcDbEntity
  8
TEXT_BUBBLES
100
AcDbText
 10
-4.574796826890633
 20
14.18768416815167
 30
0.0
 40
0.10000000149
  1

  7
ROMANS
100
AcDbText
  0
TEXT
  5
765
330
B49
100
AcDbEntity
  8
TEXT_BUBBLES
100
AcDbText
 10
7.739939714054621
 20
10.00307697234612
 30
0.0
 40
0.10000000149
  1

  7
ROMANS
100
AcDbText
  0
TEXT
  5
766
330
B49
100
AcDbEntity
  8
TEXT_BUBBLES
100
AcDbText
 10
7.739939714054621
 20
9.537177981715121
 30
0.0
 40
0.10000000149
  1

  7
ROMANS
100
AcDbText
  0
TEXT
  5
767
330
B49
100
AcDbEntity
  8
TEXT_BUBBLES
100
AcDbText
 10
7.739939714054621
 20
9.692477645259121
 30
0.0
 40
0.10000000149
  1

  7
ROMANS
100
AcDbText
  0
TEXT
  5
768
330
B49
100
AcDbEntity
  8
TEXT_BUBBLES
100
AcDbText
 10
7.739939714054621
 20
10.31367629943412
 30
0.0
 40
0.10000000149
  1

  7
ROMANS
100
AcDbText
  0
TEXT
  5
769
330
B49
100
AcDbEntity
  8
TEXT_BUBBLES
100
AcDbText
 10
7.739939714054621
 20
11.09017461715212
 30
0.0
 40
0.10000000149
  1

  7
ROMANS
100
AcDbText
  0
TEXT
  5
76A
330
B49
100
AcDbEntity
  8
TEXT_BUBBLES
100
AcDbText
 10
7.739939714054621
 20
11.55607360778312
 30
0.0
 40
0.10000000149
  1

  7
ROMANS
100
AcDbText
  0
TEXT
  5
76B
330
B49
100
AcDbEntity
  8
TEXT_BUBBLES
100
AcDbText
 10
7.739939714054621
 20
11.40077394424012
 30
0.0
 40
0.10000000149
  1

  7
ROMANS
100
AcDbText
  0
TEXT
  5
76C
330
B49
100
AcDbEntity
  8
TEXT_BUBBLES
100
AcDbText
 10
-4.574796826890633
 20
11.70304213934267
 30
0.0
 40
0.10000000149
  1

  7
ROMANS
100
AcDbText
  0
TEXT
  5
76D
330
B49
100
AcDbEntity
  8
TEXT_BUBBLES
100
AcDbText
 10
7.739939714054621
 20
10.77957529006512
 30
0.0
 40
0.10000000149
  1

  7
ROMANS
100
AcDbText
  0
TEXT
  5
76E
330
B49
100
AcDbEntity
  8
TEXT_BUBBLES
100
AcDbText
 10
7.739939714054621
 20
10.62427562652112
 30
0.0
 40
0.10000000149
  1

  7
ROMANS
100
AcDbText
  0
TEXT
  5
76F
330
B49
100
AcDbEntity
  8
TEXT_BUBBLES
100
AcDbText
 10
-4.574796826890633
 20
13.41123353414867
 30
0.0
 40
0.10000000149
  1

  7
ROMANS
100
AcDbText
  0
TEXT
  5
770
330
B49
100
AcDbEntity
  8
TEXT_BUBBLES
100
AcDbText
 10
-4.574796826890633
 20
14.96413480215467
 30
0.0
 40
0.10000000149
  1

  7
ROMANS
100
AcDbText
  0
TEXT
  5
771
330
B49
100
AcDbEntity
  8
TEXT_BUBBLES
100
AcDbText
 10
-4.574796826890633
 20
13.72181378774967
 30
0.0
 40
0.10000000149
  1

  7
ROMANS
100
AcDbText
  0
TEXT
  5
772
330
B49
100
AcDbEntity
  8
TEXT_BUBBLES
100
AcDbText
 10
-4.574796826890633
 20
12.63478290014667
 30
0.0
 40
0.10000000149
  1

  7
ROMANS
100
AcDbText
  0
TEXT
  5
773
330
B49
100
AcDbEntity
  8
TEXT_BUBBLES
100
AcDbText
 10
-4.574796826890633
 20
12.01362239294467
 30
0.0
 40
0.10000000149
  1

  7
ROMANS
100
AcDbText
  0
TEXT
  5
774
330
B49
100
AcDbEntity
  8
TEXT_LEADERS
100
AcDbText
 10
-4.321239447017377
 20
13.10819572387212
 30
0.0
 40
0.10000000149
  1

  7
SIMPLEX
100
AcDbText
  0
TEXT
  5
775
330
B49
100
AcDbEntity
  8
TEXT_BUBBLES
100
AcDbText
 10
-0.9209594482383778
 20
8.676295088511121
 30
0.0
 40
0.10000000149
  1

  7
SIMPLEX
100
AcDbText
  0
TEXT
  5
776
330
B49
100
AcDbEntity
  8
TEXT_BUBBLES
100
AcDbText
 10
-0.9209594482383778
 20
9.50962853608612
 30
0.0
 40
0.10000000149
  1

  7
SIMPLEX
100
AcDbText
  0
TEXT
  5
777
330
B49
100
AcDbEntity
  8
TEXT_BUBBLES
100
AcDbText
 10
-0.9209594482383778
 20
9.176295163016121
 30
0.0
 40
0.10000000149
  1

  7
SIMPLEX
100
AcDbText
  0
TEXT
  5
778
330
B49
100
AcDbEntity
  8
TEXT_BUBBLES
100
AcDbText
 10
-0.9209594482383778
 20
7.009627999644121
 30
0.0
 40
0.10000000149
  1

  7
SIMPLEX
100
AcDbText
  0
TEXT
  5
779
330
B49
100
AcDbEntity
  8
TEXT_BUBBLES
100
AcDbText
 10
-0.9209594482383778
 20
7.34296149192312
 30
0.0
 40
0.10000000149
  1

  7
SIMPLEX
100
AcDbText
  0
TEXT
  5
77A
330
B49
100
AcDbEntity
  8
TEXT_BUBBLES
100
AcDbText
 10
-0.9209594482383778
 20
10.00962871490012
 30
0.0
 40
0.10000000149
  1

  7
SIMPLEX
100
AcDbText
  0
TEXT
  5
77B
330
B49
100
AcDbEntity
  8
INSTRUCT-OPTION
100
AcDbText
 10
-1.305829500576377
 20
11.09085744796312
 30
0.0
 40
0.10000000149
  1

  7
ROMANS
100
AcDbText
  0
TEXT
  5
77C
330
B49
100
AcDbEntity
  8
INSTRUCT-OPTION
100
AcDbText
 10
-1.305829500576377
 20
11.41465705810112
 30
0.0
 40
0.10000000149
  1

  7
ROMANS
100
AcDbText
  0
TEXT
  5
78C
330
B49
100
AcDbEntity
  8
INSTRUCT-OPTION
100
AcDbText
 10
-1.305829500576377
 20
10.44325822768712
 30
0.0
 40
0.10000000149
  1

  7
ROMANS
100
AcDbText
  0
TEXT
  5
78D
330
B49
100
AcDbEntity
  8
INSTRUCT-OPTION
100
AcDbText
 10
-1.305829500576377
 20
10.28135842261812
 30
0.0
 40
0.10000000149
  1

  7
ROMANS
100
AcDbText
  0
TEXT
  5
78E
330
B49
100
AcDbEntity
  8
INSTRUCT-OPTION
100
AcDbText
 10
-1.305829500576377
 20
10.60515803275612
 30
0.0
 40
0.10000000149
  1

  7
ROMANS
100
AcDbText
  0
LINE
  5
931
330
B49
100
AcDbEntity
  8
IMAGE
100
AcDbLine
 10
1.906969528217872
 20
5.125557739021218
 30
0.0
 11
1.057972699677612
 21
5.125557739021218
 31
0.0
  0
LINE
  5
932
330
B49
100
AcDbEntity
  8
IMAGE
100
AcDbLine
 10
1.45329480696665
 20
5.427147070971376
 30
0.0
 11
1.490107596243745
 21
5.125282198899219
 31
0.0
  0
LINE
  5
933
330
B49
100
AcDbEntity
  8
IMAGE
100
AcDbLine
 10
1.637869013342091
 20
5.413304005493211
 30
0.0
 11
1.711698695892274
 21
5.131828340770676
 31
0.0
  0
LINE
  5
934
330
B49
100
AcDbEntity
  8
IMAGE
100
AcDbLine
 10
1.790142733601828
 20
5.408689650333837
 30
0.0
 11
1.816712182173822
 21
5.125282198899219
 31
0.0
  0
LINE
  5
935
330
B49
100
AcDbEntity
  8
IMAGE
100
AcDbLine
 10
1.888754143724622
 20
5.455035659923721
 30
0.0
 11
1.809298663951673
 21
5.125282198899219
 31
0.0
  0
LINE
  5
936
330
B49
100
AcDbEntity
  8
IMAGE
100
AcDbLine
 10
1.415688441076402
 20
5.367101403650519
 30
0.0
 11
1.611177130363953
 21
5.125282198899219
 31
0.0
  0
LINE
  5
937
330
B49
100
AcDbEntity
  8
IMAGE
100
AcDbLine
 10
1.558708304667724
 20
5.466027441957864
 30
0.0
 11
1.558708304667724
 21
5.125282198899219
 31
0.0
  0
LINE
  5
938
330
B49
100
AcDbEntity
  8
IMAGE
100
AcDbLine
 10
1.723731224196179
 20
5.411068531787117
 30
0.0
 11
1.792132028522462
 21
5.125282198899229
 31
0.0
  0
LINE
  5
939
330
B49
100
AcDbEntity
  8
IMAGE
100
AcDbLine
 10
1.840661750033469
 20
5.408689650333837
 30
0.0
 11
1.867231198605463
 21
5.125282198899219
 31
0.0
  0
LINE
  5
93A
330
B49
100
AcDbEntity
  8
IMAGE
100
AcDbLine
 10
1.264397523981849
 20
5.413304005493211
 30
0.0
 11
1.338227206532033
 21
5.131828340770676
 31
0.0
  0
LINE
  5
93B
330
B49
100
AcDbEntity
  8
IMAGE
100
AcDbLine
 10
1.416671244241586
 20
5.408689650333837
 30
0.0
 11
1.443240692813581
 21
5.125282198899219
 31
0.0
  0
LINE
  5
93C
330
B49
100
AcDbEntity
  8
IMAGE
100
AcDbLine
 10
1.295252094993114
 20
5.433052095855414
 30
0.0
 11
1.269581863066467
 21
5.125282198899229
 31
0.0
  0
LINE
  5
93D
330
B49
100
AcDbEntity
  8
IMAGE
100
AcDbLine
 10
1.185236815307484
 20
5.466027441957864
 30
0.0
 11
1.185236815307484
 21
5.125282198899219
 31
0.0
  0
LINE
  5
93E
330
B49
100
AcDbEntity
  8
IMAGE
100
AcDbLine
 10
1.350259734835938
 20
5.411068531787117
 30
0.0
 11
1.418660539162222
 21
5.125282198899229
 31
0.0
  0
LINE
  5
93F
330
B49
100
AcDbEntity
  8
IMAGE
100
AcDbLine
 10
1.647300989987148
 20
5.444043877889573
 30
0.0
 11
1.495375127564122
 21
5.125282198899219
 31
0.0
  0
LINE
  5
940
330
B49
100
AcDbEntity
  8
IMAGE
100
AcDbLine
 10
1.350516437155197
 20
5.404075295174447
 30
0.0
 11
1.324144117237275
 21
5.125282198899219
 31
0.0
  0
LINE
  5
941
330
B49
100
AcDbEntity
  8
IMAGE
100
AcDbLine
 10
1.064426417273263
 20
5.413304005493211
 30
0.0
 11
1.138256099823446
 21
5.131828340770676
 31
0.0
  0
LINE
  5
942
330
B49
100
AcDbEntity
  8
IMAGE
100
AcDbLine
 10
1.150288628127351
 20
5.411068531787117
 30
0.0
 11
1.218689432453635
 21
5.125282198899229
 31
0.0
  0
LINE
  5
943
330
B49
100
AcDbEntity
  8
IMAGE
100
AcDbLine
 10
1.447329883278563
 20
5.444043877889573
 30
0.0
 11
1.295404020855536
 21
5.125282198899219
 31
0.0
  0
LINE
  5
944
330
B49
100
AcDbEntity
  8
IMAGE
100
AcDbLine
 10
1.167964416396835
 20
5.455035659923721
 30
0.0
 11
1.088508936623886
 21
5.125282198899219
 31
0.0
  0
LINE
  5
945
330
B49
100
AcDbEntity
  8
IMAGE
100
AcDbLine
 10
1.299982752019604
 20
5.444043877889573
 30
0.0
 11
1.148056889596577
 21
5.125282198899219
 31
0.0
  0
LINE
  5
946
330
B49
100
AcDbEntity
  8
IMAGE
100
AcDbLine
 10
3.811650476063532
 20
5.427147070971376
 30
0.0
 11
3.848463265340625
 21
5.125282198899219
 31
0.0
  0
LINE
  5
947
330
B49
100
AcDbEntity
  8
IMAGE
100
AcDbLine
 10
1.241043899516021
 20
5.444043877889573
 30
0.0
 11
1.089118037092991
 21
5.125282198899219
 31
0.0
  0
LINE
  5
948
330
B49
100
AcDbEntity
  8
IMAGE
100
AcDbLine
 10
1.775718158788193
 20
5.404075295174447
 30
0.0
 11
1.74934583887027
 21
5.125282198899219
 31
0.0
  0
LINE
  5
949
330
B49
100
AcDbEntity
  8
IMAGE
100
AcDbLine
 10
1.489628138906257
 20
5.413304005493211
 30
0.0
 11
1.563457821456441
 21
5.131828340770676
 31
0.0
  0
LINE
  5
94A
330
B49
100
AcDbEntity
  8
IMAGE
100
AcDbLine
 10
1.740513269288791
 20
5.455035659923721
 30
0.0
 11
1.661057789515838
 21
5.125282198899219
 31
0.0
  0
LINE
  5
94B
330
B49
100
AcDbEntity
  8
IMAGE
100
AcDbLine
 10
1.410467430231892
 20
5.466027441957864
 30
0.0
 11
1.410467430231892
 21
5.125282198899219
 31
0.0
  0
LINE
  5
94C
330
B49
100
AcDbEntity
  8
IMAGE
100
AcDbLine
 10
1.575490349760348
 20
5.411068531787117
 30
0.0
 11
1.64389115408663
 21
5.125282198899229
 31
0.0
  0
LINE
  5
94D
330
B49
100
AcDbEntity
  8
IMAGE
100
AcDbLine
 10
1.872531604911558
 20
5.444043877889573
 30
0.0
 11
1.720605742488531
 21
5.125282198899219
 31
0.0
  0
LINE
  5
94E
330
B49
100
AcDbEntity
  8
IMAGE
100
AcDbLine
 10
2.387131996071759
 20
5.079054064603793
 30
0.0
 11
2.387131996071759
 21
4.94514893706464
 31
0.0
  0
LINE
  5
94F
330
B49
100
AcDbEntity
  8
IMAGE
100
AcDbLine
 10
2.348659073032327
 20
5.079054064603793
 30
0.0
 11
2.348659073032327
 21
4.94514893706464
 31
0.0
  0
LINE
  5
950
330
B49
100
AcDbEntity
  8
IMAGE
100
AcDbLine
 10
2.17653185586191
 20
5.079054064603793
 30
0.0
 11
2.17653185586191
 21
4.94514893706464
 31
0.0
  0
LINE
  5
951
330
B49
100
AcDbEntity
  8
IMAGE
100
AcDbLine
 10
2.139350845152388
 20
5.079054064603793
 30
0.0
 11
2.139350845152388
 21
4.94514893706464
 31
0.0
  0
LINE
  5
952
330
B49
100
AcDbEntity
  8
IMAGE
100
AcDbLine
 10
2.054407537523055
 20
4.94514893706464
 30
0.0
 11
2.466385322581992
 21
4.94514893706464
 31
0.0
  0
LINE
  5
953
330
B49
100
AcDbEntity
  8
IMAGE
100
AcDbLine
 10
1.981331549636913
 20
5.079054064603793
 30
0.0
 11
2.539461310468129
 21
5.079054064603793
 31
0.0
  0
LINE
  5
954
330
B49
100
AcDbEntity
  8
IMAGE
100
AcDbLine
 10
1.906969528217868
 20
5.125557739021218
 30
0.0
 11
2.613823331887178
 21
5.125557739021218
 31
0.0
  0
LINE
  5
955
330
B49
100
AcDbEntity
  8
IMAGE
100
AcDbLine
 10
2.466385322581992
 20
4.94514893706464
 30
0.0
 11
2.539461310468129
 21
4.94514893706464
 31
0.0
  0
LINE
  5
956
330
B49
100
AcDbEntity
  8
IMAGE
100
AcDbLine
 10
2.539461310468129
 20
4.94514893706464
 30
0.0
 11
2.539461310468129
 21
5.079054064603793
 31
0.0
  0
LINE
  5
957
330
B49
100
AcDbEntity
  8
IMAGE
100
AcDbLine
 10
2.539461310468129
 20
5.079054064603793
 30
0.0
 11
2.613823331887178
 21
5.079054064603793
 31
0.0
  0
LINE
  5
958
330
B49
100
AcDbEntity
  8
IMAGE
100
AcDbLine
 10
2.613823331887178
 20
5.079054064603793
 30
0.0
 11
2.613823331887178
 21
5.125557739021218
 31
0.0
  0
LINE
  5
959
330
B49
100
AcDbEntity
  8
IMAGE
100
AcDbLine
 10
2.613823331887178
 20
5.079054064603782
 30
0.0
 11
2.539461310468129
 21
4.94514893706464
 31
0.0
  0
LINE
  5
95A
330
B49
100
AcDbEntity
  8
IMAGE
100
AcDbLine
 10
1.906969528217866
 20
5.079054064603782
 30
0.0
 11
1.981331549636913
 21
4.94514893706464
 31
0.0
  0
LINE
  5
95B
330
B49
100
AcDbEntity
  8
IMAGE
100
AcDbLine
 10
1.906969528217868
 20
5.079054064603793
 30
0.0
 11
1.906969528217868
 21
5.125557739021218
 31
0.0
  0
LINE
  5
95C
330
B49
100
AcDbEntity
  8
IMAGE
100
AcDbLine
 10
1.981331549636913
 20
5.079054064603793
 30
0.0
 11
1.906969528217868
 21
5.079054064603793
 31
0.0
  0
LINE
  5
95D
330
B49
100
AcDbEntity
  8
IMAGE
100
AcDbLine
 10
1.981331549636913
 20
4.94514893706464
 30
0.0
 11
1.981331549636913
 21
5.079054064603793
 31
0.0
  0
LINE
  5
95E
330
B49
100
AcDbEntity
  8
IMAGE
100
AcDbLine
 10
2.054407537523055
 20
4.94514893706464
 30
0.0
 11
1.981331549636913
 21
4.94514893706464
 31
0.0
  0
LINE
  5
95F
330
B49
100
AcDbEntity
  8
IMAGE
100
AcDbLine
 10
2.466385322581992
 20
4.94514893706464
 30
0.0
 11
2.466385322581992
 21
4.512579590710604
 31
0.0
  0
LINE
  5
960
330
B49
100
AcDbEntity
  8
IMAGE
100
AcDbLine
 10
2.466385322581992
 20
4.512579590710604
 30
0.0
 11
2.466385322581992
 21
3.676298555748047
 31
0.0
  0
LINE
  5
961
330
B49
100
AcDbEntity
  8
IMAGE
100
AcDbLine
 10
2.054407537523055
 20
3.676298555748047
 30
0.0
 11
2.146147225873472
 21
3.552738986295123
 31
0.0
  0
LINE
  5
962
330
B49
100
AcDbEntity
  8
IMAGE
100
AcDbLine
 10
2.146147225873472
 20
3.552738986295123
 30
0.0
 11
2.260396430052524
 21
3.552738986295123
 31
0.0
  0
LINE
  5
963
330
B49
100
AcDbEntity
  8
IMAGE
100
AcDbLine
 10
2.054407537523055
 20
3.676298555748047
 30
0.0
 11
2.466385322581992
 21
3.676298555748047
 31
0.0
  0
LINE
  5
964
330
B49
100
AcDbEntity
  8
IMAGE
100
AcDbLine
 10
2.054407537523055
 20
4.512579590710604
 30
0.0
 11
2.054407537523055
 21
3.676298555748047
 31
0.0
  0
LINE
  5
965
330
B49
100
AcDbEntity
  8
IMAGE
100
AcDbLine
 10
2.054407537523055
 20
4.94514893706464
 30
0.0
 11
2.054407537523055
 21
4.512579590710604
 31
0.0
  0
LINE
  5
966
330
B49
100
AcDbEntity
  8
IMAGE
100
AcDbLine
 10
2.150005604675038
 20
3.552738986295123
 30
0.0
 11
2.150005604675038
 21
3.676298555748047
 31
0.0
  0
LINE
  5
967
330
B49
100
AcDbEntity
  8
IMAGE
100
AcDbLine
 10
2.252021165798168
 20
3.676298555748047
 30
0.0
 11
2.252021165798168
 21
3.552738986295123
 31
0.0
  0
LINE
  5
968
330
B49
100
AcDbEntity
  8
IMAGE
100
AcDbLine
 10
2.054407537523055
 20
4.912024162066991
 30
0.0
 11
2.466385322581992
 21
4.912024162066991
 31
0.0
  0
LINE
  5
969
330
B49
100
AcDbEntity
  8
IMAGE
100
AcDbLine
 10
2.466385322581992
 20
4.893667627811367
 30
0.0
 11
2.054407537523055
 21
4.893667627811367
 31
0.0
  0
TEXT
  5
96B
330
B49
100
AcDbEntity
  8
TEXT_BUBBLES
100
AcDbText
 10
5.270515192927707
 20
4.869012569999999
 30
0.0
 40
0.125
  1
  RAIN BIRD 1803
  7
ROMANS
100
AcDbText
  0
LINE
  5
96C
330
B49
100
AcDbEntity
  8
IMAGE
100
AcDbLine
 10
2.374645634231574
 20
3.552738986295123
 30
0.0
 11
2.260396430052524
 21
3.552738986295123
 31
0.0
  0
LINE
  5
96D
330
B49
100
AcDbEntity
  8
IMAGE
100
AcDbLine
 10
2.370787255430008
 20
3.552738986295123
 30
0.0
 11
2.370787255430008
 21
3.676298555748047
 31
0.0
  0
LINE
  5
96E
330
B49
100
AcDbEntity
  8
IMAGE
100
AcDbLine
 10
2.268771694306878
 20
3.676298555748047
 30
0.0
 11
2.268771694306878
 21
3.552738986295123
 31
0.0
  0
LINE
  5
96F
330
B49
100
AcDbEntity
  8
IMAGE
100
AcDbLine
 10
2.466385322581992
 20
3.676298555748047
 30
0.0
 11
2.374645634231574
 21
3.552738986295123
 31
0.0
  0
TEXT
  5
970
330
B49
100
AcDbEntity
  8
TEXT_BUBBLES
100
AcDbText
 10
12.75850735743622
 20
2.898226282566987
 30
0.0
 40
0.10000000149
  1

  7
ROMANS
100
AcDbText
  0
TEXT
  5
971
330
B49
100
AcDbEntity
  8
TEXT-SA-BUBBLES
100
AcDbText
 10
4.59898118
 20
3.08
 30
0.0
 40
0.125
  1

  7
SIMPLEX
100
AcDbText
  0
TEXT
  5
972
330
B49
100
AcDbEntity
  8
TEXT_BUBBLES
100
AcDbText
 10
5.270515192927707
 20
5.394012569999999
 30
0.0
 40
0.125
  1
FINISH GRADE/TOP OF MULCH
  7
ROMANS
100
AcDbText
  0
TEXT
  5
973
330
B49
100
AcDbEntity
  8
TEXT-SA-BUBBLES
100
AcDbText
 10
5.27051519
 20
3.819012569999999
 30
0.0
 40
0.125
  1

  7
ROMANS
100
AcDbText
  0
TEXT
  5
974
330
B49
100
AcDbEntity
  8
TEXT_BUBBLES
100
AcDbText
 10
12.75850735743622
 20
3.055136225193987
 30
0.0
 40
0.10000000149
  1

  7
ROMANS
100
AcDbText
  0
CIRCLE
  5
975
330
B49
100
AcDbEntity
  8
TEXT_BUBBLES
100
AcDbCircle
 10
5.037940577905929
 20
5.467219874006844
 30
0.0
 40
0.15625
  0
TEXT
  5
976
330
B49
100
AcDbEntity
  8
TEXT_BUBBLES
100
AcDbText
 10
4.987345339810691
 20
5.404719874006844
 30
0.0
 40
0.125
  1
1
  7
ROMANS
 72
     4
 11
5.037940577905929
 21
5.467219874006844
 31
0.0
100
AcDbText
  0
CIRCLE
  5
977
330
B49
100
AcDbEntity
  8
TEXT_BUBBLES
100
AcDbCircle
 10
5.037940577905929
 20
5.117219713398382
 30
0.0
 40
0.15625
  0
TEXT
  5
978
330
B49
100
AcDbEntity
  8
TEXT_BUBBLES
100
AcDbText
 10
4.978416768382119
 20
5.054719713398382
 30
0.0
 40
0.125
  1
2
  7
ROMANS
 72
     4
 11
5.037940577905929
 21
5.117219713398382
 31
0.0
100
AcDbText
  0
CIRCLE
  5
979
330
B49
100
AcDbEntity
  8
TEXT-SA-BUBBLES
100
AcDbCircle
 10
5.037940577905929
 20
4.41185502957367
 30
0.0
 40
0.15625
  0
TEXT
  5
97A
330
B49
100
AcDbEntity
  8
TEXT-SA-BUBBLES
100
AcDbText
 10
4.978416768382119
 20
4.34935502957367
 30
0.0
 40
0.125
  1
3
  7
ROMANS
 72
     4
 11
5.037940577905929
 21
4.41185502957367
 31
0.0
100
AcDbText
  0
CIRCLE
  5
97B
330
B49
100
AcDbEntity
  8
TEXT-SA-BUBBLES
100
AcDbCircle
 10
5.029325036123958
 20
3.722929732314216
 30
0.0
 40
0.15625
  0
TEXT
  5
97C
330
B49
100
AcDbEntity
  8
TEXT-SA-BUBBLES
100
AcDbText
 10
4.966825036123958
 20
3.660429732314216
 30
0.0
 40
0.125
  1
4
  7
ROMANS
 72
     4
 11
5.029325036123958
 21
3.722929732314216
 31
0.0
100
AcDbText
  0
CIRCLE
  5
97D
330
B49
100
AcDbEntity
  8
TEXT-SA-BUBBLES
100
AcDbCircle
 10
5.029325036123958
 20
3.35123862172649
 30
0.0
 40
0.15625
  0
TEXT
  5
97E
330
B49
100
AcDbEntity
  8
TEXT-SA-BUBBLES
100
AcDbText
 10
4.969801226600148
 20
3.28873862172649
 30
0.0
 40
0.125
  1
5
  7
ROMANS
 72
     4
 11
5.029325036123958
 21
3.35123862172649
 31
0.0
100
AcDbText
  0
CIRCLE
  5
97F
330
B49
100
AcDbEntity
  8
TEXT-SA-BUBBLES
100
AcDbCircle
 10
5.029325036123958
 20
2.850505476659473
 30
0.0
 40
0.15625
  0
TEXT
  5
980
330
B49
100
AcDbEntity
  8
TEXT-SA-BUBBLES
100
AcDbText
 10
4.966825036123958
 20
2.788005476659473
 30
0.0
 40
0.125
  1
6
  7
ROMANS
 72
     4
 11
5.029325036123958
 21
2.850505476659473
 31
0.0
100
AcDbText
  0
TEXT
  5
981
330
B49
100
AcDbEntity
  8
TEXT_BUBBLES
100
AcDbText
 10
12.44969671441336
 20
3.101207308528426
 30
0.0
 40
0.1
  1

  7
ROMANS
 72
     4
 11
12.44969671441336
 21
3.101207308528426
 31
0.0
100
AcDbText
  0
CIRCLE
  5
986
330
B49
100
AcDbEntity
  8
TEXT-SA-BUBBLES
100
AcDbCircle
 10
3.174913933423989
 20
2.076345181776138
 30
0.0
 40
0.15625
  0
TEXT
  5
987
330
B49
100
AcDbEntity
  8
TEXT-SA-BUBBLES
100
AcDbText
 10
3.115390123900179
 20
2.013845181776138
 30
0.0
 40
0.125
  1
5
  7
ROMANS
 72
     4
 11
3.174913933423989
 21
2.076345181776138
 31
0.0
100
AcDbText
  0
CIRCLE
  5
988
330
B49
100
AcDbEntity
  8
TEXT-SA-BUBBLES
100
AcDbCircle
 10
4.562722585427021
 20
2.076758479787053
 30
0.0
 40
0.15625
  0
TEXT
  5
989
330
B49
100
AcDbEntity
  8
TEXT-SA-BUBBLES
100
AcDbText
 10
4.500222585427021
 20
2.014258479787053
 30
0.0
 40
0.125
  1
6
  7
ROMANS
 72
     4
 11
4.562722585427021
 21
2.076758479787053
 31
0.0
100
AcDbText
  0
CIRCLE
  5
98A
330
B49
100
AcDbEntity
  8
TEXT-SA-BUBBLES
100
AcDbCircle
 10
2.697739368490193
 20
2.076618722906522
 30
0.0
 40
0.15625
  0
TEXT
  5
98B
330
B49
100
AcDbEntity
  8
TEXT-SA-BUBBLES
100
AcDbText
 10
2.635239368490193
 20
2.014118722906522
 30
0.0
 40
0.125
  1
4
  7
ROMANS
 72
     4
 11
2.697739368490193
 21
2.076618722906522
 31
0.0
100
AcDbText
  0
TEXT
  5
992
330
B49
100
AcDbEntity
  8
TEXT-SA-BUBBLES
100
AcDbText
 10
0.4950147392841228
 20
3.661439209190334
 30
0.0
 40
0.125
  1
3
  7
ROMANS
 72
     4
 11
0.5545385488079324
 21
3.723939209190334
 31
0.0
100
AcDbText
  0
CIRCLE
  5
993
330
B49
100
AcDbEntity
  8
TEXT-SA-BUBBLES
100
AcDbCircle
 10
0.5545385488079324
 20
3.723939209190334
 30
0.0
 40
0.15625
  0
TEXT
  5
994
330
B49
100
AcDbEntity
  8
TEXT_BUBBLES
100
AcDbText
 10
0.4953645152306862
 20
4.573088359675404
 30
0.0
 40
0.125
  1
2
  7
ROMANS
 72
     4
 11
0.5548883247544958
 21
4.635588359675404
 31
0.0
100
AcDbText
  0
CIRCLE
  5
995
330
B49
100
AcDbEntity
  8
TEXT_BUBBLES
100
AcDbCircle
 10
0.5548883247544958
 20
4.635588359675404
 30
0.0
 40
0.15625
  0
TEXT
  5
998
330
B49
100
AcDbEntity
  8
TEXT-SA-BUBBLES
100
AcDbText
 10
4.160919453604451
 20
2.014129251357198
 30
0.0
 40
0.125
  1
3
  7
ROMANS
 72
     4
 11
4.22044326312826
 21
2.076629251357198
 31
0.0
100
AcDbText
  0
CIRCLE
  5
999
330
B49
100
AcDbEntity
  8
TEXT-SA-BUBBLES
100
AcDbCircle
 10
4.22044326312826
 20
2.076629251357198
 30
0.0
 40
0.15625
  0
CIRCLE
  5
99A
330
B49
100
AcDbEntity
  8
TEXT_BUBBLES
100
AcDbCircle
 10
0.5548883247544954
 20
5.262904972967907
 30
0.0
 40
0.15625
  0
TEXT
  5
99B
330
B49
100
AcDbEntity
  8
TEXT_BUBBLES
100
AcDbText
 10
0.5042930866592572
 20
5.200404972967907
 30
0.0
 40
0.125
  1
1
  7
ROMANS
 72
     4
 11
0.5548883247544954
 21
5.262904972967907
 31
0.0
100
AcDbText
  0
TEXT
  5
99E
330
B49
100
AcDbEntity
  8
TEXT-SA-LEADERS
100
AcDbText
 10
5.275883402927707
 20
3.673952120445302
 30
0.0
 40
0.125
  1
SWING PIPE, 12-INCH LENGTH:
  7
ROMANS
100
AcDbText
  0
TEXT
  5
99F
330
B49
100
AcDbEntity
  8
TEXT-SA-LEADERS
100
AcDbText
 10
5.275883402927707
 20
1.546514934410176
 30
0.0
 40
0.125
  1
PVC LATERAL PIPE
  7
ROMANS
100
AcDbText
  0
TEXT
  5
9A0
330
B49
100
AcDbEntity
  8
TEXT_LEADERS
100
AcDbText
 10
5.270515192927707
 20
5.39401257
 30
0.0
 40
0.125
  1
FINISH GRADE/TOP OF MULCH
  7
ROMANS
100
AcDbText
  0
TEXT
  5
9A1
330
B49
100
AcDbEntity
  8
TEXT-SA-LEADERS
100
AcDbText
 10
5.275883402927707
 20
3.498952120445303
 30
0.0
 40
0.125
  1
  RAIN BIRD MODEL SP-100
  7
ROMANS
100
AcDbText
  0
TEXT
  5
9A2
330
B49
100
AcDbEntity
  8
TEXT_LEADERS
100
AcDbText
 10
5.270515192927707
 20
4.869012569999999
 30
0.0
 40
0.125
  1
  RAIN BIRD 1803
  7
ROMANS
100
AcDbText
  0
TEXT
  5
9A3
330
B49
100
AcDbEntity
  8
TEXT_LEADERS
100
AcDbText
 10
5.270515192927707
 20
5.044012569999999
 30
0.0
 40
0.125
  1
POP-UP SPRAY SPRINKLER:
  7
ROMANS
100
AcDbText
  0
TEXT
  5
9AB
330
B49
100
AcDbEntity
  8
TEXT-SA-LEADERS
100
AcDbText
 10
5.275883402927707
 20
4.17992962909268
 30
0.0
 40
0.125
  1
  BARB ELBOW:  RAIN BIRD
  7
SIMPLEX
100
AcDbText
  0
LINE
  5
9AC
330
B49
100
AcDbEntity
  8
OPTION-SA
100
AcDbLine
 10
4.429719560167337
 20
3.030531237557135
 30
0.0
 11
4.060687554484426
 21
3.03053123755713
 31
0.0
  0
LINE
  5
9AD
330
B49
100
AcDbEntity
  8
OPTION-SA
100
AcDbLine
 10
3.966503699342351
 20
2.861835487741374
 30
0.0
 11
4.064877148844419
 21
3.038035355549716
 31
0.0
  0
LINE
  5
9AE
330
B49
100
AcDbEntity
  8
OPTION-SA
100
AcDbLine
 10
4.429719560167337
 20
2.741365197674925
 30
0.0
 11
4.429719560167337
 21
3.030531237557135
 31
0.0
  0
LINE
  5
9AF
330
B49
100
AcDbEntity
  8
OPTION-SA
100
AcDbLine
 10
3.82490084543772
 20
2.741365197674925
 30
0.0
 11
4.429719560167337
 21
2.741365197674925
 31
0.0
  0
LINE
  5
9B0
330
B49
100
AcDbEntity
  8
OPTION-SA
100
AcDbLine
 10
3.82490084543772
 20
2.933912042723028
 30
0.0
 11
3.82490084543772
 21
2.741365197674925
 31
0.0
  0
LINE
  5
9B1
330
B49
100
AcDbEntity
  8
OPTION-SA
100
AcDbLine
 10
4.11909735081828
 20
2.95144528204167
 30
0.0
 11
4.128790079685733
 21
2.886138165782228
 31
0.0
  0
LINE
  5
9B2
330
B49
100
AcDbEntity
  8
OPTION-SA
100
AcDbLine
 10
4.128790079685733
 20
2.886138165782228
 30
0.0
 11
4.071449641947647
 21
2.86013808959757
 31
0.0
  0
LINE
  5
9B3
330
B49
100
AcDbEntity
  8
OPTION-SA
100
AcDbLine
 10
4.429719560167337
 20
2.986057140502563
 30
0.0
 11
4.766816079701212
 21
2.986057140502563
 31
0.0
  0
LINE
  5
9B4
330
B49
100
AcDbEntity
  8
OPTION-SA
100
AcDbLine
 10
4.429719560167337
 20
2.782437058368571
 30
0.0
 11
4.766816079701212
 21
2.782437058368571
 31
0.0
  0
LWPOLYLINE
  5
9B5
330
B49
100
AcDbEntity
  8
OPTION-SA
100
AcDbPolyline
 90
        4
 70
     0
 43
0.0
 10
4.766816079701212
 20
2.986057140502563
 42
-0.5107053858875276
 10
4.766816079701222
 20
2.8827968610415
 42
0.5107053858875159
 10
4.766816079701212
 20
2.782437058368571
 42
0.5397302473450178
 10
4.768742249216027
 20
2.884247099435564
 42
0.5397302473450178
  0
LINE
  5
9B6
330
B49
100
AcDbEntity
  8
OPTION-SA
100
AcDbLine
 10
3.708964536047921
 20
2.986057140502563
 30
0.0
 11
1.607536758325621
 21
2.986057140502563
 31
0.0
  0
LINE
  5
9B7
330
B49
100
AcDbEntity
  8
OPTION-SA
100
AcDbLine
 10
3.82490084543772
 20
2.782437058368571
 30
0.0
 11
1.607536758325621
 21
2.782437058368571
 31
0.0
  0
LINE
  5
9B8
330
B49
100
AcDbEntity
  8
OPTION-SA
100
AcDbLine
 10
4.087816301244591
 20
2.812584649316353
 30
0.0
 11
3.973946907395144
 21
2.873848526676288
 31
0.0
  0
LINE
  5
9B9
330
B49
100
AcDbEntity
  8
OPTION-SA
100
AcDbLine
 10
4.172490099911088
 20
2.958522126909724
 30
0.0
 11
4.055984235743873
 21
3.02210697120741
 31
0.0
  0
ARC
  5
9BA
330
B49
100
AcDbEntity
  8
OPTION-SA
100
AcDbCircle
 10
4.128790079685733
 20
2.886138165782228
 30
0.0
 40
0.0842950537430408
100
AcDbArc
 50
234.4756814862676
 51
62.64469113840124
  0
ARC
  5
9BB
330
B49
100
AcDbEntity
  8
OPTION-SA
100
AcDbCircle
 10
4.128790079685733
 20
2.886138165782228
 30
0.0
 40
0.1089292628087137
100
AcDbArc
 50
202.3302578892511
 51
100.5273986155575
  0
LWPOLYLINE
  5
9BC
330
B49
100
AcDbEntity
  8
OPTION-SA
100
AcDbPolyline
 90
        4
 70
     0
 43
0.0
 10
1.607536758325621
 20
2.986057140502563
 42
0.5107053858875276
 10
1.607536758325612
 20
2.8827968610415
 42
-0.5107053858875159
 10
1.607536758325621
 20
2.782437058368571
 42
-0.5397302473450178
 10
1.605610588810805
 20
2.884247099435564
 42
-0.5397302473450178
  0
ARC
  5
9BD
330
B49
100
AcDbEntity
  8
OPTION-SA
100
AcDbCircle
 10
2.552447625661925
 20
0.2747231073883052
 30
0.0
 40
3.150132956469122
100
AcDbArc
 50
61.30701558492705
 51
91.57178904497754
  0
ARC
  5
9BE
330
B49
100
AcDbEntity
  8
OPTION-SA
100
AcDbCircle
 10
2.54905246845331
 20
0.2522221314091402
 30
0.0
 40
2.969722185911746
100
AcDbArc
 50
61.49072909609822
 51
91.61727251044187
  0
LINE
  5
9BF
330
B49
100
AcDbEntity
  8
OPTION-SA
100
AcDbLine
 10
2.465238052382168
 20
3.220761335319894
 30
0.0
 11
2.46604120091339
 21
3.423670800379579
 31
0.0
  0
ARC
  5
9C0
330
B49
100
AcDbEntity
  8
OPTION-SA
100
AcDbCircle
 10
2.223600089810175
 20
3.287577578920938
 30
0.0
 40
0.0469218235072326
100
AcDbArc
 50
180.0
 51
270.0
  0
LWPOLYLINE
  5
9C1
330
B49
100
AcDbEntity
  8
OPTION-SA
100
AcDbPolyline
 90
        3
 70
     0
 43
0.0
 10
2.225740655869302
 20
3.244654690889209
 42
0.3551655385017884
 10
2.317527570025384
 20
3.324161187206319
 42
-0.3351985284943452
 10
2.384053506871949
 20
3.403117737402663
 42
-0.5949761929811071
  0
LINE
  5
9C2
330
B49
100
AcDbEntity
  8
OPTION-SA
100
AcDbLine
 10
2.465235580882267
 20
3.240655755413708
 30
0.0
 11
2.223600089810175
 21
3.240655755413708
 31
0.0
  0
LINE
  5
9C3
330
B49
100
AcDbEntity
  8
OPTION-SA
100
AcDbLine
 10
2.465971446329734
 20
3.406047826913417
 30
0.0
 11
2.390433240058112
 21
3.406047826913413
 31
0.0
  0
ARC
  5
9C4
330
B49
100
AcDbEntity
  8
OPTION-SA
100
AcDbCircle
 10
2.390433240058112
 20
3.452969650420644
 30
0.0
 40
0.0469218235072326
100
AcDbArc
 50
180.0
 51
270.0
  0
LINE
  5
9C5
330
B49
100
AcDbEntity
  8
OPTION-SA
100
AcDbLine
 10
2.176678266302942
 20
3.551883991719238
 30
0.0
 11
2.176678266302942
 21
3.287577578920938
 31
0.0
  0
LINE
  5
9C6
330
B49
100
AcDbEntity
  8
OPTION-SA
100
AcDbLine
 10
2.176678266302942
 20
3.505954328325455
 30
0.0
 11
2.343511416550877
 21
3.505954328325455
 31
0.0
  0
LINE
  5
9C7
330
B49
100
AcDbEntity
  8
OPTION-SA
100
AcDbLine
 10
2.343511416550877
 20
3.551883991719238
 30
0.0
 11
2.343511416550877
 21
3.452969650420644
 31
0.0
  0
LINE
  5
9C8
330
B49
100
AcDbEntity
  8
OPTION-SA
100
AcDbLine
 10
2.19276712942998
 20
3.531013531863039
 30
0.0
 11
2.327781901284788
 21
3.531013531863039
 31
0.0
  0
TEXT
  5
9C9
330
B49
100
AcDbEntity
  8
TEXT-SA-LEADERS
100
AcDbText
 10
5.275883402927707
 20
4.35492962909268
 30
0.0
 40
0.125
  1
1/2-INCH MALE NPT x .490 INCH
  7
SIMPLEX
100
AcDbText
  0
TEXT
  5
9CA
330
B49
100
AcDbEntity
  8
TEXT-SA-LEADERS
100
AcDbText
 10
5.275883402927707
 20
4.004929629092679
 30
0.0
 40
0.125
  1
  MODEL SBE-050
  7
SIMPLEX
100
AcDbText
  0
TEXT
  5
9CE
330
B49
100
AcDbEntity
  8
TEXT-SA-LEADERS
100
AcDbText
 10
5.275883402927707
 20
3.06343873032581
 30
0.0
 40
0.125
  1
PVC SCH 40 TEE OR ELL
  7
ROMANS
100
AcDbText
  0
TEXT
  5
9CF
330
B49
100
AcDbEntity
  8
TEXT-SA-LEADERS
100
AcDbText
 10
5.275883402927707
 20
1.928779486881764
 30
0.0
 40
0.125
  1
  MODEL SBE-050
  7
SIMPLEX
100
AcDbText
  0
TEXT
  5
9D0
330
B49
100
AcDbEntity
  8
TEXT-SA-LEADERS
100
AcDbText
 10
5.275883402927707
 20
2.278779486881764
 30
0.0
 40
0.125
  1
1/2-INCH MALE NPT x .490 INCH
  7
SIMPLEX
100
AcDbText
  0
TEXT
  5
9D1
330
B49
100
AcDbEntity
  8
TEXT-SA-LEADERS
100
AcDbText
 10
5.275883402927707
 20
2.103779486881763
 30
0.0
 40
0.125
  1
  BARB ELBOW:  RAIN BIRD
  7
SIMPLEX
100
AcDbText
  0
TEXT
  5
9D8
330
B49
100
AcDbEntity
  8
TEXT-SA-BUBBLES
100
AcDbText
 10
5.27051519
 20
4.169012569999999
 30
0.0
 40
0.125
  1
  BARB ELBOW:  RAIN BIRD
  7
SIMPLEX
100
AcDbText
  0
TEXT
  5
9D9
330
B49
100
AcDbEntity
  8
TEXT-SA-BUBBLES
100
AcDbText
 10
5.27051519
 20
4.34401257
 30
0.0
 40
0.125
  1
1/2-INCH MALE NPT x .490 INCH
  7
SIMPLEX
100
AcDbText
  0
TEXT
  5
9DB
330
B49
100
AcDbEntity
  8
TEXT-SA-BUBBLES
100
AcDbText
 10
5.27051519
 20
3.469012569999999
 30
0.0
 40
0.125
  1

  7
ROMANS
100
AcDbText
  0
TEXT
  5
9DC
330
B49
100
AcDbEntity
  8
TEXT-SA-BUBBLES
100
AcDbText
 10
4.59898118
 20
3.604999999999999
 30
0.0
 40
0.125
  1

  7
ROMANS
100
AcDbText
  0
TEXT
  5
9DE
330
B49
100
AcDbEntity
  8
OPTION-NOZ-VAN
100
AcDbText
 10
5.270515192927707
 20
4.694012569999999
 30
0.0
 40
0.125
  1
  WITH VAN NOZZLE
  7
ROMANS
100
AcDbText
  0
TEXT
  5
9EE
330
B49
100
AcDbEntity
  8
OPTION-NOZ-PLASTIC
100
AcDbText
 10
5.270515192927707
 20
4.694012569999999
 30
0.0
 40
0.125
  1
  WITH PLASTIC MPR NOZZLE
  7
ROMANS
100
AcDbText
  0
LINE
  5
9EF
330
B49
100
AcDbEntity
  8
IMAGE
100
AcDbLine
 10
3.845297397214829
 20
5.125557739021218
 30
0.0
 11
2.613823331887176
 21
5.125557739021218
 31
0.0
  0
LINE
  5
9F0
330
B49
100
AcDbEntity
  8
IMAGE
100
AcDbLine
 10
3.391622675963607
 20
5.427147070971376
 30
0.0
 11
3.428435465240704
 21
5.125282198899219
 31
0.0
  0
LINE
  5
9F1
330
B49
100
AcDbEntity
  8
IMAGE
100
AcDbLine
 10
3.576196882339048
 20
5.413304005493211
 30
0.0
 11
3.650026564889231
 21
5.131828340770676
 31
0.0
  0
LINE
  5
9F2
330
B49
100
AcDbEntity
  8
IMAGE
100
AcDbLine
 10
3.728470602598787
 20
5.408689650333837
 30
0.0
 11
3.755040051170781
 21
5.125282198899219
 31
0.0
  0
LINE
  5
9F3
330
B49
100
AcDbEntity
  8
IMAGE
100
AcDbLine
 10
3.827082012721581
 20
5.455035659923721
 30
0.0
 11
3.74762653294863
 21
5.125282198899219
 31
0.0
  0
LINE
  5
9F4
330
B49
100
AcDbEntity
  8
IMAGE
100
AcDbLine
 10
3.354016310073359
 20
5.367101403650519
 30
0.0
 11
3.549504999360912
 21
5.125282198899219
 31
0.0
  0
LINE
  5
9F5
330
B49
100
AcDbEntity
  8
IMAGE
100
AcDbLine
 10
3.497036173664683
 20
5.466027441957864
 30
0.0
 11
3.497036173664683
 21
5.125282198899219
 31
0.0
  0
LINE
  5
9F6
330
B49
100
AcDbEntity
  8
IMAGE
100
AcDbLine
 10
3.662059093193136
 20
5.411068531787117
 30
0.0
 11
3.730459897519421
 21
5.125282198899229
 31
0.0
  0
LINE
  5
9F7
330
B49
100
AcDbEntity
  8
IMAGE
100
AcDbLine
 10
3.778989619030428
 20
5.408689650333837
 30
0.0
 11
3.805559067602422
 21
5.125282198899219
 31
0.0
  0
LINE
  5
9F8
330
B49
100
AcDbEntity
  8
IMAGE
100
AcDbLine
 10
3.202725392978808
 20
5.413304005493211
 30
0.0
 11
3.27655507552899
 21
5.131828340770676
 31
0.0
  0
LINE
  5
9F9
330
B49
100
AcDbEntity
  8
IMAGE
100
AcDbLine
 10
3.354999113238545
 20
5.408689650333837
 30
0.0
 11
3.381568561810539
 21
5.125282198899219
 31
0.0
  0
LINE
  5
9FA
330
B49
100
AcDbEntity
  8
IMAGE
100
AcDbLine
 10
3.233579963990071
 20
5.433052095855414
 30
0.0
 11
3.207909732063426
 21
5.125282198899229
 31
0.0
  0
LINE
  5
9FB
330
B49
100
AcDbEntity
  8
IMAGE
100
AcDbLine
 10
3.123564684304443
 20
5.466027441957864
 30
0.0
 11
3.123564684304443
 21
5.125282198899219
 31
0.0
  0
LINE
  5
9FC
330
B49
100
AcDbEntity
  8
IMAGE
100
AcDbLine
 10
3.288587603832895
 20
5.411068531787117
 30
0.0
 11
3.356988408159181
 21
5.125282198899229
 31
0.0
  0
LINE
  5
9FD
330
B49
100
AcDbEntity
  8
IMAGE
100
AcDbLine
 10
3.585628858984107
 20
5.444043877889573
 30
0.0
 11
3.433702996561081
 21
5.125282198899219
 31
0.0
  0
LINE
  5
9FE
330
B49
100
AcDbEntity
  8
IMAGE
100
AcDbLine
 10
3.288844306152156
 20
5.404075295174447
 30
0.0
 11
3.262471986234232
 21
5.125282198899219
 31
0.0
  0
LINE
  5
9FF
330
B49
100
AcDbEntity
  8
IMAGE
100
AcDbLine
 10
3.002754286270222
 20
5.413304005493211
 30
0.0
 11
3.076583968820405
 21
5.131828340770676
 31
0.0
  0
LINE
  5
A00
330
B49
100
AcDbEntity
  8
IMAGE
100
AcDbLine
 10
2.923593577595856
 20
5.466027441957864
 30
0.0
 11
2.923593577595856
 21
5.125282198899219
 31
0.0
  0
LINE
  5
A01
330
B49
100
AcDbEntity
  8
IMAGE
100
AcDbLine
 10
3.08861649712431
 20
5.411068531787117
 30
0.0
 11
3.157017301450594
 21
5.125282198899229
 31
0.0
  0
LINE
  5
A02
330
B49
100
AcDbEntity
  8
IMAGE
100
AcDbLine
 10
3.385657752275522
 20
5.444043877889573
 30
0.0
 11
3.233731889852493
 21
5.125282198899219
 31
0.0
  0
LINE
  5
A03
330
B49
100
AcDbEntity
  8
IMAGE
100
AcDbLine
 10
2.670832948635823
 20
5.427147070971376
 30
0.0
 11
2.707645737912916
 21
5.125282198899219
 31
0.0
  0
LINE
  5
A04
330
B49
100
AcDbEntity
  8
IMAGE
100
AcDbLine
 10
2.855407155011261
 20
5.413304005493211
 30
0.0
 11
2.929236837561446
 21
5.131828340770676
 31
0.0
  0
LINE
  5
A05
330
B49
100
AcDbEntity
  8
IMAGE
100
AcDbLine
 10
3.106292285393794
 20
5.455035659923721
 30
0.0
 11
3.026836805620843
 21
5.125282198899219
 31
0.0
  0
LINE
  5
A06
330
B49
100
AcDbEntity
  8
IMAGE
100
AcDbLine
 10
2.886261726022525
 20
5.433052095855414
 30
0.0
 11
2.86059149409588
 21
5.125282198899229
 31
0.0
  0
LINE
  5
A07
330
B49
100
AcDbEntity
  8
IMAGE
100
AcDbLine
 10
2.633226582745572
 20
5.367101403650519
 30
0.0
 11
2.828715272033126
 21
5.125282198899219
 31
0.0
  0
LINE
  5
A08
330
B49
100
AcDbEntity
  8
IMAGE
100
AcDbLine
 10
2.776246446336897
 20
5.466027441957864
 30
0.0
 11
2.776246446336897
 21
5.125282198899219
 31
0.0
  0
LINE
  5
A09
330
B49
100
AcDbEntity
  8
IMAGE
100
AcDbLine
 10
2.941269365865351
 20
5.411068531787117
 30
0.0
 11
3.009670170191635
 21
5.125282198899229
 31
0.0
  0
LINE
  5
A0A
330
B49
100
AcDbEntity
  8
IMAGE
100
AcDbLine
 10
3.238310621016563
 20
5.444043877889573
 30
0.0
 11
3.086384758593536
 21
5.125282198899219
 31
0.0
  0
LINE
  5
A0B
330
B49
100
AcDbEntity
  8
IMAGE
100
AcDbLine
 10
2.745710395754435
 20
5.385617874536903
 30
0.0
 11
2.817092758429283
 21
5.125282198899219
 31
0.0
  0
LINE
  5
A0C
330
B49
100
AcDbEntity
  8
IMAGE
100
AcDbLine
 10
2.61189409613224
 20
5.427147070971376
 30
0.0
 11
2.648706885409333
 21
5.125282198899219
 31
0.0
  0
LINE
  5
A0D
330
B49
100
AcDbEntity
  8
IMAGE
100
AcDbLine
 10
2.948742022767416
 20
5.408689650333837
 30
0.0
 11
2.97531147133941
 21
5.125282198899219
 31
0.0
  0
LINE
  5
A0E
330
B49
100
AcDbEntity
  8
IMAGE
100
AcDbLine
 10
3.047353432890212
 20
5.455035659923721
 30
0.0
 11
2.967897953117259
 21
5.125282198899219
 31
0.0
  0
LINE
  5
A0F
330
B49
100
AcDbEntity
  8
IMAGE
100
AcDbLine
 10
2.827322873518943
 20
5.433052095855414
 30
0.0
 11
2.801652641592299
 21
5.125282198899229
 31
0.0
  0
LINE
  5
A10
330
B49
100
AcDbEntity
  8
IMAGE
100
AcDbLine
 10
2.717307593833313
 20
5.466027441957864
 30
0.0
 11
2.717307593833313
 21
5.125282198899219
 31
0.0
  0
LINE
  5
A11
330
B49
100
AcDbEntity
  8
IMAGE
100
AcDbLine
 10
3.17937176851298
 20
5.444043877889573
 30
0.0
 11
3.02744590608995
 21
5.125282198899219
 31
0.0
  0
LINE
  5
A12
330
B49
100
AcDbEntity
  8
IMAGE
100
AcDbLine
 10
3.714046027785152
 20
5.404075295174447
 30
0.0
 11
3.687673707867229
 21
5.125282198899219
 31
0.0
  0
LINE
  5
A13
330
B49
100
AcDbEntity
  8
IMAGE
100
AcDbLine
 10
3.427956007903216
 20
5.413304005493211
 30
0.0
 11
3.5017856904534
 21
5.131828340770676
 31
0.0
  0
LINE
  5
A14
330
B49
100
AcDbEntity
  8
IMAGE
100
AcDbLine
 10
3.678841138285748
 20
5.455035659923721
 30
0.0
 11
3.599385658512797
 21
5.125282198899219
 31
0.0
  0
LINE
  5
A15
330
B49
100
AcDbEntity
  8
IMAGE
100
AcDbLine
 10
3.348795299228851
 20
5.466027441957864
 30
0.0
 11
3.348795299228851
 21
5.125282198899219
 31
0.0
  0
LINE
  5
A16
330
B49
100
AcDbEntity
  8
IMAGE
100
AcDbLine
 10
3.513818218757305
 20
5.411068531787117
 30
0.0
 11
3.582219023083589
 21
5.125282198899229
 31
0.0
  0
LINE
  5
A17
330
B49
100
AcDbEntity
  8
IMAGE
100
AcDbLine
 10
3.810859473908517
 20
5.444043877889573
 30
0.0
 11
3.658933611485488
 21
5.125282198899219
 31
0.0
  0
TEXT
  5
A18
330
B49
100
AcDbEntity
  8
OPTION-NOZ-U-SERIES
100
AcDbText
 10
5.270515192927707
 20
4.694012569999999
 30
0.0
 40
0.125
  1
  WITH U-SERIES NOZZLE
  7
ROMANS
100
AcDbText
  0
INSERT
  5
A19
330
B49
100
AcDbEntity
  8
IMAGE
  6
Continuous
100
AcDbBlockReference
  2
*X0
 10
0.0
 20
0.0
 30
0.0
1001
ACAD
1000
HATCH
1002
{
1070
    19
1000
EARTH
1040
0.65
1040
0.7853981633974483
1000
R14_HATCH_DATA
1000
A19
1011
1.0
1021
0.0
1031
0.0
1011
0.0
1021
1.0
1031
0.0
1011
0.0
1021
0.0
1031
1.0
1040
0.0
1010
0.0
1020
0.0
1030
1.0
1000
EARTH
1070
     0
1070
     0
1071
        2
1071
        7
1070
     0
1070
     1
1071
       14
1040
1.906969528217868
1040
5.07905406460379
1040
1.906969528217872
1040
5.125557739021217
1040
1.219026704767103
1040
5.125557739021219
1040
1.251798042566137
1040
5.040686479675531
1040
1.300314971628675
1040
4.91670437663785
1040
1.348612230454677
1040
4.795296007978969
1040
1.41412378629995
1040
4.747670478834391
1040
1.603416899341682
1040
4.540983794411659
1040
1.633871768961065
1040
4.514870121536116
1040
1.816581421932776
1040
4.471305604528139
1040
1.962304851449334
1040
4.447323406559921
1040
2.054407537523053
1040
4.440043967547019
1040
2.054407537523053
1040
4.943108468357106
1040
1.981331549636913
1040
4.943108468357107
1071
        0
1071
        7
1070
     0
1070
     1
1071
       15
1040
3.152132461771498
1040
4.915337691686034
1040
3.205492468967123
1040
4.969486605250571
1040
3.247533707782825
1040
5.064045135475871
1040
3.266937352019358
1040
5.125557739021217
1040
2.613823331887179
1040
5.125557739021218
1040
2.613823331887179
1040
5.07905406460379
1040
2.539461310468134
1040
4.943108468357105
1040
2.466385322581989
1040
4.943108468357107
1040
2.466385322581992
1040
4.442286995238264
1040
2.703423181574321
1040
4.67126353690498
1040
2.760825626698253
1040
4.715714132023053
1040
2.810951712460888
1040
4.723796051623812
1040
2.883715392802719
1040
4.741576289671047
1040
2.968606329110122
1040
4.766630266553128
1040
3.111708198127115
1040
4.84583313834281
1071
        0
1070
     0
1070
     1
1040
0.7853981633974483
1040
0.65
1070
     0
1070
     6
1040
0.7853981633974483
1040
0.3171318562675873
1040
-1.000392175434209
1040
0.0
1040
0.2298097038856279
1070
     2
1040
0.1625
1040
-0.1625
1040
0.7853981633974483
1040
0.2740425367890316
1040
-0.9573028559556547
1040
0.0
1040
0.2298097038856279
1070
     2
1040
0.1625
1040
-0.1625
1040
0.7853981633974483
1040
0.2309532173104758
1040
-0.9142135364770995
1040
0.0
1040
0.2298097038856279
1070
     2
1040
0.1625
1040
-0.1625
1040
2.356194490192344
1040
0.2309532173104758
1040
-0.8854873234913959
1040
-0.2298097038856279
1040
0.0
1070
     2
1040
0.1625
1040
-0.1625
1040
2.356194490192344
1040
0.2740425367890316
1040
-0.8423980040128407
1040
-0.2298097038856279
1040
0.0
1070
     2
1040
0.1625
1040
-0.1625
1040
2.356194490192344
1040
0.3171318562675873
1040
-0.7993086845342856
1040
-0.2298097038856279
1040
0.0
1070
     2
1040
0.1625
1040
-0.1625
1040
0.0017236619931563
1071
        2
1040
1.723421774405001
1040
4.945530681809978
1040
0.0
1040
2.809721953291949
1040
4.897268140671052
1040
0.0
1002
}
  0
CIRCLE
  5
A1A
330
B49
100
AcDbEntity
  8
OPTION-VPC
100
AcDbCircle
 10
2.262314480038436
 20
5.010446130813321
 30
0.0
 40
0.0139560404963533
  0
TEXT
  5
A1B
330
B49
100
AcDbEntity
  8
OPTION-NP
100
AcDbText
 10
5.270515192927707
 20
4.869012569999999
 30
0.0
 40
0.125
  1
                WITH 1800 NP COVER
  7
ROMANS
100
AcDbText
  0
LINE
  5
A2E
330
B49
100
AcDbEntity
  8
OPTION-RB-SA
100
AcDbLine
 10
2.192889044125119
 20
3.521846255965879
 30
0.0
 11
2.327903815979927
 21
3.521846255965879
 31
0.0
  0
TEXT
  5
A2F
330
B49
100
AcDbEntity
  8
TEXT-RB-SA-BUBBLES
100
AcDbText
 10
4.969801226600148
 20
4.34142983792941
 30
0.0
 40
0.125
  1
3
  7
ROMANS
 72
     4
 11
5.029325036123958
 21
4.40392983792941
 31
0.0
100
AcDbText
  0
TEXT
  5
A30
330
B49
100
AcDbEntity
  8
TEXT-RB-SA-BUBBLES
100
AcDbText
 10
4.975440577905929
 20
3.979656864161404
 30
0.0
 40
0.125
  1
4
  7
ROMANS
 72
     4
 11
5.037940577905929
 21
4.042156864161404
 31
0.0
100
AcDbText
  0
CIRCLE
  5
A31
330
B49
100
AcDbEntity
  8
TEXT-RB-SA-BUBBLES
100
AcDbCircle
 10
5.037940577905929
 20
4.042156864161404
 30
0.0
 40
0.15625
  0
CIRCLE
  5
A32
330
B49
100
AcDbEntity
  8
TEXT-RB-SA-BUBBLES
100
AcDbCircle
 10
5.029325036123958
 20
4.40392983792941
 30
0.0
 40
0.15625
  0
TEXT
  5
A33
330
B49
100
AcDbEntity
  8
TEXT-RB-SA-BUBBLES
100
AcDbText
 10
4.969801226600148
 20
3.481352980366743
 30
0.0
 40
0.125
  1
5
  7
ROMANS
 72
     4
 11
5.029325036123958
 21
3.543852980366743
 31
0.0
100
AcDbText
  0
CIRCLE
  5
A34
330
B49
100
AcDbEntity
  8
TEXT-RB-SA-BUBBLES
100
AcDbCircle
 10
5.029325036123958
 20
3.543852980366743
 30
0.0
 40
0.15625
  0
TEXT
  5
A35
330
B49
100
AcDbEntity
  8
TEXT-RB-SA-BUBBLES
100
AcDbText
 10
5.27051519
 20
3.352590179999999
 30
0.0
 40
0.125
  1

  7
ROMANS
100
AcDbText
  0
TEXT
  5
A37
330
B49
100
AcDbEntity
  8
TEXT-RB-SA-BUBBLES
100
AcDbText
 10
5.27051519
 20
3.63585372
 30
0.0
 40
0.125
  1

  7
ROMANS
100
AcDbText
  0
TEXT
  5
A38
330
B49
100
AcDbEntity
  8
TEXT-RB-SA-BUBBLES
100
AcDbText
 10
5.27051519
 20
3.91911726
 30
0.0
 40
0.125
  1

  7
ROMANS
100
AcDbText
  0
TEXT
  5
A3A
330
B49
100
AcDbEntity
  8
TEXT-RB-SA-LEADERS
100
AcDbText
 10
5.275883402927707
 20
3.602473130905508
 30
0.0
 40
0.125
  1
SWING ASSEMBLY:
  7
ROMANS
100
AcDbText
  0
LINE
  5
A3B
330
B49
100
AcDbEntity
  8
OPTION-RB-SA
100
AcDbLine
 10
4.347519906490027
 20
2.745052343382196
 30
0.0
 11
4.347519906490027
 21
3.034218383264406
 31
0.0
  0
LINE
  5
A3C
330
B49
100
AcDbEntity
  8
OPTION-RB-SA
100
AcDbLine
 10
4.347519906490027
 20
2.989744286209834
 30
0.0
 11
4.684616426023901
 21
2.989744286209834
 31
0.0
  0
LINE
  5
A3D
330
B49
100
AcDbEntity
  8
OPTION-RB-SA
100
AcDbLine
 10
4.347519906490027
 20
2.786124204075842
 30
0.0
 11
4.684616426023901
 21
2.786124204075842
 31
0.0
  0
LWPOLYLINE
  5
A3F
330
B49
100
AcDbEntity
  8
OPTION-RB-SA
100
AcDbPolyline
 90
        4
 70
     0
 43
0.0
 10
4.684616426023901
 20
2.989744286209834
 42
-0.5107053858875276
 10
4.684616426023912
 20
2.886484006748771
 42
0.5107053858875159
 10
4.684616426023901
 20
2.786124204075842
 42
0.5397302473450178
 10
4.686542595538717
 20
2.887934245142836
 42
0.5397302473450178
  0
TEXT
  5
A40
330
B49
100
AcDbEntity
  8
TEXT-RB-SA-BUBBLES
100
AcDbText
 10
4.385003767429934
 20
2.017681396285808
 30
0.0
 40
0.125
  1
5
  7
ROMANS
 72
     4
 11
4.444527576953744
 21
2.080181396285808
 31
0.0
100
AcDbText
  0
CIRCLE
  5
A41
330
B49
100
AcDbEntity
  8
TEXT-RB-SA-BUBBLES
100
AcDbCircle
 10
4.444527576953744
 20
2.080181396285808
 30
0.0
 40
0.15625
  0
LINE
  5
A43
330
B49
100
AcDbEntity
  8
OPTION-RB-SA
100
AcDbLine
 10
2.432022640559446
 20
3.324961574226519
 30
0.0
 11
2.40344204638182
 21
3.334144703990691
 31
0.0
  0
LINE
  5
A44
330
B49
100
AcDbEntity
  8
OPTION-RB-SA
100
AcDbLine
 10
2.347113658385864
 20
3.552738986295123
 30
0.0
 11
2.347113658385864
 21
3.294315427686425
 31
0.0
  0
LINE
  5
A45
330
B49
100
AcDbEntity
  8
OPTION-RB-SA
100
AcDbLine
 10
2.383386072162235
 20
3.165382479696459
 30
0.0
 11
2.323304914735603
 21
3.185054092256174
 31
0.0
  0
LINE
  5
A46
330
B49
100
AcDbEntity
  8
OPTION-RB-SA
100
AcDbLine
 10
2.377645615057605
 20
3.146547743259788
 30
0.0
 11
2.436802350923064
 21
3.34064405095294
 31
0.0
  0
LINE
  5
A48
330
B49
100
AcDbEntity
  8
OPTION-RB-SA
100
AcDbLine
 10
3.975710116034789
 20
2.823935325191238
 30
0.0
 11
3.915668013037582
 21
2.841865338821555
 31
0.0
  0
LINE
  5
A49
330
B49
100
AcDbEntity
  8
OPTION-RB-SA
100
AcDbLine
 10
3.742701191760411
 20
2.864720095086513
 30
0.0
 11
3.742701191760411
 21
2.745052343382196
 31
0.0
  0
LINE
  5
A4A
330
B49
100
AcDbEntity
  8
OPTION-RB-SA
100
AcDbLine
 10
3.970371384943811
 20
3.024102363632255
 30
0.0
 11
3.912034211303441
 21
2.829759810520357
 31
0.0
  0
ARC
  5
A4B
330
B49
100
AcDbEntity
  8
OPTION-RB-SA
100
AcDbCircle
 10
4.046590426008424
 20
2.889825311489498
 30
0.0
 40
0.1267079420559205
100
AcDbArc
 50
204.54630708977
 51
122.199916707569
  0
LINE
  5
A4C
330
B49
100
AcDbEntity
  8
OPTION-RB-SA
100
AcDbLine
 10
4.023447430524245
 20
2.983792914397961
 30
0.0
 11
3.963633168386098
 21
3.001654889277058
 31
0.0
  0
ARC
  5
A4D
330
B49
100
AcDbEntity
  8
OPTION-RB-SA
100
AcDbCircle
 10
4.046590426008424
 20
2.889825311489498
 30
0.0
 40
0.0967755580523473
100
AcDbArc
 50
222.910381779526
 51
103.8358420178157
  0
TEXT
  5
A4F
330
B49
100
AcDbEntity
  8
TEXT-RB-SA-BUBBLES
100
AcDbText
 10
3.302146627503121
 20
3.53281381197203
 30
0.0
 40
0.125
  1
4
  7
ROMANS
 72
     4
 11
3.364646627503121
 21
3.59531381197203
 31
0.0
100
AcDbText
  0
TEXT
  5
A51
330
B49
100
AcDbEntity
  8
TEXT-RB-SA-BUBBLES
100
AcDbText
 10
2.328200673981311
 20
2.017541639405277
 30
0.0
 40
0.125
  1
3
  7
ROMANS
 72
     4
 11
2.387724483505121
 21
2.080041639405277
 31
0.0
100
AcDbText
  0
CIRCLE
  5
A52
330
B49
100
AcDbEntity
  8
TEXT-RB-SA-BUBBLES
100
AcDbCircle
 10
2.387724483505121
 20
2.080041639405277
 30
0.0
 40
0.15625
  0
CIRCLE
  5
A54
330
B49
100
AcDbEntity
  8
TEXT-RB-SA-BUBBLES
100
AcDbCircle
 10
3.364646627503121
 20
3.59531381197203
 30
0.0
 40
0.15625
  0
LINE
  5
A55
330
B49
100
AcDbEntity
  8
OPTION-RB-SA
100
AcDbLine
 10
3.970371384943811
 20
3.024102363632255
 30
0.0
 11
2.436802350923064
 21
3.340644050952939
 31
0.0
  0
LINE
  5
A56
330
B49
100
AcDbEntity
  8
OPTION-RB-SA
100
AcDbLine
 10
2.377645623108153
 20
3.146547769674056
 30
0.0
 11
3.912034211303441
 21
2.829759810520357
 31
0.0
  0
LINE
  5
A58
330
B49
100
AcDbEntity
  8
OPTION-RB-SA
100
AcDbLine
 10
4.347519906490027
 20
3.034218383264406
 30
0.0
 11
3.936878754645014
 21
3.034218383264401
 31
0.0
  0
LINE
  5
A59
330
B49
100
AcDbEntity
  8
OPTION-RB-SA
100
AcDbLine
 10
3.742701191760411
 20
2.745052343382196
 30
0.0
 11
4.347519906490027
 21
2.745052343382196
 31
0.0
  0
LINE
  5
A5C
330
B49
100
AcDbEntity
  8
OPTION-RB-SA
100
AcDbLine
 10
2.172491994678208
 20
3.293626942337152
 30
0.0
 11
2.172491994678208
 21
3.552738986295123
 31
0.0
  0
LWPOLYLINE
  5
A5D
330
B49
100
AcDbEntity
  8
OPTION-RB-SA
100
AcDbPolyline
 90
        4
 70
     0
 43
0.0
 10
1.608246129356985
 20
2.989744286209834
 42
0.5107053858875276
 10
1.608246129356975
 20
2.886484006748771
 42
-0.5107053858875159
 10
1.608246129356985
 20
2.786124204075842
 42
-0.5397302473450178
 10
1.606319959842168
 20
2.887934245142836
 42
-0.5397302473450178
  0
LINE
  5
A5E
330
B49
100
AcDbEntity
  8
OPTION-RB-SA
100
AcDbLine
 10
3.137136218203779
 20
2.989744286209834
 30
0.0
 11
1.608246129356984
 21
2.989744286209834
 31
0.0
  0
LINE
  5
A5F
330
B49
100
AcDbEntity
  8
OPTION-RB-SA
100
AcDbLine
 10
3.742701191760411
 20
2.786124204075842
 30
0.0
 11
1.608246129356984
 21
2.786124204075842
 31
0.0
  0
ARC
  5
A60
330
B49
100
AcDbEntity
  8
OPTION-RB-SA
100
AcDbCircle
 10
2.259802826532037
 20
3.315269269216321
 30
0.0
 40
0.1448741092016656
100
AcDbArc
 50
127.0611407962445
 51
52.93885920375984
  0
LINE
  5
A61
330
B49
100
AcDbEntity
  8
OPTION-RB-SA
100
AcDbLine
 10
2.172491994678208
 20
3.496787052428295
 30
0.0
 11
2.347113658385864
 21
3.496787052428295
 31
0.0
  0
ARC
  5
A62
330
B49
100
AcDbEntity
  8
OPTION-RB-SA
100
AcDbCircle
 10
2.259673402680825
 20
3.326797167795322
 30
0.0
 40
0.0932784099256874
100
AcDbArc
 50
200.8304993914681
 51
339.6213013705943
  0
TEXT
  5
A63
330
B49
100
AcDbEntity
  8
TEXT-RB-SA-LEADERS
100
AcDbText
 10
5.275883402927707
 20
1.546514934410176
 30
0.0
 40
0.125
  1
PVC LATERAL PIPE
  7
ROMANS
100
AcDbText
  0
TEXT
  5
A64
330
B49
100
AcDbEntity
  8
TEXT-RB-SA-LEADERS
100
AcDbText
 10
5.275883402927707
 20
3.427473130905508
 30
0.0
 40
0.125
  1
  RAIN BIRD MODEL SA 6050
  7
ROMANS
100
AcDbText
  0
TEXT
  5
A65
330
B49
100
AcDbEntity
  8
TEXT-RB-SA-LEADERS
100
AcDbText
 10
5.275883402927707
 20
2.065904953695135
 30
0.0
 40
0.125
  1
PVC SCH 40 TEE OR ELL
  7
ROMANS
100
AcDbText
  0
INSERT
  5
B8F
330
B49
100
AcDbEntity
  8
TITLE
100
AcDbBlockReference
 66
     1
  2
titleblock
 10
0.0
 20
0.0
 30
0.0
  0
ATTRIB
  5
B91
330
B8F
100
AcDbEntity
  8
TITLE
100
AcDbText
 10
0.5055556038023421
 20
0.7842270964783673
 30
0.0
 40
0.2
  1
D
  7
L200
 72
     4
 11
0.6064423705144839
 21
0.8842270964783672
 31
0.0
100
AcDbAttribute
  2
D
 70
     0
  0
ATTRIB
  5
B92
330
B8F
100
AcDbEntity
  8
TITLE
100
AcDbText
 10
1.231442370514484
 20
1.34371230274675
 30
0.0
 40
0.2
  1

  7
L200
100
AcDbAttribute
  2
TITLE1
 70
     0
  0
ATTRIB
  5
B93
330
B8F
100
AcDbEntity
  8
TITLE
100
AcDbText
 10
1.231442370514484
 20
0.9842270964783674
 30
0.0
 40
0.2
  1
POP-UP SPRAY SPRINKLER
  7
L200
100
AcDbAttribute
  2
TITLE2
 70
     0
  0
ATTRIB
  5
B94
330
B8F
100
AcDbEntity
  8
TITLE
100
AcDbText
 10
2.713645751168312
 20
0.5927927664583189
 30
0.0
 40
0.2
  1
1803 WITH SWING PIPE
  7
L200
100
AcDbAttribute
  2
TITLE3
 70
     0
  0
ATTRIB
  5
B95
330
B8F
100
AcDbEntity
  8
TITLE
100
AcDbText
 10
2.713645751168312
 20
0.2692560808167741
 30
0.0
 40
0.2
  1

  7
L200
100
AcDbAttribute
  2
TITLE4
 70
     0
  0
ATTRIB
  5
B96
330
B8F
100
AcDbEntity
  8
TITLE
 62
     7
100
AcDbText
 10
7.689595782347332
 20
0.9696027915446398
 30
0.0
 40
0.08
  1
4-13-04
  7
L80
 72
     2
 11
8.261024353775903
 21
0.9696027915446398
 31
0.0
100
AcDbAttribute
  2
REVISED
 70
     0
  0
ATTRIB
  5
B97
330
B8F
100
AcDbEntity
  8
TITLE
 62
     7
100
AcDbText
 10
0.2639423705144838
 20
0.0847116480207214
 30
0.0
 40
0.08
  1
S-1803-SP.DWG
  7
L80
100
AcDbAttribute
  2
DWG-NAME
 70
     0
  0
ATTRIB
  5
B98
330
B8F
100
AcDbEntity
  8
TITLE
 62
     7
100
AcDbText
 10
1.231442370514484
 20
0.7005637793954894
 30
0.0
 40
0.1
  1
N.T.S.
  7
L100
100
AcDbAttribute
  2
SCALE
 70
     0
  0
SEQEND
  5
B90
330
B8F
100
AcDbEntity
  8
0
  0
TEXT
  5
B9D
330
B49
100
AcDbEntity
  8
INSTRUCT-OPTION
100
AcDbText
 10
10.34877158
 20
7.590933858688273
 30
0.0
 40
0.125
  1
CHOOSE A DIFFERENT SPRINKLER NOZZLE 
  7
ROMANS
100
AcDbText
  0
TEXT
  5
B9E
330
B49
100
AcDbEntity
  8
INSTRUCT-OPTION
100
AcDbText
 10
10.34877158
 20
5.236335529999999
 30
0.0
 40
0.125
  1

  7
ROMANS
100
AcDbText
  0
TEXT
  5
B9F
330
B49
100
AcDbEntity
  8
INSTRUCT-OPTION
100
AcDbText
 10
10.34877158
 20
4.88633553
 30
0.0
 40
0.125
  1

  7
ROMANS
100
AcDbText
  0
TEXT
  5
BA0
330
B49
100
AcDbEntity
  8
INSTRUCT-OPTION
100
AcDbText
 10
10.34877158
 20
3.631056208010924
 30
0.0
 40
0.125
  1
%%uNON-POTABLE CAP%%u
  7
ROMANS
100
AcDbText
  0
TEXT
  5
BA1
330
B49
100
AcDbEntity
  8
INSTRUCT-OPTION
100
AcDbText
 10
10.37589884993084
 20
2.392025345981964
 30
0.0
 40
0.125
  1
  OPTION-SA
  7
ROMANS
100
AcDbText
  0
TEXT
  5
BA2
330
B49
100
AcDbEntity
  8
INSTRUCT-OPTION
100
AcDbText
 10
10.34877158
 20
2.26133553
 30
0.0
 40
0.125
  1

  7
ROMANS
100
AcDbText
  0
TEXT
  5
BA6
330
B49
100
AcDbEntity
  8
INSTRUCT-OPTION
100
AcDbText
 10
10.34877158
 20
7.011701728671514
 30
0.0
 40
0.125
  1
%%uPLASTIC MPR NOZZLE%%u
  7
ROMANS
100
AcDbText
  0
TEXT
  5
BA7
330
B49
100
AcDbEntity
  8
INSTRUCT-OPTION
100
AcDbText
 10
10.34877158
 20
4.154801677441666
 30
0.0
 40
0.125
  1
%%uVANDAL-PROOF CAP%%u
  7
ROMANS
100
AcDbText
  0
TEXT
  5
BA8
330
B49
100
AcDbEntity
  8
INSTRUCT-OPTION
100
AcDbText
 10
10.34877158
 20
3.899707982124418
 30
0.0
 40
0.125
  1
  OPTION-VPC
  7
ROMANS
100
AcDbText
  0
TEXT
  5
BA9
330
B49
100
AcDbEntity
  8
INSTRUCT-OPTION
100
AcDbText
 10
10.34877158
 20
3.374707982124418
 30
0.0
 40
0.125
  1
  OPTION-NP
  7
ROMANS
100
AcDbText
  0
TEXT
  5
BAA
330
B49
100
AcDbEntity
  8
INSTRUCT-OPTION
100
AcDbText
 10
10.37589884993084
 20
2.217025345981964
 30
0.0
 40
0.125
  1
  %%uAND EITHER%%u TEXT-SA-LEADERS
  7
ROMANS
100
AcDbText
  0
TEXT
  5
BAB
330
B49
100
AcDbEntity
  8
INSTRUCT-OPTION
100
AcDbText
 10
10.37589884993084
 20
2.013262052006359
 30
0.0
 40
0.125
  1
  %%uOR%%u TEXT-SA-BUBBLES
  7
ROMANS
100
AcDbText
  0
TEXT
  5
BAC
330
B49
100
AcDbEntity
  8
INSTRUCT-OPTION
100
AcDbText
 10
10.37589884993084
 20
1.450012199886615
 30
0.0
 40
0.125
  1
  OPTION-RB-SA
  7
ROMANS
100
AcDbText
  0
TEXT
  5
BAD
330
B49
100
AcDbEntity
  8
INSTRUCT-OPTION
100
AcDbText
 10
10.37589884993084
 20
1.275012199886615
 30
0.0
 40
0.125
  1
  %%uAND EITHER%%u TEXT-RB-SA-LEADERS
  7
ROMANS
100
AcDbText
  0
TEXT
  5
BAE
330
B49
100
AcDbEntity
  8
INSTRUCT-OPTION
100
AcDbText
 10
10.37589884993084
 20
1.065963844850663
 30
0.0
 40
0.125
  1
  %%uOR%%u TEXT-RB-SA-BUBBLES
  7
ROMANS
100
AcDbText
  0
TEXT
  5
BB1
330
B49
100
AcDbEntity
  8
OPTION-VPC
100
AcDbText
 10
5.270515192927707
 20
4.869012569999999
 30
0.0
 40
0.125
  1
                WITH 1800 VPC 
  7
ROMANS
100
AcDbText
  0
LEADER
  5
BB6
330
B49
100
AcDbEntity
  8
TEXT-RB-SA-BUBBLES
100
AcDbLeader
  3
STANDARD
 76
     2
 10
2.95350082686308
 20
3.233993092449126
 30
0.0
 10
3.230157980347944
 20
3.515772210992603
 30
0.0
1001
ACAD
1000
DSTYLE
1002
{
1070
   147
1040
0.09
1070
    77
1070
     0
1002
}
  0
LEADER
  5
BB7
330
B49
100
AcDbEntity
  8
TEXT-RB-SA-BUBBLES
100
AcDbLeader
  3
STANDARD
 76
     2
 10
4.275802651965507
 20
2.745052343382196
 30
0.0
 10
4.404165282486267
 20
2.231128233567418
 30
0.0
1001
ACAD
1000
DSTYLE
1002
{
1070
   147
1040
0.09
1070
    77
1070
     0
1002
}
  0
LEADER
  5
BB8
330
B49
100
AcDbEntity
  8
TEXT-RB-SA-BUBBLES
100
AcDbLeader
  3
STANDARD
 76
     2
 10
2.211591046754761
 20
2.786124204075842
 30
0.0
 10
2.350072552293119
 20
2.231687261089541
 30
0.0
1001
ACAD
1000
DSTYLE
1002
{
1070
   147
1040
0.09
1070
    77
1070
     0
1002
}
  0
LEADER
  5
BB9
330
B49
100
AcDbEntity
  8
TEXT_BUBBLES
100
AcDbLeader
  3
STANDARD
 76
     2
 10
1.057972699677612
 20
5.125557739021218
 30
0.0
 10
0.7056218357290521
 20
5.221753166576401
 30
0.0
1001
ACAD
1000
DSTYLE
1002
{
1070
   147
1040
0.09
1070
    77
1070
     0
1002
}
  0
LEADER
  5
BBA
330
B49
100
AcDbEntity
  8
TEXT_BUBBLES
100
AcDbLeader
  3
STANDARD
 76
     2
 10
2.054407537523055
 20
4.226204116415699
 30
0.0
 10
0.7056218357290503
 20
4.594436553283896
 30
0.0
1001
ACAD
1000
DSTYLE
1002
{
1070
   147
1040
0.09
1070
    77
1070
     0
1002
}
  0
LEADER
  5
BC0
330
B49
100
AcDbEntity
  8
TEXT_LEADERS
100
AcDbLeader
  3
STANDARD
 76
     3
 10
2.466385322581992
 20
4.164268566977094
 30
0.0
 10
4.610156026853294
 20
5.123958482285751
 30
0.0
 10
5.228726257215903
 20
5.123958482285752
 30
0.0
1001
ACAD
1000
DSTYLE
1002
{
1070
   147
1040
0.09
1070
    77
1070
     0
1002
}
  0
LEADER
  5
BC1
330
B49
100
AcDbEntity
  8
TEXT_LEADERS
100
AcDbLeader
  3
STANDARD
 76
     3
 10
3.848463265340625
 20
5.125282198899219
 30
0.0
 10
4.610156026853294
 20
5.443224614963538
 30
0.0
 10
5.228726257215903
 20
5.443224614963537
 30
0.0
1001
ACAD
1000
DSTYLE
1002
{
1070
   147
1040
0.09
1070
    77
1070
     0
1002
}
  0
LEADER
  5
BC2
330
B49
100
AcDbEntity
  8
TEXT-RB-SA-LEADERS
100
AcDbLeader
  3
STANDARD
 76
     3
 10
3.166885758561322
 20
3.18994862830689
 30
0.0
 10
4.610156026853294
 20
3.666366490886437
 30
0.0
 10
5.228726257215903
 20
3.666366490886436
 30
0.0
1001
ACAD
1000
DSTYLE
1002
{
1070
   147
1040
0.09
1070
    77
1070
     0
1002
}
  0
LEADER
  5
BC3
330
B49
100
AcDbEntity
  8
TEXT-RB-SA-LEADERS
100
AcDbLeader
  3
STANDARD
 76
     3
 10
4.129547052405091
 20
2.746715179738442
 30
0.0
 10
4.610156026853294
 20
2.117930107751805
 30
0.0
 10
5.228726257215903
 20
2.117930107751805
 30
0.0
1001
ACAD
1000
DSTYLE
1002
{
1070
   147
1040
0.09
1070
    77
1070
     0
1002
}
  0
LEADER
  5
BC4
330
B49
100
AcDbEntity
  8
TEXT-RB-SA-LEADERS
100
AcDbLeader
  3
STANDARD
 76
     3
 10
3.338288015963095
 20
2.782437058368571
 30
0.0
 10
4.610156026853294
 20
1.616244151062717
 30
0.0
 10
5.228726257215903
 20
1.616244151062717
 30
0.0
1001
ACAD
1000
DSTYLE
1002
{
1070
   147
1040
0.09
1070
    77
1070
     0
1002
}
  0
LEADER
  5
BCB
330
B49
100
AcDbEntity
  8
TEXT-SA-LEADERS
100
AcDbLeader
  3
STANDARD
 76
     3
 10
2.344137870483161
 20
3.491944861147061
 30
0.0
 10
4.610156026853294
 20
4.412586707509044
 30
0.0
 10
5.228726257215903
 20
4.412586707509044
 30
0.0
1001
ACAD
1000
DSTYLE
1002
{
1070
   147
1040
0.09
1070
    77
1070
     0
1002
}
  0
LEADER
  5
BCC
330
B49
100
AcDbEntity
  8
TEXT-SA-LEADERS
100
AcDbLeader
  3
STANDARD
 76
     3
 10
3.371864387306353
 20
3.323187455563282
 30
0.0
 10
4.610156026853294
 20
3.745477605966239
 30
0.0
 10
5.228726257215903
 20
3.745477605966238
 30
0.0
1001
ACAD
1000
DSTYLE
1002
{
1070
   147
1040
0.09
1070
    77
1070
     0
1002
}
  0
LEADER
  5
BCD
330
B49
100
AcDbEntity
  8
TEXT-SA-LEADERS
100
AcDbLeader
  3
STANDARD
 76
     3
 10
4.263177333864207
 20
3.037302995385569
 30
0.0
 10
4.610156026853294
 20
3.140357416494841
 30
0.0
 10
5.228726257215903
 20
3.140357416494841
 30
0.0
1001
ACAD
1000
DSTYLE
1002
{
1070
   147
1040
0.09
1070
    77
1070
     0
1002
}
  0
LEADER
  5
BCE
330
B49
100
AcDbEntity
  8
TEXT-SA-LEADERS
100
AcDbLeader
  3
STANDARD
 76
     3
 10
4.135950320394777
 20
2.801641267908724
 30
0.0
 10
4.610156026853294
 20
2.346557955184125
 30
0.0
 10
5.228726257215903
 20
2.346557955184125
 30
0.0
1001
ACAD
1000
DSTYLE
1002
{
1070
   147
1040
0.09
1070
    77
1070
     0
1002
}
  0
LEADER
  5
BCF
330
B49
100
AcDbEntity
  8
TEXT-SA-LEADERS
100
AcDbLeader
  3
STANDARD
 76
     3
 10
3.325309237423391
 20
2.786124204075842
 30
0.0
 10
4.610156026853294
 20
1.610387669615824
 30
0.0
 10
5.228726257215903
 20
1.610387669615824
 30
0.0
1001
ACAD
1000
DSTYLE
1002
{
1070
   147
1040
0.09
1070
    77
1070
     0
1002
}
  0
TEXT
  5
C02
330
B49
100
AcDbEntity
  8
TEXT-SA-BUBBLES
100
AcDbText
 10
5.27051519
 20
4.51901257
 30
0.0
 40
0.125
  1

  7
SIMPLEX
100
AcDbText
  0
TEXT
  5
C03
330
B49
100
AcDbEntity
  8
TEXT-SA-BUBBLES
100
AcDbText
 10
5.27051519
 20
3.29401257
 30
0.0
 40
0.125
  1
SWING PIPE, 12-INCH LENGTH:
  7
ROMANS
100
AcDbText
  0
TEXT
  5
C04
330
B49
100
AcDbEntity
  8
TEXT-SA-BUBBLES
100
AcDbText
 10
5.27051519
 20
2.944012569999999
 30
0.0
 40
0.125
  1

  7
ROMANS
100
AcDbText
  0
LEADER
  5
C09
330
B49
100
AcDbEntity
  8
TEXT-SA-BUBBLES
100
AcDbLeader
  3
STANDARD
 76
     2
 10
4.394112474583939
 20
2.741365197674925
 30
0.0
 10
4.522360290959544
 20
2.227705317068662
 30
0.0
1001
ACAD
1000
DSTYLE
1002
{
1070
   147
1040
0.09
1070
    77
1070
     0
1002
}
  0
LEADER
  5
C0A
330
B49
100
AcDbEntity
  8
TEXT-SA-BUBBLES
100
AcDbLeader
  3
STANDARD
 76
     2
 10
4.029370071516099
 20
2.841626973126899
 30
0.0
 10
4.182579941994636
 20
2.228222230788081
 30
0.0
1001
ACAD
1000
DSTYLE
1002
{
1070
   147
1040
0.09
1070
    77
1070
     0
1002
}
  0
LEADER
  5
C0C
330
B49
100
AcDbEntity
  8
TEXT-SA-BUBBLES
100
AcDbLeader
  3
STANDARD
 76
     2
 10
2.896444996769629
 20
3.201555665068302
 30
0.0
 10
3.143275599752481
 20
2.229358509112322
 30
0.0
1001
ACAD
1000
DSTYLE
1002
{
1070
   147
1040
0.09
1070
    77
1070
     0
1002
}
  0
LEADER
  5
C0D
330
B49
100
AcDbEntity
  8
TEXT-SA-BUBBLES
100
AcDbLeader
  3
STANDARD
 76
     2
 10
2.521720745884989
 20
2.782437058368571
 30
0.0
 10
2.660087437278192
 20
2.228264344590785
 30
0.0
1001
ACAD
1000
DSTYLE
1002
{
1070
   147
1040
0.09
1070
    77
1070
     0
1002
}
  0
LEADER
  5
C0E
330
B49
100
AcDbEntity
  8
TEXT-SA-BUBBLES
100
AcDbLeader
  3
STANDARD
 76
     2
 10
2.177897139252457
 20
3.288269335402075
 30
0.0
 10
0.7070209395153056
 20
3.689833740066388
 30
0.0
1001
ACAD
1000
DSTYLE
1002
{
1070
   147
1040
0.09
1070
    77
1070
     0
1002
}
  0
TEXT
  5
C16
330
B49
100
AcDbEntity
  8
TEXT-RB-SA-BUBBLES
100
AcDbText
 10
5.27051519
 20
4.06074903
 30
0.0
 40
0.125
  1

  7
ROMANS
100
AcDbText
  0
TEXT
  5
C17
330
B49
100
AcDbEntity
  8
TEXT-SA-BUBBLES
100
AcDbText
 10
5.27051519
 20
3.64401257
 30
0.0
 40
0.125
  1
PVC LATERAL PIPE
  7
ROMANS
100
AcDbText
  0
TEXT
  5
C18
330
B49
100
AcDbEntity
  8
TEXT-SA-BUBBLES
100
AcDbText
 10
5.27051519
 20
3.11901257
 30
0.0
 40
0.125
  1
  RAIN BIRD MODEL SP-100
  7
ROMANS
100
AcDbText
  0
TEXT
  5
C19
330
B49
100
AcDbEntity
  8
TEXT-SA-BUBBLES
100
AcDbText
 10
5.27051519
 20
2.76901257
 30
0.0
 40
0.125
  1
PVC SCH 40 TEE OR ELL
  7
ROMANS
100
AcDbText
  0
TEXT
  5
C21
330
B49
100
AcDbEntity
  8
TEXT-RB-SA-BUBBLES
100
AcDbText
 10
5.27051519
 20
3.77748549
 30
0.0
 40
0.125
  1

  7
ROMANS
100
AcDbText
  0
TEXT
  5
C22
330
B49
100
AcDbEntity
  8
TEXT-RB-SA-BUBBLES
100
AcDbText
 10
5.27051519
 20
3.352590179999999
 30
0.0
 40
0.125
  1

  7
ROMANS
100
AcDbText
  0
TEXT
  5
C25
330
B49
100
AcDbEntity
  8
TEXT-RB-SA-BUBBLES
100
AcDbText
 10
5.27051519
 20
3.99401257
 30
0.0
 40
0.125
  1

  7
ROMANS
100
AcDbText
  0
TEXT
  5
C26
330
B49
100
AcDbEntity
  8
TEXT-RB-SA-BUBBLES
100
AcDbText
 10
5.27051519
 20
3.64401257
 30
0.0
 40
0.125
  1

  7
ROMANS
100
AcDbText
  0
TEXT
  5
C27
330
B49
100
AcDbEntity
  8
TEXT-RB-SA-BUBBLES
100
AcDbText
 10
5.27051519
 20
3.469012569999999
 30
0.0
 40
0.125
  1

  7
ROMANS
100
AcDbText
  0
TEXT
  5
C28
330
B49
100
AcDbEntity
  8
TEXT-RB-SA-BUBBLES
100
AcDbText
 10
5.27051519
 20
3.11901257
 30
0.0
 40
0.125
  1

  7
ROMANS
100
AcDbText
  0
TEXT
  5
C2C
330
B49
100
AcDbEntity
  8
TEXT_BUBBLES
100
AcDbText
 10
5.270515192927707
 20
5.044012569999999
 30
0.0
 40
0.125
  1
POP-UP SPRAY SPRINKLER:
  7
ROMANS
100
AcDbText
  0
TEXT
  5
C2E
330
B49
100
AcDbEntity
  8
TEXT-RB-SA-BUBBLES
100
AcDbText
 10
5.27051519
 20
3.819012569999999
 30
0.0
 40
0.125
  1
  RAIN BIRD MODEL SA 6050
  7
ROMANS
100
AcDbText
  0
TEXT
  5
C2F
330
B49
100
AcDbEntity
  8
TEXT-RB-SA-BUBBLES
100
AcDbText
 10
5.27051519
 20
3.29401257
 30
0.0
 40
0.125
  1

  7
ROMANS
100
AcDbText
  0
TEXT
  5
C32
330
B49
100
AcDbEntity
  8
TEXT-RB-SA-BUBBLES
100
AcDbText
 10
5.27051519
 20
4.34401257
 30
0.0
 40
0.125
  1
PVC LATERAL PIPE
  7
ROMANS
100
AcDbText
  0
TEXT
  5
C33
330
B49
100
AcDbEntity
  8
TEXT-RB-SA-BUBBLES
100
AcDbText
 10
5.27051519
 20
3.99401257
 30
0.0
 40
0.125
  1
SWING ASSEMBLY:
  7
ROMANS
100
AcDbText
  0
TEXT
  5
C34
330
B49
100
AcDbEntity
  8
TEXT-RB-SA-BUBBLES
100
AcDbText
 10
5.27051519
 20
3.469012569999999
 30
0.0
 40
0.125
  1
PVC SCH 40 TEE OR ELL
  7
ROMANS
100
AcDbText
  0
TEXT
  5
C36
330
B49
100
AcDbEntity
  8
TEXT-SA-BUBBLES
100
AcDbText
 10
5.27051519
 20
3.994012569999998
 30
0.0
 40
0.125
  1
  MODEL SBE-050
  7
SIMPLEX
100
AcDbText
  0
TEXT
  5
C5D
330
B49
100
AcDbEntity
  8
INSTRUCT-OPTION
100
AcDbText
 10
10.31968054819936
 20
3.123013681037812
 30
0.0
 40
0.1250000018625002
  1
SELECT THE DESIRED SWING ASSEMBLY BY
  7
ROMANS
100
AcDbText
  0
TEXT
  5
C5E
330
B49
100
AcDbEntity
  8
INSTRUCT-OPTION
100
AcDbText
 10
10.31968054819936
 20
2.9477406672611
 30
0.0
 40
0.1250000018625002
  1
TURNING ON THE APPROPRIATE LAYER:
  7
ROMANS
100
AcDbText
  0
LINE
  5
C75
330
B49
100
AcDbEntity
  8
INSTRUCT-OPTION
100
AcDbLine
 10
10.14362617914216
 20
7.812750413632013
 30
0.0
 11
15.71262165611377
 21
7.812750413632013
 31
0.0
  0
LINE
  5
C76
330
B49
100
AcDbEntity
  8
INSTRUCT-OPTION
100
AcDbLine
 10
15.71262165611377
 20
7.812750413632013
 30
0.0
 11
15.71262165611377
 21
0.7279140418273257
 31
0.0
  0
LINE
  5
C77
330
B49
100
AcDbEntity
  8
INSTRUCT-OPTION
100
AcDbLine
 10
15.71262165611377
 20
0.7279140418273258
 30
0.0
 11
10.14362617914216
 21
0.7279140418273258
 31
0.0
  0
LINE
  5
C78
330
B49
100
AcDbEntity
  8
INSTRUCT-OPTION
100
AcDbLine
 10
10.14362617914217
 20
0.7279140418273257
 30
0.0
 11
10.14362617914216
 21
7.812750413632013
 31
0.0
  0
TEXT
  5
C79
330
B49
100
AcDbEntity
  8
INSTRUCT-OPTION
100
AcDbText
 10
10.34877158
 20
4.631600257637385
 30
0.0
 40
0.125
  1
CHOOSE ONE OF THE FOLLOWING CAPS 
  7
ROMANS
100
AcDbText
  0
TEXT
  5
C7A
330
B49
100
AcDbEntity
  8
INSTRUCT-OPTION
100
AcDbText
 10
10.34877158
 20
4.456600257637385
 30
0.0
 40
0.125
  1
BY TURNING ON THE APPROPRIATE LAYER:
  7
ROMANS
100
AcDbText
  0
TEXT
  5
C84
330
B49
100
AcDbEntity
  8
INSTRUCT-OPTION
100
AcDbText
 10
10.34877158
 20
6.40607840296088
 30
0.0
 40
0.125
  1
%%uU-SERIES NOZZLE%%u
  7
ROMANS
100
AcDbText
  0
TEXT
  5
C86
330
B49
100
AcDbEntity
  8
INSTRUCT-OPTION
100
AcDbText
 10
10.34877158
 20
5.787569517040716
 30
0.0
 40
0.125
  1
%%uVAN NOZZLE%%u
  7
ROMANS
100
AcDbText
  0
TEXT
  5
CA3
330
B49
100
AcDbEntity
  8
OPTION-NOZ-ROTARY
100
AcDbText
 10
5.270515192927707
 20
4.694012569999999
 30
0.0
 40
0.125
  1
  WITH RAIN BIRD ROTARY NOZZLE
  7
ROMANS
100
AcDbText
  0
TEXT
  5
CA4
330
B49
100
AcDbEntity
  8
INSTRUCT-OPTION
100
AcDbText
 10
10.34877158
 20
5.204583033896827
 30
0.0
 40
0.125
  1
%%uROTARY NOZZLE%%u
  7
ROMANS
100
AcDbText
  0
TEXT
  5
CA5
330
B49
100
AcDbEntity
  8
INSTRUCT-OPTION
100
AcDbText
 10
10.34877158
 20
4.99692563182124
 30
0.0
 40
0.125
  1
  OPTION-NOZ-ROTARY
  7
ROMANS
100
AcDbText
  0
ENDSEC
  0
SECTION
  2
OBJECTS
  0
DICTIONARY
  5
B37
330
0
100
AcDbDictionary
281
     1
  3
ACAD_GROUP
350
B38
  3
ACAD_LAYOUT
350
B44
  3
ACAD_MLINESTYLE
350
B41
  3
ACAD_PLOTSETTINGS
350
B43
  3
ACAD_PLOTSTYLENAME
350
B39
  3
AcadDim
350
BB5
  3
AcDbVariableDictionary
350
B71
  0
DICTIONARY
  5
C3F
330
B2D
100
AcDbDictionary
280
     1
281
     1
  3
ACAD_LAYERFILTERS
360
C85
  3
ACAD_LAYERSTATES
360
C40
  0
DICTIONARY
  5
B38
102
{ACAD_REACTORS
330
B37
102
}
330
B37
100
AcDbDictionary
281
     1
  0
DICTIONARY
  5
B44
102
{ACAD_REACTORS
330
B37
102
}
330
B37
100
AcDbDictionary
281
     1
  3
Layout1
350
B48
  3
Model
350
B4C
  0
DICTIONARY
  5
B41
102
{ACAD_REACTORS
330
B37
102
}
330
B37
100
AcDbDictionary
281
     1
  3
Standard
350
B42
  0
DICTIONARY
  5
B43
102
{ACAD_REACTORS
330
B37
102
}
330
B37
100
AcDbDictionary
281
     1
  3
1055 B&W Full Shaded Draft
350
BD5
  3
1055 B&W Full Shaded Final
350
BD6
  3
1055 Color Full Shaded Draft
350
BD7
  3
1055 Color Full Shaded Final
350
BD8
  3
1055 PLUS B&W Full Shaded Draft
350
BD9
  3
1055 PLUS B&W Full Shaded Final
350
BDA
  3
1055 PLUS Color Full Shaded Draft
350
BDB
  3
1055 PLUS Color Full Shaded Final
350
BDC
  3
1055-B&W-Shaded-Draft
350
BDD
  3
1055-B&W-Shaded-Final
350
BDE
  3
1055-Color-Shaded-Draft
350
BDF
  3
1055-Color-Shaded-Final
350
BE0
  3
1055-PLUS-B&W-Shaded-Draft
350
BE1
  3
1055-PLUS-B&W-Shaded-Final
350
BE2
  3
1055-PLUS-Color-Shaded-Draft
350
BE3
  3
1055-PLUS-Color-Shaded-Final
350
BE4
  3
2200 Color Inkjet
350
BE5
  3
2200-Color-Inkjet
350
BE6
  3
24x36 PDF
350
BE7
  3
8500 B&W Shaded 11x17
350
BE8
  3
8500 B&W Shaded 8.5x11
350
BE9
  3
8500 Color Shaded 11x17
350
BEA
  3
8500 Color Shaded 8.5x11
350
BEB
  3
8500-B&W-Shaded-11x17
350
BEC
  3
8500-B&W-Shaded-8.5x11
350
BED
  3
8500-Color-Shaded-11x17
350
BEE
  3
8500-Color-Shaded-8.5x11
350
BEF
  3
Laser Jet 5 Shaded 11x17
350
BF0
  3
Laser Jet 5 Shaded 8.5x11
350
BF1
  3
LaserJet5-Shaded-11x17
350
BF2
  3
LaserJet5-Shaded-8.5x11
350
BF3
  3
Oki Doki B&W Shaded 11x17
350
BF4
  3
Oki Doki B&W Shaded 8.5x11
350
BF5
  3
Oki Doki Color Laser
350
BF6
  3
Oki Doki Color Shaded 11x17
350
BF7
  3
Oki Doki Color Shaded 8.5x11
350
BF8
  3
Oki-Doki-B&W-Shaded-11x17
350
BF9
  3
Oki-Doki-B&W-Shaded-8.5x11
350
BFA
  3
Oki-Doki-Color-Laser
350
BFB
  3
Oki-Doki-Color-Shaded-11x17
350
BFC
  3
Oki-Doki-Color-Shaded-8.5x11
350
BFD
  0
ACDBDICTIONARYWDFLT
  5
B39
102
{ACAD_REACTORS
330
B37
102
}
330
B37
100
AcDbDictionary
281
     1
  3
Normal
350
B3A
100
AcDbDictionaryWithDefault
340
B3A
  0
XRECORD
  5
BB5
102
{ACAD_REACTORS
330
B37
102
}
330
B37
100
AcDbXrecord
280
     1
 90
   990106
  3

 60
     4
 61
     0
 62
     1
 63
     3
 64
     0
 65
     0
 66
     0
 67
     3
 68
     1
 69
     0
 70
     0
 71
     0
 72
     0
 40
0.0
170
     0
  0
DICTIONARY
  5
B71
102
{ACAD_REACTORS
330
B37
102
}
330
B37
100
AcDbDictionary
281
     1
  3
DIMASSOC
350
B74
  3
HIDETEXT
350
B73
  3
SORTENTS
350
B72
  0
DICTIONARY
  5
C85
102
{ACAD_REACTORS
330
C3F
102
}
330
C3F
100
AcDbDictionary
280
     1
281
     1
  0
DICTIONARY
  5
C40
102
{ACAD_REACTORS
330
C3F
102
}
330
C3F
100
AcDbDictionary
281
     1
  0
LAYOUT
  5
B48
102
{ACAD_REACTORS
330
B44
102
}
330
B44
100
AcDbPlotSettings
  1

  2
S:\AutoCAD 2002\Plotters\1055B&WDraftShaded.pc3
  4

  6

 40
0.0
 41
0.0
 42
0.0
 43
0.0
 44
0.0
 45
0.0
 46
0.0
 47
0.0
 48
0.0
 49
0.0
140
0.0
141
0.0
142
1.0
143
1.0
 70
   688
 72
     0
 73
     0
 74
     5
  7
TRexLJ5Shaded2.ctb
 75
    16
147
1.0
148
0.0
149
0.0
100
AcDbLayout
  1
Layout1
 70
     1
 71
     1
 10
0.0
 20
0.0
 11
12.0
 21
9.0
 12
0.0
 22
0.0
 32
0.0
 14
1.000000000000000E+20
 24
1.000000000000000E+20
 34
1.000000000000000E+20
 15
-1.000000000000000E+20
 25
-1.000000000000000E+20
 35
-1.000000000000000E+20
146
0.0
 13
0.0
 23
0.0
 33
0.0
 16
1.0
 26
0.0
 36
0.0
 17
0.0
 27
1.0
 37
0.0
 76
     0
330
B45
  0
LAYOUT
  5
B4C
102
{ACAD_REACTORS
330
B44
102
}
330
B44
100
AcDbPlotSettings
  1

  2
OKI DOKI Color Laser.pc3
  4
Tabloid
  6
ps1
 40
5.027083396911621
 41
5.027085304260253
 42
5.027099609375
 43
5.027069091796875
 44
279.3999938964843
 45
431.7999877929687
 46
1.27
 47
0.0
 48
0.0
 49
0.0000000000000001
140
16.48999999999999
141
10.44
142
1.0
143
0.9931242156595709
 70
 11956
 72
     0
 73
     1
 74
     3
  7
OKIColorShaded.ctb
 75
     0
147
1.006923388063659
148
0.0000000000000115
149
0.0
100
AcDbLayout
  1
Model
 70
     1
 71
     0
 10
0.0
 20
0.0
 11
12.0
 21
9.0
 12
0.0
 22
0.0
 32
0.0
 14
0.0
 24
0.0
 34
0.0
 15
0.0
 25
0.0
 35
0.0
146
0.0
 13
0.0
 23
0.0
 33
0.0
 16
1.0
 26
0.0
 36
0.0
 17
0.0
 27
1.0
 37
0.0
 76
     0
330
B49
  0
MLINESTYLE
  5
B42
102
{ACAD_REACTORS
330
B41
102
}
330
B41
100
AcDbMlineStyle
  2
STANDARD
 70
     0
  3

 62
   256
 51
90.0
 52
90.0
 71
     2
 49
0.5
 62
   256
  6
BYLAYER
 49
-0.5
 62
   256
  6
BYLAYER
  0
PLOTSETTINGS
  5
BD5
102
{ACAD_REACTORS
330
B43
102
}
330
B43
100
AcDbPlotSettings
  1
1055 B&W Full Shaded Draft
  2
1055B&WDraftShaded.pc3
  4
User607
  6
ps1
 40
0.0
 41
0.0
 42
0.0
 43
0.0
 44
901.7000122070312
 45
1155.700073242187
 46
0.0
 47
0.0
 48
180377.877572
 49
80019.819395
140
180380.8390819999
141
80022.26069
142
1.0
143
1.0
 70
   688
 72
     0
 73
     2
 74
     3
  7
1055B&WFullDraftShaded.ctb
 75
    16
147
1.0
148
-4581603.303200401
149
-2032962.095032944
  0
PLOTSETTINGS
  5
BD6
102
{ACAD_REACTORS
330
B43
102
}
330
B43
100
AcDbPlotSettings
  1
1055 B&W Full Shaded Final
  2
1055B&WFinalShaded.pc3
  4
User257
  6
PS1
 40
4.995333194732666
 41
8.297271728515625
 42
4.99530029296875
 43
8.29736328125
 44
911.6906738281249
 45
1172.294677734375
 46
0.0
 47
0.0
 48
180377.877572
 49
80019.819395
140
180380.8390819999
141
80022.26069
142
1.0
143
1.0
 70
   688
 72
     0
 73
     3
 74
     3
  7
1055B&WFullFinalShaded.ctb
 75
    16
147
1.0
148
-4581603.303200401
149
-2032962.095032944
  0
PLOTSETTINGS
  5
BD7
102
{ACAD_REACTORS
330
B43
102
}
330
B43
100
AcDbPlotSettings
  1
1055 Color Full Shaded Draft
  2
1055ColorDraftShaded.pc3
  4
User607
  6
PS1
 40
0.0
 41
0.0
 42
0.0
 43
0.0
 44
901.7000122070312
 45
1155.700073242187
 46
0.0
 47
0.0
 48
180377.877572
 49
80019.819395
140
180380.8390819999
141
80022.26069
142
1.0
143
1.0
 70
   688
 72
     0
 73
     2
 74
     3
  7
1055ColorFullDraftShaded.ctb
 75
    16
147
1.0
148
-4581603.303200401
149
-2032962.095032944
  0
PLOTSETTINGS
  5
BD8
102
{ACAD_REACTORS
330
B43
102
}
330
B43
100
AcDbPlotSettings
  1
1055 Color Full Shaded Final
  2
1055ColorFinalShaded.pc3
  4
User607
  6
PS1
 40
0.0
 41
0.0
 42
0.0
 43
0.0
 44
901.7000122070312
 45
1155.700073242187
 46
0.0
 47
0.0
 48
180377.877572
 49
80019.819395
140
180380.8390819999
141
80022.26069
142
1.0
143
1.0
 70
   688
 72
     0
 73
     2
 74
     3
  7
1055ColorFullFinalShaded.ctb
 75
    16
147
1.0
148
-4581603.303200401
149
-2032962.095032944
  0
PLOTSETTINGS
  5
BD9
102
{ACAD_REACTORS
330
B43
102
}
330
B43
100
AcDbPlotSettings
  1
1055 PLUS B&W Full Shaded Draft
  2
1055_PLUS_B&WDraftShaded.pc3
  4
User257
  6
ps1
 40
4.995333194732666
 41
8.297393798828125
 42
4.99530029296875
 43
8.29736328125
 44
901.6152954101562
 45
1155.615356445312
 46
0.0
 47
0.0
 48
180377.877572
 49
80019.819395
140
180380.8390819999
141
80022.26069
142
1.0
143
1.0
 70
   688
 72
     0
 73
     3
 74
     5
  7
1055B&WFullDraftShaded.ctb
 75
    16
147
1.0
148
-4581603.303200401
149
-2032962.095032944
  0
PLOTSETTINGS
  5
BDA
102
{ACAD_REACTORS
330
B43
102
}
330
B43
100
AcDbPlotSettings
  1
1055 PLUS B&W Full Shaded Final
  2
1055_PLUS_B&WFinalShaded.pc3
  4
User257
  6
PS1
 40
4.995333194732666
 41
8.297271728515625
 42
4.99530029296875
 43
8.29736328125
 44
901.6576538085937
 45
1155.657592773437
 46
0.0
 47
0.0
 48
180377.877572
 49
80019.819395
140
180380.8390819999
141
80022.26069
142
1.0
143
1.0
 70
   688
 72
     0
 73
     3
 74
     5
  7
1055B&WFullFinalShaded.ctb
 75
    16
147
1.0
148
-4581603.303200401
149
-2032962.095032944
  0
PLOTSETTINGS
  5
BDB
102
{ACAD_REACTORS
330
B43
102
}
330
B43
100
AcDbPlotSettings
  1
1055 PLUS Color Full Shaded Draft
  2
1055_PLUS_ColorDraftShaded.pc3
  4
User257
  6
PS1
 40
4.995333194732666
 41
8.297393798828125
 42
4.99530029296875
 43
8.29736328125
 44
901.6152954101562
 45
1155.615356445312
 46
0.0
 47
0.0
 48
180377.877572
 49
80019.819395
140
180380.8390819999
141
80022.26069
142
1.0
143
1.0
 70
   688
 72
     0
 73
     3
 74
     5
  7
1055ColorFullDraftShaded.ctb
 75
    16
147
1.0
148
-4581603.303200401
149
-2032962.095032944
  0
PLOTSETTINGS
  5
BDC
102
{ACAD_REACTORS
330
B43
102
}
330
B43
100
AcDbPlotSettings
  1
1055 PLUS Color Full Shaded Final
  2
1055_PLUS_ColorFinalShaded.pc3
  4
User257
  6
PS1
 40
4.995333194732666
 41
8.297271728515625
 42
4.99530029296875
 43
8.29736328125
 44
901.6576538085937
 45
1155.657592773437
 46
0.0
 47
0.0
 48
180377.877572
 49
80019.819395
140
180380.8390819999
141
80022.26069
142
1.0
143
1.0
 70
   688
 72
     0
 73
     3
 74
     5
  7
1055ColorFullFinalShaded.ctb
 75
    16
147
1.0
148
-4581603.303200401
149
-2032962.095032944
  0
PLOTSETTINGS
  5
BDD
102
{ACAD_REACTORS
330
B43
102
}
330
B43
100
AcDbPlotSettings
  1
1055-B&W-Shaded-Draft
  2
1055B&WDraftShaded.pc3
  4
User257
  6

 40
4.995333194732666
 41
8.297393798828125
 42
4.99530029296875
 43
8.29736328125
 44
901.6152954101562
 45
1155.615356445312
 46
0.0
 47
0.0
 48
180360.0524337165
 49
80033.77936194791
140
180369.1574725906
141
80037.61796031875
142
1.0
143
30.0
 70
  1696
 72
     0
 73
     1
 74
     1
  7
1055B&WFullDraftShaded.ctb
 75
     0
147
0.0333333333333333
148
-190.0773302744904
149
-129.2444057835751
  0
PLOTSETTINGS
  5
BDE
102
{ACAD_REACTORS
330
B43
102
}
330
B43
100
AcDbPlotSettings
  1
1055-B&W-Shaded-Final
  2
1055B&WFinalShaded.pc3
  4
User607
  6

 40
0.0
 41
0.0
 42
0.0
 43
0.0
 44
901.7000122070312
 45
1155.700073242187
 46
0.0
 47
0.0
 48
180360.0524337165
 49
80033.77936194791
140
180369.1574725906
141
80037.61796031875
142
1.0
143
30.0
 70
  1696
 72
     0
 73
     1
 74
     1
  7
1055B&WFullFinalShaded.ctb
 75
     0
147
0.0333333333333333
148
-190.0773302744904
149
-129.2444057835751
  0
PLOTSETTINGS
  5
BDF
102
{ACAD_REACTORS
330
B43
102
}
330
B43
100
AcDbPlotSettings
  1
1055-Color-Shaded-Draft
  2
1055ColorDraftShaded.pc3
  4
User257
  6

 40
4.995333194732666
 41
8.297393798828125
 42
4.99530029296875
 43
8.29736328125
 44
901.6152954101562
 45
1155.615356445312
 46
0.0
 47
0.0
 48
180360.0524337165
 49
80033.77936194791
140
180369.1574725906
141
80037.61796031875
142
1.0
143
30.0
 70
  1696
 72
     0
 73
     1
 74
     1
  7
1055ColorFullDraftShaded.ctb
 75
     0
147
0.0333333333333333
148
-190.0773302744904
149
-129.2444057835751
  0
PLOTSETTINGS
  5
BE0
102
{ACAD_REACTORS
330
B43
102
}
330
B43
100
AcDbPlotSettings
  1
1055-Color-Shaded-Final
  2
1055ColorDraftShaded.pc3
  4
User257
  6

 40
4.995333194732666
 41
8.297393798828125
 42
4.99530029296875
 43
8.29736328125
 44
901.6152954101562
 45
1155.615356445312
 46
0.0
 47
0.0
 48
180360.0524337165
 49
80033.77936194791
140
180369.1574725906
141
80037.61796031875
142
1.0
143
30.0
 70
  1696
 72
     0
 73
     1
 74
     1
  7
1055ColorFullFinalShaded.ctb
 75
     0
147
0.0333333333333333
148
-190.0773302744904
149
-129.2444057835751
  0
PLOTSETTINGS
  5
BE1
102
{ACAD_REACTORS
330
B43
102
}
330
B43
100
AcDbPlotSettings
  1
1055-PLUS-B&W-Shaded-Draft
  2
1055_PLUS_B&WDraftShaded.pc3
  4
User257
  6

 40
4.995333194732666
 41
8.297393798828125
 42
4.99530029296875
 43
8.29736328125
 44
901.6152954101562
 45
1155.615356445312
 46
0.0
 47
0.0
 48
180360.0524337165
 49
80033.77936194791
140
180369.1574725906
141
80037.61796031875
142
1.0
143
30.0
 70
  1696
 72
     0
 73
     1
 74
     0
  7
1055B&WFullDraftShaded.ctb
 75
     0
147
0.0333333333333333
148
0.9506237099442845
149
8.593888772447144
  0
PLOTSETTINGS
  5
BE2
102
{ACAD_REACTORS
330
B43
102
}
330
B43
100
AcDbPlotSettings
  1
1055-PLUS-B&W-Shaded-Final
  2
1055_PLUS_B&WFinalShaded.pc3
  4
User257
  6

 40
4.995333194732666
 41
8.297271728515625
 42
4.99530029296875
 43
8.29736328125
 44
901.6576538085937
 45
1155.657592773437
 46
0.0
 47
0.0
 48
180360.0524337165
 49
80033.77936194791
140
180369.1574725906
141
80037.61796031875
142
1.0
143
30.0
 70
  1696
 72
     0
 73
     1
 74
     0
  7
1055B&WFullFinalShaded.ctb
 75
     0
147
0.0333333333333333
148
0.9506237099442845
149
8.593888772447144
  0
PLOTSETTINGS
  5
BE3
102
{ACAD_REACTORS
330
B43
102
}
330
B43
100
AcDbPlotSettings
  1
1055-PLUS-Color-Shaded-Draft
  2
1055_PLUS_ColorDraftShaded.pc3
  4
User257
  6

 40
4.995333194732666
 41
8.297393798828125
 42
4.99530029296875
 43
8.29736328125
 44
901.6152954101562
 45
1155.615356445312
 46
0.0
 47
0.0
 48
180360.0524337165
 49
80033.77936194791
140
180369.1574725906
141
80037.61796031875
142
1.0
143
30.0
 70
  1696
 72
     0
 73
     1
 74
     0
  7
1055ColorFullDraftShaded.ctb
 75
     0
147
0.0333333333333333
148
0.9506237099442845
149
8.593888772447144
  0
PLOTSETTINGS
  5
BE4
102
{ACAD_REACTORS
330
B43
102
}
330
B43
100
AcDbPlotSettings
  1
1055-PLUS-Color-Shaded-Final
  2
1055_PLUS_ColorFinalShaded.pc3
  4
User257
  6

 40
4.995333194732666
 41
8.297271728515625
 42
4.99530029296875
 43
8.29736328125
 44
901.6576538085937
 45
1155.657592773437
 46
0.0
 47
0.0
 48
180360.0524337165
 49
80033.77936194791
140
180369.1574725906
141
80037.61796031875
142
1.0
143
30.0
 70
  1696
 72
     0
 73
     1
 74
     0
  7
1055ColorFullFinalShaded.ctb
 75
     0
147
0.0333333333333333
148
0.9506237099442845
149
8.593888772447144
  0
PLOTSETTINGS
  5
BE5
102
{ACAD_REACTORS
330
B43
102
}
330
B43
100
AcDbPlotSettings
  1
2200 Color Inkjet
  2
HP  2200 Color Inkjet.pc3
  4
Letter
  6
PS1
 40
7.143749713897705
 41
12.47775650024414
 42
7.14373779296875
 43
3.17498779296875
 44
215.8999938964843
 45
279.3999938964843
 46
0.0
 47
0.0
 48
180377.877572
 49
80019.819395
140
180380.8390819999
141
80022.26069
142
1.0
143
0.3486331030131726
 70
   688
 72
     0
 73
     1
 74
     3
  7
Color.ctb
 75
     0
147
2.868344948764708
148
-4581603.303200401
149
-2032962.095032944
  0
PLOTSETTINGS
  5
BE6
102
{ACAD_REACTORS
330
B43
102
}
330
B43
100
AcDbPlotSettings
  1
2200-Color-Inkjet
  2
HP  2200 Color Inkjet.pc3
  4
Letter
  6

 40
7.143749713897705
 41
12.47775650024414
 42
7.14373779296875
 43
3.17498779296875
 44
215.8999938964843
 45
279.3999938964843
 46
0.0
 47
0.0
 48
180360.0524337165
 49
80033.77936194791
140
180369.1574725906
141
80037.61796031875
142
1.0
143
0.069393053089765
 70
  1712
 72
     0
 73
     1
 74
     1
  7
Color.ctb
 75
     0
147
14.41066440334347
148
-190.0773302744904
149
-129.2444057835751
  0
PLOTSETTINGS
  5
BE7
102
{ACAD_REACTORS
330
B43
102
}
330
B43
100
AcDbPlotSettings
  1
24x36 PDF
  2
Bluebeam PDF Printer.pc3
  4
User128
  6
PS1
 40
3.174999952316284
 41
3.174999952316284
 42
3.17498779296875
 43
3.17498779296875
 44
609.5999755859375
 45
914.3999633789062
 46
270.5099999999999
 47
416.3059999999999
 48
180377.877572
 49
80019.819395
140
180380.8390819999
141
80022.26069
142
1.0
143
1.0
 70
   692
 72
     0
 73
     1
 74
     4
  7
1055B&WFullDraftShaded.ctb
 75
    16
147
1.0
148
-4581598.0903288
149
-2032503.412632999
  0
PLOTSETTINGS
  5
BE8
102
{ACAD_REACTORS
330
B43
102
}
330
B43
100
AcDbPlotSettings
  1
8500 B&W Shaded 11x17
  2
8500B&WShaded.pc3
  4
11x17
  6
PS1
 40
5.027083396911621
 41
5.027085304260253
 42
5.027099609375
 43
5.027069091796875
 44
279.3999938964843
 45
431.7999877929687
 46
0.0
 47
92.964
 48
180377.877572
 49
80019.819395
140
180380.8390819999
141
80022.26069
142
1.0
143
0.0116192543742624
 70
   692
 72
     0
 73
     1
 74
     3
  7
8500B&WShaded.ctb
 75
     0
147
86.06404230335863
148
-4581651.879813895
149
-2032998.63613423
  0
PLOTSETTINGS
  5
BE9
102
{ACAD_REACTORS
330
B43
102
}
330
B43
100
AcDbPlotSettings
  1
8500 B&W Shaded 8.5x11
  2
8500B&WShaded.pc3
  4
Letter
  6
PS1
 40
5.027083396911621
 41
5.027085304260253
 42
5.027084350585937
 43
5.027069091796875
 44
215.8999938964843
 45
279.3999938964843
 46
0.0
 47
44.44999999999999
 48
180377.877572
 49
80019.819395
140
180380.8390819999
141
80022.26069
142
1.0
143
0.0152035994604527
 70
   692
 72
     0
 73
     1
 74
     3
  7
8500B&WShaded.ctb
 75
     0
147
65.77389799048455
148
-4581651.879813895
149
-2032998.63613423
  0
PLOTSETTINGS
  5
BEA
102
{ACAD_REACTORS
330
B43
102
}
330
B43
100
AcDbPlotSettings
  1
8500 Color Shaded 11x17
  2
8500ColorShaded.pc3
  4
11x17
  6
PS1
 40
5.027083396911621
 41
5.027085304260253
 42
5.027099609375
 43
5.027069091796875
 44
279.3999938964843
 45
431.7999877929687
 46
0.0
 47
92.964
 48
180377.877572
 49
80019.819395
140
180380.8390819999
141
80022.26069
142
1.0
143
0.0116192543742624
 70
   692
 72
     0
 73
     1
 74
     3
  7
8500ColorShaded.ctb
 75
     0
147
86.06404230335863
148
-4581651.879813895
149
-2032998.63613423
  0
PLOTSETTINGS
  5
BEB
102
{ACAD_REACTORS
330
B43
102
}
330
B43
100
AcDbPlotSettings
  1
8500 Color Shaded 8.5x11
  2
8500ColorShaded.pc3
  4
Letter
  6
PS1
 40
5.027083396911621
 41
5.027085304260253
 42
5.027084350585937
 43
5.027069091796875
 44
215.8999938964843
 45
279.3999938964843
 46
0.0
 47
44.44999999999999
 48
180377.877572
 49
80019.819395
140
180380.8390819999
141
80022.26069
142
1.0
143
0.0152035994604527
 70
   692
 72
     0
 73
     1
 74
     3
  7
8500ColorShaded.ctb
 75
     0
147
65.77389799048455
148
-4581651.879813895
149
-2032998.63613423
  0
PLOTSETTINGS
  5
BEC
102
{ACAD_REACTORS
330
B43
102
}
330
B43
100
AcDbPlotSettings
  1
8500-B&W-Shaded-11x17
  2
8500B&WShaded.pc3
  4
11x17
  6

 40
5.027083396911621
 41
5.027085304260253
 42
5.027099609375
 43
5.027069091796875
 44
279.3999938964843
 45
431.7999877929687
 46
0.0
 47
0.0
 48
180360.0524337165
 49
80033.77936194791
140
180369.1574725906
141
80037.61796031875
142
1.0
143
0.0519425466957002
 70
  1712
 72
     0
 73
     1
 74
     1
  7
8500B&WShaded.ctb
 75
     0
147
19.252040256293
148
-190.0773302744904
149
-129.2444057835751
  0
PLOTSETTINGS
  5
BED
102
{ACAD_REACTORS
330
B43
102
}
330
B43
100
AcDbPlotSettings
  1
8500-B&W-Shaded-8.5x11
  2
8500B&WShaded.pc3
  4
Letter
  6

 40
5.027083396911621
 41
5.027085304260253
 42
5.027084350585937
 43
5.027069091796875
 44
215.8999938964843
 45
279.3999938964843
 46
0.0
 47
0.0
 48
180360.0524337165
 49
80033.77936194791
140
180369.1574725906
141
80037.61796031875
142
1.0
143
0.0679659511256221
 70
  1712
 72
     0
 73
     1
 74
     1
  7
8500B&WShaded.ctb
 75
     0
147
14.71324955273106
148
-190.0773302744904
149
-129.2444057835751
  0
PLOTSETTINGS
  5
BEE
102
{ACAD_REACTORS
330
B43
102
}
330
B43
100
AcDbPlotSettings
  1
8500-Color-Shaded-11x17
  2
8500ColorShaded.pc3
  4
11x17
  6

 40
5.027083396911621
 41
5.027085304260253
 42
5.027099609375
 43
5.027069091796875
 44
279.3999938964843
 45
431.7999877929687
 46
0.0
 47
0.0
 48
180360.0524337165
 49
80033.77936194791
140
180369.1574725906
141
80037.61796031875
142
1.0
143
0.0519425466957002
 70
  1712
 72
     0
 73
     1
 74
     1
  7
8500ColorShaded.ctb
 75
     0
147
19.252040256293
148
-190.0773302744904
149
-129.2444057835751
  0
PLOTSETTINGS
  5
BEF
102
{ACAD_REACTORS
330
B43
102
}
330
B43
100
AcDbPlotSettings
  1
8500-Color-Shaded-8.5x11
  2
8500ColorShaded.pc3
  4
Letter
  6

 40
5.027083396911621
 41
5.027085304260253
 42
5.027084350585937
 43
5.027069091796875
 44
215.8999938964843
 45
279.3999938964843
 46
0.0
 47
0.0
 48
180360.0524337165
 49
80033.77936194791
140
180369.1574725906
141
80037.61796031875
142
1.0
143
0.0679659511256221
 70
  1712
 72
     0
 73
     1
 74
     1
  7
8500ColorShaded.ctb
 75
     0
147
14.71324955273106
148
-190.0773302744904
149
-129.2444057835751
  0
PLOTSETTINGS
  5
BF0
102
{ACAD_REACTORS
330
B43
102
}
330
B43
100
AcDbPlotSettings
  1
Laser Jet 5 Shaded 11x17
  2
LaserJet5Shaded.pc3
  4
11x17
  6
PS1
 40
7.143749713897705
 41
5.873736858367919
 42
7.143768310546875
 43
7.14373779296875
 44
279.3999938964843
 45
431.7999877929687
 46
0.0
 47
29.71799999999999
 48
180377.877572
 49
80019.819395
140
180380.8390819999
141
80022.26069
142
1.0
143
0.2557442899420743
 70
   692
 72
     0
 73
     1
 74
     3
  7
LaserJet5Shaded.ctb
 75
     0
147
3.910155727138614
148
-4581603.303200401
149
-2032962.095032944
  0
PLOTSETTINGS
  5
BF1
102
{ACAD_REACTORS
330
B43
102
}
330
B43
100
AcDbPlotSettings
  1
Laser Jet 5 Shaded 8.5x11
  2
LaserJet5Shaded.pc3
  4
Letter
  6
PS1
 40
7.143749713897705
 41
6.974400997161865
 42
7.14373779296875
 43
6.297088623046875
 44
215.8999938964843
 45
279.3999938964843
 46
2.794
 47
0.0
 48
180377.877572
 49
80019.819395
140
180380.8390819999
141
80022.26069
142
1.0
143
0.345513616778612
 70
   692
 72
     0
 73
     1
 74
     3
  7
LaserJet5Shaded.ctb
 75
     0
147
2.894241938489939
148
-4581603.303200401
149
-2032962.095032944
  0
PLOTSETTINGS
  5
BF2
102
{ACAD_REACTORS
330
B43
102
}
330
B43
100
AcDbPlotSettings
  1
LaserJet5-Shaded-11x17
  2
LaserJet5Shaded.pc3
  4
11x17
  6

 40
7.143749713897705
 41
5.873736858367919
 42
7.143768310546875
 43
7.14373779296875
 44
279.3999938964843
 45
431.7999877929687
 46
0.0
 47
0.0
 48
180360.0524337165
 49
80033.77936194791
140
180369.1574725906
141
80037.61796031875
142
1.0
143
0.0527719690046124
 70
  1712
 72
     0
 73
     1
 74
     1
  7
LaserJet5Shaded.ctb
 75
     0
147
18.9494540162524
148
-190.0773302744904
149
-129.2444057835751
  0
PLOTSETTINGS
  5
BF3
102
{ACAD_REACTORS
330
B43
102
}
330
B43
100
AcDbPlotSettings
  1
LaserJet5-Shaded-8.5x11
  2
LaserJet5Shaded.pc3
  4
Letter
  6

 40
7.143749713897705
 41
6.974400997161865
 42
7.14373779296875
 43
6.297088623046875
 44
215.8999938964843
 45
279.3999938964843
 46
0.0
 47
0.0
 48
180360.0524337165
 49
80033.77936194791
140
180369.1574725906
141
80037.61796031875
142
1.0
143
0.069393053089765
 70
  1712
 72
     0
 73
     1
 74
     1
  7
LaserJet5Shaded.ctb
 75
     0
147
14.41066440334347
148
-190.0773302744904
149
-129.2444057835751
  0
PLOTSETTINGS
  5
BF4
102
{ACAD_REACTORS
330
B43
102
}
330
B43
100
AcDbPlotSettings
  1
Oki Doki B&W Shaded 11x17
  2
OKI DOKI Color Laser.pc3
  4
Tabloid
  6
PS1
 40
5.027083396911621
 41
5.027085304260253
 42
5.027099609375
 43
5.027069091796875
 44
279.3999938964843
 45
431.7999877929687
 46
0.0
 47
47.49799999999999
 48
180377.877572
 49
80019.819395
140
180380.8390819999
141
80022.26069
142
1.0
143
0.2302203728173071
 70
   692
 72
     0
 73
     1
 74
     4
  7
OKIB&WShaded.ctb
 75
     0
147
4.343664236846477
148
-4581598.0903288
149
-2032503.412632999
  0
PLOTSETTINGS
  5
BF5
102
{ACAD_REACTORS
330
B43
102
}
330
B43
100
AcDbPlotSettings
  1
Oki Doki B&W Shaded 8.5x11
  2
OKI DOKI Color Laser.pc3
  4
Letter
  6
PS1
 40
5.027083396911621
 41
5.027085304260253
 42
5.027084350585937
 43
5.027069091796875
 44
215.8999938964843
 45
279.3999938964843
 46
0.0
 47
9.906
 48
180377.877572
 49
80019.819395
140
180380.8390819999
141
80022.26069
142
1.0
143
0.3012394963745367
 70
   692
 72
     0
 73
     1
 74
     4
  7
OKIB&WShaded.ctb
 75
     0
147
3.319617819161008
148
-4581598.0903288
149
-2032503.412632999
  0
PLOTSETTINGS
  5
BF6
102
{ACAD_REACTORS
330
B43
102
}
330
B43
100
AcDbPlotSettings
  1
Oki Doki Color Laser
  2
OKI DOKI Color Laser.pc3
  4
Letter
  6
PS1
 40
5.027083396911621
 41
5.027085304260253
 42
5.027084350585937
 43
5.027069091796875
 44
215.8999938964843
 45
279.3999938964843
 46
71.88199999999999
 47
97.02799999999999
 48
180377.877572
 49
80019.819395
140
180380.8390819999
141
80022.26069
142
1.0
143
1.0
 70
   692
 72
     0
 73
     1
 74
     4
  7
Color.ctb
 75
    16
147
1.0
148
-4581598.0903288
149
-2032503.412632999
  0
PLOTSETTINGS
  5
BF7
102
{ACAD_REACTORS
330
B43
102
}
330
B43
100
AcDbPlotSettings
  1
Oki Doki Color Shaded 11x17
  2
OKI DOKI Color Laser.pc3
  4
Tabloid
  6
PS1
 40
5.027083396911621
 41
5.027085304260253
 42
5.027099609375
 43
5.027069091796875
 44
279.3999938964843
 45
431.7999877929687
 46
0.0
 47
47.49799999999999
 48
180377.877572
 49
80019.819395
140
180380.8390819999
141
80022.26069
142
1.0
143
0.2302203728173071
 70
   692
 72
     0
 73
     1
 74
     4
  7
OKIColorShaded.ctb
 75
     0
147
4.343664236846477
148
-4581598.0903288
149
-2032503.412632999
  0
PLOTSETTINGS
  5
BF8
102
{ACAD_REACTORS
330
B43
102
}
330
B43
100
AcDbPlotSettings
  1
Oki Doki Color Shaded 8.5x11
  2
OKI DOKI Color Laser.pc3
  4
Letter
  6
PS1
 40
5.027083396911621
 41
5.027085304260253
 42
5.027084350585937
 43
5.027069091796875
 44
215.8999938964843
 45
279.3999938964843
 46
0.0
 47
9.906
 48
180377.877572
 49
80019.819395
140
180380.8390819999
141
80022.26069
142
1.0
143
0.3012394963745367
 70
   692
 72
     0
 73
     1
 74
     4
  7
OKIColorShaded.ctb
 75
     0
147
3.319617819161008
148
-4581598.0903288
149
-2032503.412632999
  0
PLOTSETTINGS
  5
BF9
102
{ACAD_REACTORS
330
B43
102
}
330
B43
100
AcDbPlotSettings
  1
Oki-Doki-B&W-Shaded-11x17
  2
OKI DOKI Color Laser.pc3
  4
Tabloid
  6

 40
5.027083396911621
 41
5.027085304260253
 42
5.027099609375
 43
5.027069091796875
 44
279.3999938964843
 45
431.7999877929687
 46
45.72
 47
0.0
 48
180360.0524337165
 49
80033.77936194791
140
180369.1574725906
141
80037.61796031875
142
1.0
143
0.5483586774064594
 70
  1716
 72
     0
 73
     1
 74
     4
  7
OKIB&WShaded.ctb
 75
     0
147
1.823623918435361
148
-4581145.331816398
149
-2032857.995793476
  0
PLOTSETTINGS
  5
BFA
102
{ACAD_REACTORS
330
B43
102
}
330
B43
100
AcDbPlotSettings
  1
Oki-Doki-B&W-Shaded-8.5x11
  2
OKI DOKI Color Laser.pc3
  4
Letter
  6

 40
5.027083396911621
 41
5.027085304260253
 42
5.027084350585937
 43
5.027069091796875
 44
215.8999938964843
 45
279.3999938964843
 46
46.228
 47
0.0
 48
180360.0524337165
 49
80033.77936194791
140
180369.1574725906
141
80037.61796031875
142
1.0
143
0.8586284006917006
 70
  1716
 72
     0
 73
     1
 74
     4
  7
OKIB&WShaded.ctb
 75
     0
147
1.16464817515285
148
-4581145.331816398
149
-2032857.995793476
  0
PLOTSETTINGS
  5
BFB
102
{ACAD_REACTORS
330
B43
102
}
330
B43
100
AcDbPlotSettings
  1
Oki-Doki-Color-Laser
  2
OKI DOKI Color Laser.pc3
  4
Letter
  6

 40
5.027083396911621
 41
5.027085304260253
 42
5.027084350585937
 43
5.027069091796875
 44
215.8999938964843
 45
279.3999938964843
 46
17.018
 47
0.0
 48
180360.0524337165
 49
80033.77936194791
140
180369.1574725906
141
80037.61796031875
142
1.0
143
1.429088128819241
 70
  1716
 72
     0
 73
     1
 74
     0
  7
Color.ctb
 75
     0
147
0.6997469084193093
148
0.9506237099442977
149
8.593888772447144
  0
PLOTSETTINGS
  5
BFC
102
{ACAD_REACTORS
330
B43
102
}
330
B43
100
AcDbPlotSettings
  1
Oki-Doki-Color-Shaded-11x17
  2
OKI DOKI Color Laser.pc3
  4
Tabloid
  6

 40
5.027083396911621
 41
5.027085304260253
 42
5.027099609375
 43
5.027069091796875
 44
279.3999938964843
 45
431.7999877929687
 46
45.72
 47
0.0
 48
180360.0524337165
 49
80033.77936194791
140
180369.1574725906
141
80037.61796031875
142
1.0
143
0.5483586774064594
 70
  1716
 72
     0
 73
     1
 74
     4
  7
OKIColorShaded.ctb
 75
     0
147
1.823623918435361
148
-4581145.331816398
149
-2032857.995793476
  0
PLOTSETTINGS
  5
BFD
102
{ACAD_REACTORS
330
B43
102
}
330
B43
100
AcDbPlotSettings
  1
Oki-Doki-Color-Shaded-8.5x11
  2
OKI DOKI Color Laser.pc3
  4
Letter
  6

 40
5.027083396911621
 41
5.027085304260253
 42
5.027084350585937
 43
5.027069091796875
 44
215.8999938964843
 45
279.3999938964843
 46
46.228
 47
0.0
 48
180360.0524337165
 49
80033.77936194791
140
180369.1574725906
141
80037.61796031875
142
1.0
143
0.8586284006917006
 70
  1716
 72
     0
 73
     1
 74
     4
  7
OKIColorShaded.ctb
 75
     0
147
1.16464817515285
148
-4581145.331816398
149
-2032857.995793476
  0
ACDBPLACEHOLDER
  5
B3A
102
{ACAD_REACTORS
330
B39
102
}
330
B39
  0
DICTIONARYVAR
  5
B74
102
{ACAD_REACTORS
330
B71
102
}
330
B71
100
DictionaryVariables
280
     0
  1
1
  0
DICTIONARYVAR
  5
B73
102
{ACAD_REACTORS
330
B71
102
}
330
B71
100
DictionaryVariables
280
     0
  1
1
  0
DICTIONARYVAR
  5
B72
102
{ACAD_REACTORS
330
B71
102
}
330
B71
100
DictionaryVariables
280
     0
  1
1
  0
ENDSEC
  0
EOF
