  0
SECTION
  2
HEADER
  9
$ACADVER
  1
AC1015
  9
$ACADMAINTVER
 70
    13
  9
$DWGCODEPAGE
  3
ANSI_1252
  9
$INSBASE
 10
0.0
 20
0.0
 30
0.0
  9
$EXTMIN
 10
0.0
 20
0.0
 30
0.0
  9
$EXTMAX
 10
16.48999999999999
 20
10.44
 30
0.03
  9
$LIMMIN
 10
0.0
 20
0.0
  9
$LIMMAX
 10
12.0
 20
9.0
  9
$ORTHOMODE
 70
     1
  9
$REGENMODE
 70
     1
  9
$FILLMODE
 70
     1
  9
$QTEXTMODE
 70
     0
  9
$MIRRTEXT
 70
     0
  9
$LTSCALE
 40
1.0
  9
$ATTMODE
 70
     1
  9
$TEXTSIZE
 40
0.1
  9
$TRACEWID
 40
0.05
  9
$TEXTSTYLE
  7
ROMANS
  9
$CLAYER
  8
OPTION-NOZ-ROTARY
  9
$CELTYPE
  6
ByLayer
  9
$CECOLOR
 62
   256
  9
$CELTSCALE
 40
1.0
  9
$DISPSILH
 70
     0
  9
$DIMSCALE
 40
1.0
  9
$DIMASZ
 40
0.18
  9
$DIMEXO
 40
0.0625
  9
$DIMDLI
 40
0.38
  9
$DIMRND
 40
0.0
  9
$DIMDLE
 40
0.0
  9
$DIMEXE
 40
0.18
  9
$DIMTP
 40
0.0
  9
$DIMTM
 40
0.0
  9
$DIMTXT
 40
0.18
  9
$DIMCEN
 40
0.09
  9
$DIMTSZ
 40
0.0
  9
$DIMTOL
 70
     0
  9
$DIMLIM
 70
     0
  9
$DIMTIH
 70
     1
  9
$DIMTOH
 70
     1
  9
$DIMSE1
 70
     0
  9
$DIMSE2
 70
     0
  9
$DIMTAD
 70
     0
  9
$DIMZIN
 70
     0
  9
$DIMBLK
  1

  9
$DIMASO
 70
     1
  9
$DIMSHO
 70
     1
  9
$DIMPOST
  1

  9
$DIMAPOST
  1

  9
$DIMALT
 70
     0
  9
$DIMALTD
 70
     2
  9
$DIMALTF
 40
25.4
  9
$DIMLFAC
 40
1.0
  9
$DIMTOFL
 70
     0
  9
$DIMTVP
 40
0.0
  9
$DIMTIX
 70
     0
  9
$DIMSOXD
 70
     0
  9
$DIMSAH
 70
     0
  9
$DIMBLK1
  1

  9
$DIMBLK2
  1

  9
$DIMSTYLE
  2
Standard
  9
$DIMCLRD
 70
     0
  9
$DIMCLRE
 70
     0
  9
$DIMCLRT
 70
     0
  9
$DIMTFAC
 40
1.0
  9
$DIMGAP
 40
0.09
  9
$DIMJUST
 70
     0
  9
$DIMSD1
 70
     0
  9
$DIMSD2
 70
     0
  9
$DIMTOLJ
 70
     1
  9
$DIMTZIN
 70
     0
  9
$DIMALTZ
 70
     0
  9
$DIMALTTZ
 70
     0
  9
$DIMUPT
 70
     0
  9
$DIMDEC
 70
     4
  9
$DIMTDEC
 70
     4
  9
$DIMALTU
 70
     2
  9
$DIMALTTD
 70
     2
  9
$DIMTXSTY
  7
STANDARD
  9
$DIMAUNIT
 70
     0
  9
$DIMADEC
 70
     0
  9
$DIMALTRND
 40
0.0
  9
$DIMAZIN
 70
     0
  9
$DIMDSEP
 70
    46
  9
$DIMATFIT
 70
     3
  9
$DIMFRAC
 70
     0
  9
$DIMLDRBLK
  1

  9
$DIMLUNIT
 70
     2
  9
$DIMLWD
 70
    -2
  9
$DIMLWE
 70
    -2
  9
$DIMTMOVE
 70
     2
  9
$LUNITS
 70
     2
  9
$LUPREC
 70
     4
  9
$SKETCHINC
 40
0.1
  9
$FILLETRAD
 40
0.0
  9
$AUNITS
 70
     0
  9
$AUPREC
 70
     0
  9
$MENU
  1
ACAD
  9
$ELEVATION
 40
0.0
  9
$PELEVATION
 40
0.0
  9
$THICKNESS
 40
0.0
  9
$LIMCHECK
 70
     0
  9
$CHAMFERA
 40
0.0
  9
$CHAMFERB
 40
0.0
  9
$CHAMFERC
 40
0.0
  9
$CHAMFERD
 40
0.0
  9
$SKPOLY
 70
     0
  9
$TDCREATE
 40
2449623.426764236
  9
$TDUCREATE
 40
2449623.676764236
  9
$TDUPDATE
 40
2453109.567809803
  9
$TDUUPDATE
 40
2453109.817809803
  9
$TDINDWG
 40
0.5239765972
  9
$TDUSRTIMER
 40
0.5239765972
  9
$USRTIMER
 70
     1
  9
$ANGBASE
 50
0.0
  9
$ANGDIR
 70
     0
  9
$PDMODE
 70
     0
  9
$PDSIZE
 40
0.0
  9
$PLINEWID
 40
0.0
  9
$SPLFRAME
 70
     0
  9
$SPLINETYPE
 70
     6
  9
$SPLINESEGS
 70
     8
  9
$HANDSEED
  5
400
  9
$SURFTAB1
 70
     6
  9
$SURFTAB2
 70
     6
  9
$SURFTYPE
 70
     6
  9
$SURFU
 70
     6
  9
$SURFV
 70
     6
  9
$UCSBASE
  2

  9
$UCSNAME
  2

  9
$UCSORG
 10
0.0
 20
0.0
 30
0.0
  9
$UCSXDIR
 10
1.0
 20
0.0
 30
0.0
  9
$UCSYDIR
 10
0.0
 20
1.0
 30
0.0
  9
$UCSORTHOREF
  2

  9
$UCSORTHOVIEW
 70
     0
  9
$UCSORGTOP
 10
0.0
 20
0.0
 30
0.0
  9
$UCSORGBOTTOM
 10
0.0
 20
0.0
 30
0.0
  9
$UCSORGLEFT
 10
0.0
 20
0.0
 30
0.0
  9
$UCSORGRIGHT
 10
0.0
 20
0.0
 30
0.0
  9
$UCSORGFRONT
 10
0.0
 20
0.0
 30
0.0
  9
$UCSORGBACK
 10
0.0
 20
0.0
 30
0.0
  9
$PUCSBASE
  2

  9
$PUCSNAME
  2

  9
$PUCSORG
 10
0.0
 20
0.0
 30
0.0
  9
$PUCSXDIR
 10
1.0
 20
0.0
 30
0.0
  9
$PUCSYDIR
 10
0.0
 20
1.0
 30
0.0
  9
$PUCSORTHOREF
  2

  9
$PUCSORTHOVIEW
 70
     0
  9
$PUCSORGTOP
 10
0.0
 20
0.0
 30
0.0
  9
$PUCSORGBOTTOM
 10
0.0
 20
0.0
 30
0.0
  9
$PUCSORGLEFT
 10
0.0
 20
0.0
 30
0.0
  9
$PUCSORGRIGHT
 10
0.0
 20
0.0
 30
0.0
  9
$PUCSORGFRONT
 10
0.0
 20
0.0
 30
0.0
  9
$PUCSORGBACK
 10
0.0
 20
0.0
 30
0.0
  9
$USERI1
 70
     0
  9
$USERI2
 70
     0
  9
$USERI3
 70
     0
  9
$USERI4
 70
     0
  9
$USERI5
 70
     0
  9
$USERR1
 40
0.0
  9
$USERR2
 40
0.0
  9
$USERR3
 40
0.0
  9
$USERR4
 40
0.0
  9
$USERR5
 40
0.0
  9
$WORLDVIEW
 70
     1
  9
$SHADEDGE
 70
     3
  9
$SHADEDIF
 70
    70
  9
$TILEMODE
 70
     1
  9
$MAXACTVP
 70
    16
  9
$PINSBASE
 10
0.0
 20
0.0
 30
0.0
  9
$PLIMCHECK
 70
     0
  9
$PEXTMIN
 10
1.000000000000000E+20
 20
1.000000000000000E+20
 30
1.000000000000000E+20
  9
$PEXTMAX
 10
-1.000000000000000E+20
 20
-1.000000000000000E+20
 30
-1.000000000000000E+20
  9
$PLIMMIN
 10
0.0
 20
0.0
  9
$PLIMMAX
 10
12.0
 20
9.0
  9
$UNITMODE
 70
     0
  9
$VISRETAIN
 70
     0
  9
$PLINEGEN
 70
     1
  9
$PSLTSCALE
 70
     1
  9
$TREEDEPTH
 70
  3020
  9
$CMLSTYLE
  2
Standard
  9
$CMLJUST
 70
     0
  9
$CMLSCALE
 40
1.0
  9
$PROXYGRAPHICS
 70
     1
  9
$MEASUREMENT
 70
     0
  9
$CELWEIGHT
370
    -1
  9
$ENDCAPS
280
     0
  9
$JOINSTYLE
280
     0
  9
$LWDISPLAY
290
     0
  9
$INSUNITS
 70
     0
  9
$HYPERLINKBASE
  1

  9
$STYLESHEET
  1
OKIColorShaded.ctb
  9
$XEDIT
290
     1
  9
$CEPSNTYPE
380
     0
  9
$PSTYLEMODE
290
     1
  9
$FINGERPRINTGUID
  2
{DA940575-9742-4B5B-8070-9862C90A1056}
  9
$VERSIONGUID
  2
{3FFAFC6A-C74C-4A9E-B3BB-845FB5D9E7E2}
  9
$EXTNAMES
290
     1
  9
$PSVPSCALE
 40
0.0
  9
$OLESTARTUP
290
     1
  0
ENDSEC
  0
SECTION
  2
CLASSES
  0
CLASS
  1
ACDBDICTIONARYWDFLT
  2
AcDbDictionaryWithDefault
  3
AutoCAD 2000
 90
        0
280
     0
281
     0
  0
CLASS
  1
ACDBPLACEHOLDER
  2
AcDbPlaceHolder
  3
AutoCAD 2000
 90
        0
280
     0
281
     0
  0
CLASS
  1
LAYOUT
  2
AcDbLayout
  3
AutoCAD 2000
 90
        0
280
     0
281
     0
  0
CLASS
  1
DICTIONARYVAR
  2
AcDbDictionaryVar
  3
AutoCAD 2000
 90
        0
280
     0
281
     0
  0
CLASS
  1
PLOTSETTINGS
  2
AcDbPlotSettings
  3
AutoCAD 2000
 90
        0
280
     0
281
     0
  0
ENDSEC
  0
SECTION
  2
TABLES
  0
TABLE
  2
VPORT
  5
8
330
0
100
AcDbSymbolTable
 70
     2
  0
VPORT
  5
3FF
330
8
100
AcDbSymbolTableRecord
100
AcDbViewportTableRecord
  2
*Active
 70
     0
 10
0.0
 20
0.0
 11
1.0
 21
1.0
 12
8.245000038393772
 22
5.220000024307517
 13
0.0
 23
0.0
 14
0.14
 24
0.14
 15
0.0
 25
0.0
 16
0.0
 26
0.0
 36
1.0
 17
0.0
 27
0.0
 37
0.0
 40
11.01088047795969
 41
1.505548705302096
 42
50.0
 43
0.0
 44
0.0
 50
0.0
 51
0.0
 71
     0
 72
  5000
 73
     1
 74
     1
 75
     0
 76
     0
 77
     0
 78
     0
281
     0
 65
     1
110
0.0
120
0.0
130
0.0
111
1.0
121
0.0
131
0.0
112
0.0
122
1.0
132
0.0
 79
     0
146
0.0
  0
ENDTAB
  0
TABLE
  2
LTYPE
  5
5
330
0
100
AcDbSymbolTable
 70
     1
  0
LTYPE
  5
13
330
5
100
AcDbSymbolTableRecord
100
AcDbLinetypeTableRecord
  2
ByBlock
 70
     0
  3

 72
    65
 73
     0
 40
0.0
  0
LTYPE
  5
14
330
5
100
AcDbSymbolTableRecord
100
AcDbLinetypeTableRecord
  2
ByLayer
 70
     0
  3

 72
    65
 73
     0
 40
0.0
  0
LTYPE
  5
15
330
5
100
AcDbSymbolTableRecord
100
AcDbLinetypeTableRecord
  2
CONTINUOUS
 70
     0
  3
Solid line
 72
    65
 73
     0
 40
0.0
  0
ENDTAB
  0
TABLE
  2
LAYER
  5
2
102
{ACAD_XDICTIONARY
360
367
102
}
330
0
100
AcDbSymbolTable
 70
    13
  0
LAYER
  5
10
330
2
100
AcDbSymbolTableRecord
100
AcDbLayerTableRecord
  2
0
 70
     0
 62
     7
  6
CONTINUOUS
370
    -3
390
F
  0
LAYER
  5
28
330
2
100
AcDbSymbolTableRecord
100
AcDbLayerTableRecord
  2
TEXT_BUBBLES
 70
     0
 62
     6
  6
CONTINUOUS
370
    -3
390
F
  0
LAYER
  5
29
330
2
100
AcDbSymbolTableRecord
100
AcDbLayerTableRecord
  2
IMAGE
 70
     0
 62
     7
  6
CONTINUOUS
370
    -3
390
F
  0
LAYER
  5
2C
330
2
100
AcDbSymbolTableRecord
100
AcDbLayerTableRecord
  2
TEXT_LEADERS
 70
     0
 62
    -5
  6
CONTINUOUS
370
    -3
390
F
  0
LAYER
  5
2D
330
2
100
AcDbSymbolTableRecord
100
AcDbLayerTableRecord
  2
OPTION-NOZ-VAN
 70
     0
 62
    -1
  6
CONTINUOUS
370
    -3
390
F
  0
LAYER
  5
2E
330
2
100
AcDbSymbolTableRecord
100
AcDbLayerTableRecord
  2
OPTION-VPC
 70
     0
 62
     1
  6
CONTINUOUS
370
    -3
390
F
  0
LAYER
  5
2F
330
2
100
AcDbSymbolTableRecord
100
AcDbLayerTableRecord
  2
OPTION-NOZ-PLASTIC
 70
     0
 62
    -1
  6
CONTINUOUS
370
    -3
390
F
  0
LAYER
  5
30
330
2
100
AcDbSymbolTableRecord
100
AcDbLayerTableRecord
  2
INSTRUCT-OPTION
 70
     0
 62
     7
  6
CONTINUOUS
370
    -3
390
F
  0
LAYER
  5
31
330
2
100
AcDbSymbolTableRecord
100
AcDbLayerTableRecord
  2
INSTRUCT-CALLOUT
 70
     0
 62
     4
  6
CONTINUOUS
370
    -3
390
F
  0
LAYER
  5
23F
330
2
100
AcDbSymbolTableRecord
100
AcDbLayerTableRecord
  2
OPTION-NOZ-U-SERIES
 70
     0
 62
    -1
  6
CONTINUOUS
370
    -3
390
F
  0
LAYER
  5
247
330
2
100
AcDbSymbolTableRecord
100
AcDbLayerTableRecord
  2
TITLE
 70
     0
 62
     4
  6
CONTINUOUS
370
    -3
390
F
  0
LAYER
  5
2D0
330
2
100
AcDbSymbolTableRecord
100
AcDbLayerTableRecord
  2
OPTION-NP
 70
     0
 62
    -1
  6
CONTINUOUS
370
    -3
390
F
  0
LAYER
  5
3ED
330
2
100
AcDbSymbolTableRecord
100
AcDbLayerTableRecord
  2
OPTION-NOZ-ROTARY
 70
     0
 62
     1
  6
CONTINUOUS
370
    -3
390
F
  0
ENDTAB
  0
TABLE
  2
STYLE
  5
3
330
0
100
AcDbSymbolTable
 70
     5
  0
STYLE
  5
11
330
3
100
AcDbSymbolTableRecord
100
AcDbTextStyleTableRecord
  2
STANDARD
 70
     0
 40
0.0
 41
1.0
 50
0.0
 71
     0
 42
0.2
  3
txt
  4

  0
STYLE
  5
24
330
3
100
AcDbSymbolTableRecord
100
AcDbTextStyleTableRecord
  2
ROMANS
 70
     0
 40
0.0
 41
1.0
 50
0.0
 71
     0
 42
0.1
  3
ROMANS.SHX
  4

  0
STYLE
  5
248
330
3
100
AcDbSymbolTableRecord
100
AcDbTextStyleTableRecord
  2
L100
 70
     0
 40
0.1
 41
1.0
 50
0.0
 71
     0
 42
0.1
  3
romans.shx
  4

  0
STYLE
  5
249
330
3
100
AcDbSymbolTableRecord
100
AcDbTextStyleTableRecord
  2
L200
 70
     0
 40
0.2
 41
1.0
 50
0.0
 71
     0
 42
0.081
  3
ARIAL.TTF
  4

1001
ACAD
1000
Arial
1071
       34
  0
STYLE
  5
24A
330
3
100
AcDbSymbolTableRecord
100
AcDbTextStyleTableRecord
  2
L80
 70
     0
 40
0.08
 41
1.0
 50
0.0
 71
     0
 42
0.08
  3
ROMANS
  4

  0
ENDTAB
  0
TABLE
  2
VIEW
  5
6
330
0
100
AcDbSymbolTable
 70
     1
  0
VIEW
  5
2D7
330
6
100
AcDbSymbolTableRecord
100
AcDbViewTableRecord
  2
PS1
 70
     0
 40
10.44
 10
8.244999999999997
 20
5.219999999999999
 41
16.48999999999999
 11
0.0
 21
0.0
 31
1.0
 12
0.0
 22
0.0
 32
0.0
 42
50.0
 43
0.0
 44
0.0
 50
0.0
 71
     0
281
     0
 72
     1
110
0.0
120
0.0
130
0.0
111
1.0
121
0.0
131
0.0
112
0.0
122
1.0
132
0.0
 79
     0
146
0.0
  0
ENDTAB
  0
TABLE
  2
UCS
  5
7
330
0
100
AcDbSymbolTable
 70
     0
  0
ENDTAB
  0
TABLE
  2
APPID
  5
9
330
0
100
AcDbSymbolTable
 70
     3
  0
APPID
  5
12
330
9
100
AcDbSymbolTableRecord
100
AcDbRegAppTableRecord
  2
ACAD
 70
     0
  0
APPID
  5
24B
330
9
100
AcDbSymbolTableRecord
100
AcDbRegAppTableRecord
  2
RAK
 70
     0
  0
APPID
  5
24C
330
9
100
AcDbSymbolTableRecord
100
AcDbRegAppTableRecord
  2
DCO15
 70
     0
  0
ENDTAB
  0
TABLE
  2
DIMSTYLE
  5
A
330
0
100
AcDbSymbolTable
 70
     1
100
AcDbDimStyleTable
 71
     0
  0
DIMSTYLE
105
232
330
A
100
AcDbSymbolTableRecord
100
AcDbDimStyleTableRecord
  2
Standard
 70
     0
340
11
  0
ENDTAB
  0
TABLE
  2
BLOCK_RECORD
  5
1
330
0
100
AcDbSymbolTable
 70
     1
  0
BLOCK_RECORD
  5
1E
330
1
100
AcDbSymbolTableRecord
100
AcDbBlockTableRecord
  2
*Model_Space
340
21
  0
BLOCK_RECORD
  5
1A
330
1
100
AcDbSymbolTableRecord
100
AcDbBlockTableRecord
  2
*Paper_Space
340
1D
  0
BLOCK_RECORD
  5
24D
330
1
100
AcDbSymbolTableRecord
100
AcDbBlockTableRecord
  2
titleblock
340
0
102
{BLKREFS
331
25C
102
}
  0
ENDTAB
  0
ENDSEC
  0
SECTION
  2
BLOCKS
  0
BLOCK
  5
35
330
1E
100
AcDbEntity
  8
0
100
AcDbBlockBegin
  2
*Model_Space
 70
     0
 10
0.0
 20
0.0
 30
0.0
  3
*Model_Space
  1

  0
ENDBLK
  5
36
330
1E
100
AcDbEntity
  8
0
100
AcDbBlockEnd
  0
BLOCK
  5
33
330
1A
100
AcDbEntity
 67
     1
  8
0
100
AcDbBlockBegin
  2
*Paper_Space
 70
     0
 10
0.0
 20
0.0
 30
0.0
  3
*Paper_Space
  1

  0
ENDBLK
  5
34
330
1A
100
AcDbEntity
 67
     1
  8
0
100
AcDbBlockEnd
  0
BLOCK
  5
259
330
24D
100
AcDbEntity
  8
0
100
AcDbBlockBegin
  2
titleblock
 70
     2
 10
0.0
 20
0.0
 30
0.0
  3
titleblock
  1

  0
LWPOLYLINE
  5
24E
330
24D
100
AcDbEntity
  8
IMAGE
100
AcDbPolyline
 90
        4
 70
     1
 43
0.0
 10
0.0
 20
0.0
 10
16.48999999999999
 20
0.0000000000000001
 10
16.48999999999999
 20
10.44
 10
0.0
 20
10.44
  0
ATTDEF
  5
24F
330
24D
100
AcDbEntity
  8
TITLE
100
AcDbText
 10
0.5055556038023421
 20
0.7842270964783673
 30
0.0
 40
0.2
  1
D
  7
L200
 72
     4
 11
0.6064423705144839
 21
0.8842270964783672
 31
0.0
100
AcDbAttributeDefinition
  3
#
  2
D
 70
     0
  0
ATTDEF
  5
250
330
24D
100
AcDbEntity
  8
TITLE
100
AcDbText
 10
1.231442370514484
 20
1.34371230274675
 30
0.0
 40
0.2
  1

  7
L200
100
AcDbAttributeDefinition
  3
DETAIL TITLE TOP LINE
  2
TITLE1
 70
     0
  0
ATTDEF
  5
251
330
24D
100
AcDbEntity
  8
TITLE
100
AcDbText
 10
1.231442370514484
 20
0.9842270964783674
 30
0.0
 40
0.2
  1
TITLE
  7
L200
100
AcDbAttributeDefinition
  3
DETAIL TITLE TOP 2ND LINE
  2
TITLE2
 70
     0
  0
ATTDEF
  5
252
330
24D
100
AcDbEntity
  8
TITLE
100
AcDbText
 10
2.713645751168312
 20
0.5927927664583189
 30
0.0
 40
0.2
  1
TITLE2
  7
L200
100
AcDbAttributeDefinition
  3
DETAIL TITLE BOTTOM 1
  2
TITLE3
 70
     0
  0
ATTDEF
  5
253
330
24D
100
AcDbEntity
  8
TITLE
100
AcDbText
 10
2.713645751168312
 20
0.2692560808167741
 30
0.0
 40
0.2
  1

  7
L200
100
AcDbAttributeDefinition
  3
DETAIL TITLE BOTTOM 2
  2
TITLE4
 70
     0
  0
ATTDEF
  5
254
330
24D
100
AcDbEntity
  8
TITLE
 62
     7
100
AcDbText
 10
8.177214829966379
 20
0.9696027915446398
 30
0.0
 40
0.08
  1
-
  7
L80
 72
     2
 11
8.261024353775903
 21
0.9696027915446398
 31
0.0
100
AcDbAttributeDefinition
  3
REVISION DATE
  2
REVISED
 70
     0
  0
ATTDEF
  5
255
330
24D
100
AcDbEntity
  8
TITLE
 62
     7
100
AcDbText
 10
0.2639423705144838
 20
0.0847116480207214
 30
0.0
 40
0.08
  1
-
  7
L80
100
AcDbAttributeDefinition
  3
DWG-NAME
  2
DWG-NAME
 70
     0
  0
LWPOLYLINE
  5
256
330
24D
100
AcDbEntity
  8
TITLE
 62
     3
100
AcDbPolyline
 90
        2
 70
     1
 43
0.03
 10
0.6064423705144839
 20
0.5417270964783675
 42
0.9999999999999998
 10
0.6064423705144839
 20
1.226727096478367
 42
0.9999999999999998
  0
ATTDEF
  5
257
330
24D
100
AcDbEntity
  8
TITLE
 62
     7
100
AcDbText
 10
1.231442370514484
 20
0.7005637793954894
 30
0.0
 40
0.1
  1
N.T.S.
  7
L100
100
AcDbAttributeDefinition
  3
SCALE
  2
SCALE
 70
     0
  0
LWPOLYLINE
  5
258
330
24D
100
AcDbEntity
  8
TITLE
 62
     3
100
AcDbPolyline
 90
        2
 70
     0
 43
0.04
 39
0.03
 10
0.9489423705144833
 20
0.8842270964783672
 10
8.261024353775903
 20
0.8842270964783672
  0
ENDBLK
  5
25A
330
24D
100
AcDbEntity
  8
0
100
AcDbBlockEnd
  0
ENDSEC
  0
SECTION
  2
ENTITIES
  0
LINE
  5
C6
330
1E
100
AcDbEntity
  8
IMAGE
100
AcDbLine
 10
2.067988345716988
 20
4.966606576296678
 30
0.0
 11
1.218991517176728
 21
4.966606576296678
 31
0.0
  0
LINE
  5
C7
330
1E
100
AcDbEntity
  8
IMAGE
100
AcDbLine
 10
1.614313624465766
 20
5.268195908246836
 30
0.0
 11
1.65112641374286
 21
4.966331036174679
 31
0.0
  0
LINE
  5
C8
330
1E
100
AcDbEntity
  8
IMAGE
100
AcDbLine
 10
1.798887830841207
 20
5.254352842768671
 30
0.0
 11
1.87271751339139
 21
4.972877178046136
 31
0.0
  0
LINE
  5
C9
330
1E
100
AcDbEntity
  8
IMAGE
100
AcDbLine
 10
1.951161551100944
 20
5.249738487609297
 30
0.0
 11
1.977730999672939
 21
4.966331036174679
 31
0.0
  0
LINE
  5
CA
330
1E
100
AcDbEntity
  8
IMAGE
100
AcDbLine
 10
2.04977296122374
 20
5.296084497199181
 30
0.0
 11
1.970317481450789
 21
4.966331036174679
 31
0.0
  0
LINE
  5
CB
330
1E
100
AcDbEntity
  8
IMAGE
100
AcDbLine
 10
1.576707258575518
 20
5.208150240925979
 30
0.0
 11
1.772195947863069
 21
4.966331036174679
 31
0.0
  0
LINE
  5
CC
330
1E
100
AcDbEntity
  8
IMAGE
100
AcDbLine
 10
1.71972712216684
 20
5.307076279233324
 30
0.0
 11
1.71972712216684
 21
4.966331036174679
 31
0.0
  0
LINE
  5
CD
330
1E
100
AcDbEntity
  8
IMAGE
100
AcDbLine
 10
1.884750041695295
 20
5.252117369062577
 30
0.0
 11
1.953150846021578
 21
4.96633103617469
 31
0.0
  0
LINE
  5
CE
330
1E
100
AcDbEntity
  8
IMAGE
100
AcDbLine
 10
2.001680567532586
 20
5.249738487609297
 30
0.0
 11
2.028250016104581
 21
4.966331036174679
 31
0.0
  0
LINE
  5
CF
330
1E
100
AcDbEntity
  8
IMAGE
100
AcDbLine
 10
1.425416341480965
 20
5.254352842768671
 30
0.0
 11
1.499246024031148
 21
4.972877178046136
 31
0.0
  0
LINE
  5
D0
330
1E
100
AcDbEntity
  8
IMAGE
100
AcDbLine
 10
1.577690061740703
 20
5.249738487609297
 30
0.0
 11
1.604259510312696
 21
4.966331036174679
 31
0.0
  0
LINE
  5
D1
330
1E
100
AcDbEntity
  8
IMAGE
100
AcDbLine
 10
1.456270912492229
 20
5.274100933130874
 30
0.0
 11
1.430600680565584
 21
4.96633103617469
 31
0.0
  0
LINE
  5
D2
330
1E
100
AcDbEntity
  8
IMAGE
100
AcDbLine
 10
1.346255632806601
 20
5.307076279233324
 30
0.0
 11
1.346255632806601
 21
4.966331036174679
 31
0.0
  0
LINE
  5
D3
330
1E
100
AcDbEntity
  8
IMAGE
100
AcDbLine
 10
1.511278552335054
 20
5.252117369062577
 30
0.0
 11
1.579679356661338
 21
4.96633103617469
 31
0.0
  0
LINE
  5
D4
330
1E
100
AcDbEntity
  8
IMAGE
100
AcDbLine
 10
1.808319807486265
 20
5.285092715165033
 30
0.0
 11
1.656393945063238
 21
4.966331036174679
 31
0.0
  0
LINE
  5
D5
330
1E
100
AcDbEntity
  8
IMAGE
100
AcDbLine
 10
1.511535254654313
 20
5.245124132449907
 30
0.0
 11
1.485162934736391
 21
4.966331036174679
 31
0.0
  0
LINE
  5
D6
330
1E
100
AcDbEntity
  8
IMAGE
100
AcDbLine
 10
1.225445234772379
 20
5.254352842768671
 30
0.0
 11
1.299274917322562
 21
4.972877178046136
 31
0.0
  0
LINE
  5
D7
330
1E
100
AcDbEntity
  8
IMAGE
100
AcDbLine
 10
1.311307445626467
 20
5.252117369062577
 30
0.0
 11
1.379708249952752
 21
4.96633103617469
 31
0.0
  0
LINE
  5
D8
330
1E
100
AcDbEntity
  8
IMAGE
100
AcDbLine
 10
1.60834870077768
 20
5.285092715165033
 30
0.0
 11
1.456422838354652
 21
4.966331036174679
 31
0.0
  0
LINE
  5
D9
330
1E
100
AcDbEntity
  8
IMAGE
100
AcDbLine
 10
1.328983233895952
 20
5.296084497199181
 30
0.0
 11
1.249527754123001
 21
4.966331036174679
 31
0.0
  0
LINE
  5
DA
330
1E
100
AcDbEntity
  8
IMAGE
100
AcDbLine
 10
1.46100156951872
 20
5.285092715165033
 30
0.0
 11
1.309075707095693
 21
4.966331036174679
 31
0.0
  0
LINE
  5
DB
330
1E
100
AcDbEntity
  8
IMAGE
100
AcDbLine
 10
3.972669293562648
 20
5.268195908246836
 30
0.0
 11
4.009482082839742
 21
4.966331036174679
 31
0.0
  0
LINE
  5
DC
330
1E
100
AcDbEntity
  8
IMAGE
100
AcDbLine
 10
1.402062717015137
 20
5.285092715165033
 30
0.0
 11
1.250136854592108
 21
4.966331036174679
 31
0.0
  0
LINE
  5
DD
330
1E
100
AcDbEntity
  8
IMAGE
100
AcDbLine
 10
1.936736976287309
 20
5.245124132449907
 30
0.0
 11
1.910364656369387
 21
4.966331036174679
 31
0.0
  0
LINE
  5
DE
330
1E
100
AcDbEntity
  8
IMAGE
100
AcDbLine
 10
1.650646956405374
 20
5.254352842768671
 30
0.0
 11
1.724476638955557
 21
4.972877178046136
 31
0.0
  0
LINE
  5
DF
330
1E
100
AcDbEntity
  8
IMAGE
100
AcDbLine
 10
1.901532086787907
 20
5.296084497199181
 30
0.0
 11
1.822076607014954
 21
4.966331036174679
 31
0.0
  0
LINE
  5
E0
330
1E
100
AcDbEntity
  8
IMAGE
100
AcDbLine
 10
1.571486247731009
 20
5.307076279233324
 30
0.0
 11
1.571486247731009
 21
4.966331036174679
 31
0.0
  0
LINE
  5
E1
330
1E
100
AcDbEntity
  8
IMAGE
100
AcDbLine
 10
1.736509167259463
 20
5.252117369062577
 30
0.0
 11
1.804909971585746
 21
4.96633103617469
 31
0.0
  0
LINE
  5
E2
330
1E
100
AcDbEntity
  8
IMAGE
100
AcDbLine
 10
2.033550422410675
 20
5.285092715165033
 30
0.0
 11
1.881624559987646
 21
4.966331036174679
 31
0.0
  0
LINE
  5
E3
330
1E
100
AcDbEntity
  8
IMAGE
100
AcDbLine
 10
2.548150813570874
 20
4.920102901879253
 30
0.0
 11
2.548150813570874
 21
4.7861977743401
 31
0.0
  0
LINE
  5
E4
330
1E
100
AcDbEntity
  8
IMAGE
100
AcDbLine
 10
2.509677890531444
 20
4.920102901879253
 30
0.0
 11
2.509677890531444
 21
4.7861977743401
 31
0.0
  0
LINE
  5
E5
330
1E
100
AcDbEntity
  8
IMAGE
100
AcDbLine
 10
2.337550673361027
 20
4.920102901879253
 30
0.0
 11
2.337550673361027
 21
4.7861977743401
 31
0.0
  0
LINE
  5
E6
330
1E
100
AcDbEntity
  8
IMAGE
100
AcDbLine
 10
2.300369662651505
 20
4.920102901879253
 30
0.0
 11
2.300369662651505
 21
4.7861977743401
 31
0.0
  0
LINE
  5
E7
330
1E
100
AcDbEntity
  8
IMAGE
100
AcDbLine
 10
2.215426355022171
 20
4.7861977743401
 30
0.0
 11
2.627404140081108
 21
4.7861977743401
 31
0.0
  0
LINE
  5
E8
330
1E
100
AcDbEntity
  8
IMAGE
100
AcDbLine
 10
2.14235036713603
 20
4.920102901879253
 30
0.0
 11
2.700480127967246
 21
4.920102901879253
 31
0.0
  0
LINE
  5
E9
330
1E
100
AcDbEntity
  8
IMAGE
100
AcDbLine
 10
2.067988345716984
 20
4.966606576296678
 30
0.0
 11
2.774842149386294
 21
4.966606576296678
 31
0.0
  0
LINE
  5
EA
330
1E
100
AcDbEntity
  8
IMAGE
100
AcDbLine
 10
2.627404140081108
 20
4.7861977743401
 30
0.0
 11
2.700480127967246
 21
4.7861977743401
 31
0.0
  0
LINE
  5
EB
330
1E
100
AcDbEntity
  8
IMAGE
100
AcDbLine
 10
2.700480127967246
 20
4.7861977743401
 30
0.0
 11
2.700480127967246
 21
4.920102901879253
 31
0.0
  0
LINE
  5
EC
330
1E
100
AcDbEntity
  8
IMAGE
100
AcDbLine
 10
2.700480127967246
 20
4.920102901879253
 30
0.0
 11
2.774842149386294
 21
4.920102901879253
 31
0.0
  0
LINE
  5
ED
330
1E
100
AcDbEntity
  8
IMAGE
100
AcDbLine
 10
2.774842149386294
 20
4.920102901879253
 30
0.0
 11
2.774842149386294
 21
4.966606576296678
 31
0.0
  0
LINE
  5
EE
330
1E
100
AcDbEntity
  8
IMAGE
100
AcDbLine
 10
2.774842149386294
 20
4.920102901879243
 30
0.0
 11
2.700480127967246
 21
4.7861977743401
 31
0.0
  0
LINE
  5
EF
330
1E
100
AcDbEntity
  8
IMAGE
100
AcDbLine
 10
2.067988345716982
 20
4.920102901879243
 30
0.0
 11
2.14235036713603
 21
4.7861977743401
 31
0.0
  0
LINE
  5
F0
330
1E
100
AcDbEntity
  8
IMAGE
100
AcDbLine
 10
2.067988345716984
 20
4.920102901879253
 30
0.0
 11
2.067988345716984
 21
4.966606576296678
 31
0.0
  0
LINE
  5
F1
330
1E
100
AcDbEntity
  8
IMAGE
100
AcDbLine
 10
2.14235036713603
 20
4.920102901879253
 30
0.0
 11
2.067988345716984
 21
4.920102901879253
 31
0.0
  0
LINE
  5
F2
330
1E
100
AcDbEntity
  8
IMAGE
100
AcDbLine
 10
2.14235036713603
 20
4.7861977743401
 30
0.0
 11
2.14235036713603
 21
4.920102901879253
 31
0.0
  0
LINE
  5
F3
330
1E
100
AcDbEntity
  8
IMAGE
100
AcDbLine
 10
2.215426355022171
 20
4.7861977743401
 30
0.0
 11
2.14235036713603
 21
4.7861977743401
 31
0.0
  0
LINE
  5
F4
330
1E
100
AcDbEntity
  8
IMAGE
100
AcDbLine
 10
2.627404140081108
 20
4.7861977743401
 30
0.0
 11
2.627404140081108
 21
4.353628427986064
 31
0.0
  0
LINE
  5
F5
330
1E
100
AcDbEntity
  8
IMAGE
100
AcDbLine
 10
2.627404140081108
 20
4.353628427986064
 30
0.0
 11
2.627404140081108
 21
3.799651593023508
 31
0.0
  0
LINE
  5
F6
330
1E
100
AcDbEntity
  8
IMAGE
100
AcDbLine
 10
2.215426355022171
 20
3.799651593023508
 30
0.0
 11
2.307166043372589
 21
3.676092023570584
 31
0.0
  0
LINE
  5
F7
330
1E
100
AcDbEntity
  8
IMAGE
100
AcDbLine
 10
2.307166043372589
 20
3.676092023570584
 30
0.0
 11
2.421415247551639
 21
3.676092023570584
 31
0.0
  0
LINE
  5
F8
330
1E
100
AcDbEntity
  8
IMAGE
100
AcDbLine
 10
2.215426355022171
 20
3.799651593023508
 30
0.0
 11
2.627404140081108
 21
3.799651593023508
 31
0.0
  0
LINE
  5
F9
330
1E
100
AcDbEntity
  8
IMAGE
100
AcDbLine
 10
2.215426355022171
 20
4.353628427986064
 30
0.0
 11
2.215426355022171
 21
3.799651593023508
 31
0.0
  0
LINE
  5
FA
330
1E
100
AcDbEntity
  8
IMAGE
100
AcDbLine
 10
2.215426355022171
 20
4.7861977743401
 30
0.0
 11
2.215426355022171
 21
4.353628427986064
 31
0.0
  0
LINE
  5
FB
330
1E
100
AcDbEntity
  8
IMAGE
100
AcDbLine
 10
2.311024422174154
 20
3.676092023570584
 30
0.0
 11
2.311024422174154
 21
3.799651593023508
 31
0.0
  0
LINE
  5
FC
330
1E
100
AcDbEntity
  8
IMAGE
100
AcDbLine
 10
2.413039983297283
 20
3.799651593023508
 30
0.0
 11
2.413039983297283
 21
3.676092023570584
 31
0.0
  0
LINE
  5
FD
330
1E
100
AcDbEntity
  8
IMAGE
100
AcDbLine
 10
2.215426355022171
 20
4.753072999342451
 30
0.0
 11
2.627404140081108
 21
4.753072999342451
 31
0.0
  0
LINE
  5
FE
330
1E
100
AcDbEntity
  8
IMAGE
100
AcDbLine
 10
2.627404140081108
 20
4.734716465086828
 30
0.0
 11
2.215426355022171
 21
4.734716465086828
 31
0.0
  0
LINE
  5
FF
330
1E
100
AcDbEntity
  8
IMAGE
100
AcDbLine
 10
2.53566445173069
 20
3.676092023570584
 30
0.0
 11
2.421415247551639
 21
3.676092023570584
 31
0.0
  0
LINE
  5
100
330
1E
100
AcDbEntity
  8
IMAGE
100
AcDbLine
 10
2.531806072929124
 20
3.676092023570584
 30
0.0
 11
2.531806072929124
 21
3.799651593023508
 31
0.0
  0
LINE
  5
101
330
1E
100
AcDbEntity
  8
IMAGE
100
AcDbLine
 10
2.429790511805995
 20
3.799651593023508
 30
0.0
 11
2.429790511805995
 21
3.676092023570584
 31
0.0
  0
LINE
  5
102
330
1E
100
AcDbEntity
  8
IMAGE
100
AcDbLine
 10
2.627404140081108
 20
3.799651593023508
 30
0.0
 11
2.53566445173069
 21
3.676092023570584
 31
0.0
  0
CIRCLE
  5
106
330
1E
100
AcDbEntity
  8
TEXT_BUBBLES
100
AcDbCircle
 10
4.944733273542003
 20
5.385760686290239
 30
0.0
 40
0.15625
  0
TEXT
  5
107
330
1E
100
AcDbEntity
  8
TEXT_BUBBLES
100
AcDbText
 10
4.894138035446765
 20
5.323260686290239
 30
0.0
 40
0.125
  1
1
  7
ROMANS
 72
     4
 11
4.944733273542003
 21
5.385760686290239
 31
0.0
100
AcDbText
  0
CIRCLE
  5
108
330
1E
100
AcDbEntity
  8
TEXT_BUBBLES
100
AcDbCircle
 10
4.944733273542003
 20
5.035760525681777
 30
0.0
 40
0.15625
  0
TEXT
  5
109
330
1E
100
AcDbEntity
  8
TEXT_BUBBLES
100
AcDbText
 10
4.885209464018194
 20
4.973260525681777
 30
0.0
 40
0.125
  1
2
  7
ROMANS
 72
     4
 11
4.944733273542003
 21
5.035760525681777
 31
0.0
100
AcDbText
  0
CIRCLE
  5
10A
330
1E
100
AcDbEntity
  8
TEXT_BUBBLES
100
AcDbCircle
 10
4.953348815323974
 20
4.362324846271054
 30
0.0
 40
0.15625
  0
TEXT
  5
10B
330
1E
100
AcDbEntity
  8
TEXT_BUBBLES
100
AcDbText
 10
4.893825005800165
 20
4.299824846271054
 30
0.0
 40
0.125
  1
3
  7
ROMANS
 72
     4
 11
4.953348815323974
 21
4.362324846271054
 31
0.0
100
AcDbText
  0
CIRCLE
  5
10C
330
1E
100
AcDbEntity
  8
TEXT_BUBBLES
100
AcDbCircle
 10
4.944733273542003
 20
3.810760525681773
 30
0.0
 40
0.15625
  0
TEXT
  5
10D
330
1E
100
AcDbEntity
  8
TEXT_BUBBLES
100
AcDbText
 10
4.882233273542003
 20
3.748260525681773
 30
0.0
 40
0.125
  1
4
  7
ROMANS
 72
     4
 11
4.944733273542003
 21
3.810760525681773
 31
0.0
100
AcDbText
  0
CIRCLE
  5
10E
330
1E
100
AcDbEntity
  8
TEXT_BUBBLES
100
AcDbCircle
 10
4.944733273542003
 20
3.460760525681775
 30
0.0
 40
0.15625
  0
TEXT
  5
10F
330
1E
100
AcDbEntity
  8
TEXT_BUBBLES
100
AcDbText
 10
4.885209464018194
 20
3.398260525681775
 30
0.0
 40
0.125
  1
5
  7
ROMANS
 72
     4
 11
4.944733273542003
 21
3.460760525681775
 31
0.0
100
AcDbText
  0
CIRCLE
  5
110
330
1E
100
AcDbEntity
  8
TEXT_BUBBLES
100
AcDbCircle
 10
4.944733273542003
 20
3.113336270027032
 30
0.0
 40
0.15625
  0
TEXT
  5
111
330
1E
100
AcDbEntity
  8
TEXT_BUBBLES
100
AcDbText
 10
4.882233273542003
 20
3.050836270027032
 30
0.0
 40
0.125
  1
6
  7
ROMANS
 72
     4
 11
4.944733273542003
 21
3.113336270027032
 31
0.0
100
AcDbText
  0
CIRCLE
  5
117
330
1E
100
AcDbEntity
  8
TEXT_BUBBLES
100
AcDbCircle
 10
3.545686949445827
 20
1.91413938482852
 30
0.0
 40
0.15625
  0
TEXT
  5
118
330
1E
100
AcDbEntity
  8
TEXT_BUBBLES
100
AcDbText
 10
3.499351849549209
 20
1.85163938482852
 30
0.0
 40
0.125
  1
3
  7
ROMANS
 72
     4
 11
3.558875659073019
 21
1.91413938482852
 31
0.0
100
AcDbText
  0
CIRCLE
  5
119
330
1E
100
AcDbEntity
  8
TEXT_BUBBLES
100
AcDbCircle
 10
4.679105862704358
 20
1.91413938482852
 30
0.0
 40
0.15625
  0
TEXT
  5
11A
330
1E
100
AcDbEntity
  8
TEXT_BUBBLES
100
AcDbText
 10
4.619582053180549
 20
1.85163938482852
 30
0.0
 40
0.125
  1
7
  7
ROMANS
 72
     4
 11
4.679105862704358
 21
1.91413938482852
 31
0.0
100
AcDbText
  0
CIRCLE
  5
11B
330
1E
100
AcDbEntity
  8
TEXT_BUBBLES
100
AcDbCircle
 10
2.820017529102656
 20
1.91413938482852
 30
0.0
 40
0.15625
  0
TEXT
  5
11C
330
1E
100
AcDbEntity
  8
TEXT_BUBBLES
100
AcDbText
 10
2.760493719578847
 20
1.85163938482852
 30
0.0
 40
0.125
  1
5
  7
ROMANS
 72
     4
 11
2.820017529102656
 21
1.91413938482852
 31
0.0
100
AcDbText
  0
TEXT
  5
123
330
1E
100
AcDbEntity
  8
TEXT_BUBBLES
100
AcDbText
 10
0.6157981879024641
 20
3.894906486365384
 30
0.0
 40
0.125
  1
3
  7
ROMANS
 72
     4
 11
0.6753219974262736
 21
3.957406486365384
 31
0.0
100
AcDbText
  0
CIRCLE
  5
124
330
1E
100
AcDbEntity
  8
TEXT_BUBBLES
100
AcDbCircle
 10
0.6753219974262736
 20
3.957406486365384
 30
0.0
 40
0.15625
  0
TEXT
  5
125
330
1E
100
AcDbEntity
  8
TEXT_BUBBLES
100
AcDbText
 10
0.6157981879024641
 20
4.608025675761201
 30
0.0
 40
0.125
  1
2
  7
ROMANS
 72
     4
 11
0.6753219974262736
 21
4.670525675761201
 31
0.0
100
AcDbText
  0
CIRCLE
  5
126
330
1E
100
AcDbEntity
  8
TEXT_BUBBLES
100
AcDbCircle
 10
0.6753219974262736
 20
4.670525675761201
 30
0.0
 40
0.15625
  0
TEXT
  5
129
330
1E
100
AcDbEntity
  8
TEXT_BUBBLES
100
AcDbText
 10
4.153006542962092
 20
1.85163938482852
 30
0.0
 40
0.125
  1
5
  7
ROMANS
 72
     4
 11
4.212530352485901
 21
1.91413938482852
 31
0.0
100
AcDbText
  0
CIRCLE
  5
12A
330
1E
100
AcDbEntity
  8
TEXT_BUBBLES
100
AcDbCircle
 10
4.212530352485901
 20
1.91413938482852
 30
0.0
 40
0.15625
  0
CIRCLE
  5
12B
330
1E
100
AcDbEntity
  8
TEXT_BUBBLES
100
AcDbCircle
 10
0.6753219974262736
 20
5.113325376643631
 30
0.0
 40
0.15625
  0
TEXT
  5
12C
330
1E
100
AcDbEntity
  8
TEXT_BUBBLES
100
AcDbText
 10
0.6247267593310355
 20
5.050825376643631
 30
0.0
 40
0.125
  1
1
  7
ROMANS
 72
     4
 11
0.6753219974262736
 21
5.113325376643631
 31
0.0
100
AcDbText
  0
TEXT
  5
130
330
1E
100
AcDbEntity
  8
TEXT_LEADERS
100
AcDbText
 10
5.22616264039956
 20
4.794999999999999
 30
0.0
 40
0.125
  1
  RAIN BIRD 1802
  7
ROMANS
100
AcDbText
  0
TEXT
  5
131
330
1E
100
AcDbEntity
  8
TEXT_LEADERS
100
AcDbText
 10
5.22616264039956
 20
4.969999999999999
 30
0.0
 40
0.125
  1
POP-UP SPRAY SPRINKLER:
  7
ROMANS
100
AcDbText
  0
LINE
  5
137
330
1E
100
AcDbEntity
  8
IMAGE
100
AcDbLine
 10
2.337697083802058
 20
3.629307365600915
 30
0.0
 11
2.504530234049994
 21
3.629307365600915
 31
0.0
  0
LWPOLYLINE
  5
138
330
1E
100
AcDbEntity
  8
IMAGE
100
AcDbPolyline
 90
        2
 70
     0
 43
0.0
 10
2.349727560073423
 20
3.648630444698749
 10
2.492216032321856
 20
3.648630444698749
  0
LINE
  5
13C
330
1E
100
AcDbEntity
  8
IMAGE
100
AcDbLine
 10
2.504530234049993
 20
3.676092023570584
 30
0.0
 11
2.504530234049994
 21
3.185067022743103
 31
0.0
  0
LINE
  5
13D
330
1E
100
AcDbEntity
  8
IMAGE
100
AcDbLine
 10
2.337697083802058
 20
3.676092023570584
 30
0.0
 11
2.337697083802058
 21
3.185067022743103
 31
0.0
  0
LWPOLYLINE
  5
13E
330
1E
100
AcDbEntity
  8
IMAGE
100
AcDbPolyline
 90
        2
 70
     0
 43
0.0
 10
2.699759896723575
 20
3.03954475336779
 10
2.670247000353834
 20
2.900146210794486
  0
LINE
  5
142
330
1E
100
AcDbEntity
  8
IMAGE
100
AcDbLine
 10
2.721105390742197
 20
3.047217966777154
 30
0.0
 11
2.686550107801691
 21
2.884002672020345
 31
0.0
  0
LINE
  5
143
330
1E
100
AcDbEntity
  8
IMAGE
100
AcDbLine
 10
3.686527083209988
 20
2.842310898824755
 30
0.0
 11
3.651971800269482
 21
2.679095604067947
 31
0.0
  0
LWPOLYLINE
  5
144
330
1E
100
AcDbEntity
  8
IMAGE
100
AcDbPolyline
 90
        2
 70
     0
 43
0.0
 10
3.70331790327595
 20
2.826423568760812
 10
3.673805006906208
 20
2.687025026187508
  0
LWPOLYLINE
  5
148
330
1E
100
AcDbEntity
  8
IMAGE
100
AcDbPolyline
 90
        2
 70
     0
 43
0.0
 10
2.349727560073423
 20
3.204303648688578
 10
2.492216032321856
 20
3.204303648688578
  0
LINE
  5
14C
330
1E
100
AcDbEntity
  8
IMAGE
100
AcDbLine
 10
2.337697083802058
 20
3.224854720047643
 30
0.0
 11
2.504530234049994
 21
3.224854720047643
 31
0.0
  0
LWPOLYLINE
  5
14D
330
1E
100
AcDbEntity
  8
IMAGE
100
AcDbPolyline
 90
        4
 70
     0
 43
0.0
 10
1.796597316440745
 20
2.796857797870647
 42
0.6332430429610296
 10
1.796597316440745
 20
2.697380586414793
 42
-0.6332430429610812
 10
1.796597316440745
 20
2.597903374958937
 42
-0.6134111328532366
 10
1.796597316440747
 20
2.697380586414791
 42
-0.6134111328532366
  0
LWPOLYLINE
  5
153
330
1E
100
AcDbEntity
  8
IMAGE
100
AcDbPolyline
 90
        4
 70
     0
 43
0.0
 10
4.601898187686517
 20
2.798291532583273
 42
-0.6332430429610296
 10
4.601898187686517
 20
2.698814321127418
 42
0.6332430429610812
 10
4.601898187686517
 20
2.599337109671563
 42
0.6134111328532366
 10
4.601898187686515
 20
2.698814321127417
 42
0.6134111328532366
  0
ARC
  5
159
330
1E
100
AcDbEntity
  8
IMAGE
100
AcDbCircle
 10
2.421494841468657
 20
3.028562687637002
 30
0.0
 40
0.0983684976157295
100
AcDbArc
 50
179.379115872957
 51
0.2371380430744057
  0
LINE
  5
15A
330
1E
100
AcDbEntity
  8
IMAGE
100
AcDbLine
 10
3.690194552909176
 20
2.670827456089967
 30
0.0
 11
2.647512933309796
 21
2.891579796952422
 31
0.0
  0
LINE
  5
15B
330
1E
100
AcDbEntity
  8
IMAGE
100
AcDbLine
 10
3.725078007954081
 20
2.83397292671597
 30
0.0
 11
2.682396388354701
 21
3.054725267578425
 31
0.0
  0
LINE
  5
15C
330
1E
100
AcDbEntity
  8
IMAGE
100
AcDbLine
 10
2.323943845252239
 20
3.185067022743102
 30
0.0
 11
2.519551108419216
 21
3.185067022743102
 31
0.0
  0
LINE
  5
15D
330
1E
100
AcDbEntity
  8
IMAGE
100
AcDbLine
 10
2.323943845252239
 20
3.185067022743102
 30
0.0
 11
2.323126343852928
 21
3.028562687637002
 31
0.0
  0
LINE
  5
15E
330
1E
100
AcDbEntity
  8
IMAGE
100
AcDbLine
 10
2.519551108419216
 20
3.185067022743102
 30
0.0
 11
2.519863339084386
 21
3.028562687637002
 31
0.0
  0
LINE
  5
15F
330
1E
100
AcDbEntity
  8
IMAGE
100
AcDbLine
 10
4.225373934337723
 20
2.822807814572132
 30
0.0
 11
4.225373934337721
 21
2.575738135175503
 31
0.0
  0
LINE
  5
160
330
1E
100
AcDbEntity
  8
IMAGE
100
AcDbLine
 10
3.726814776526451
 20
2.84318986110126
 30
0.0
 11
3.967378292427719
 21
2.792125318115175
 31
0.0
  0
LINE
  5
161
330
1E
100
AcDbEntity
  8
IMAGE
100
AcDbLine
 10
3.68788707440693
 20
2.661129962662236
 30
0.0
 11
3.928374467798901
 21
2.609709404407902
 31
0.0
  0
LINE
  5
162
330
1E
100
AcDbEntity
  8
IMAGE
100
AcDbLine
 10
3.967378292427719
 20
2.792125318115175
 30
0.0
 11
3.978868390765565
 21
2.770437366290749
 31
0.0
  0
LINE
  5
163
330
1E
100
AcDbEntity
  8
IMAGE
100
AcDbLine
 10
3.928374467798901
 20
2.609709404407902
 30
0.0
 11
3.948944290924199
 21
2.622314695559055
 31
0.0
  0
LINE
  5
164
330
1E
100
AcDbEntity
  8
IMAGE
100
AcDbLine
 10
3.948944290924199
 20
2.622314695559054
 30
0.0
 11
3.978868390765565
 21
2.770437366290749
 31
0.0
  0
ARC
  5
165
330
1E
100
AcDbEntity
  8
IMAGE
100
AcDbCircle
 10
3.945701560911047
 20
2.700053804554279
 30
0.0
 40
0.077806711569825
100
AcDbArc
 50
272.3885930691139
 51
64.76879059918148
  0
LINE
  5
166
330
1E
100
AcDbEntity
  8
IMAGE
100
AcDbLine
 10
2.645544585520326
 20
2.882224989437579
 30
0.0
 11
2.416333744974473
 21
2.930329676860812
 31
0.0
  0
LINE
  5
167
330
1E
100
AcDbEntity
  8
IMAGE
100
AcDbLine
 10
2.683878369188098
 20
3.064410866062652
 30
0.0
 11
2.519728796415503
 21
3.099203468759712
 31
0.0
  0
LINE
  5
168
330
1E
100
AcDbEntity
  8
IMAGE
100
AcDbLine
 10
2.683878369188098
 20
3.064410866062652
 30
0.0
 11
2.645544585520326
 21
2.88222498943758
 31
0.0
  0
LINE
  5
169
330
1E
100
AcDbEntity
  8
IMAGE
100
AcDbLine
 10
3.726814776526451
 20
2.84318986110126
 30
0.0
 11
3.68788707440693
 21
2.661129962662236
 31
0.0
  0
LINE
  5
16A
330
1E
100
AcDbEntity
  8
IMAGE
100
AcDbLine
 10
4.225373934337723
 20
2.575738135175503
 30
0.0
 11
3.664808887494137
 21
2.575738135175503
 31
0.0
  0
LINE
  5
16B
330
1E
100
AcDbEntity
  8
IMAGE
100
AcDbLine
 10
3.664808887494137
 20
2.676202006632896
 30
0.0
 11
3.664808887494137
 21
2.575738135175504
 31
0.0
  0
LINE
  5
16C
330
1E
100
AcDbEntity
  8
IMAGE
100
AcDbLine
 10
3.967378292427721
 20
2.792125318115175
 30
0.0
 11
3.928374467798901
 21
2.609709404407902
 31
0.0
  0
LINE
  5
16D
330
1E
100
AcDbEntity
  8
IMAGE
100
AcDbLine
 10
4.601898187686517
 20
2.798291532583273
 30
0.0
 11
4.225373934337723
 21
2.798291532583273
 31
0.0
  0
LINE
  5
16E
330
1E
100
AcDbEntity
  8
IMAGE
100
AcDbLine
 10
4.601898187686517
 20
2.599337109671563
 30
0.0
 11
4.225373934337721
 21
2.599337109671563
 31
0.0
  0
LINE
  5
16F
330
1E
100
AcDbEntity
  8
IMAGE
100
AcDbLine
 10
3.664808887494137
 20
2.597903374958937
 30
0.0
 11
1.796597316440745
 21
2.597903374958937
 31
0.0
  0
LINE
  5
170
330
1E
100
AcDbEntity
  8
IMAGE
100
AcDbLine
 10
3.094914247508372
 20
2.796857797870648
 30
0.0
 11
1.796597316440745
 21
2.796857797870647
 31
0.0
  0
LINE
  5
171
330
1E
100
AcDbEntity
  8
IMAGE
100
AcDbLine
 10
3.822833980607967
 20
2.822807814572132
 30
0.0
 11
4.225373934337723
 21
2.822807814572133
 31
0.0
  0
CIRCLE
  5
172
330
1E
100
AcDbEntity
  8
TEXT_BUBBLES
100
AcDbCircle
 10
3.886243685752201
 20
1.91413938482852
 30
0.0
 40
0.15625
  0
TEXT
  5
173
330
1E
100
AcDbEntity
  8
TEXT_BUBBLES
100
AcDbText
 10
3.823743685752201
 20
1.85163938482852
 30
0.0
 40
0.125
  1
6
  7
ROMANS
 72
     4
 11
3.886243685752201
 21
1.91413938482852
 31
0.0
100
AcDbText
  0
CIRCLE
  5
178
330
1E
100
AcDbEntity
  8
TEXT_BUBBLES
100
AcDbCircle
 10
0.6753219974262736
 20
3.530785530069404
 30
0.0
 40
0.15625
  0
TEXT
  5
179
330
1E
100
AcDbEntity
  8
TEXT_BUBBLES
100
AcDbText
 10
0.6128219974262736
 20
3.468285530069404
 30
0.0
 40
0.125
  1
4
  7
ROMANS
 72
     4
 11
0.6753219974262736
 21
3.530785530069404
 31
0.0
100
AcDbText
  0
TEXT
  5
17D
330
1E
100
AcDbEntity
  8
TEXT_LEADERS
100
AcDbText
 10
5.22616264039956
 20
1.949709033374058
 30
0.0
 40
0.125
  1
PVC SCH 40 TEE OR ELL
  7
ROMANS
100
AcDbText
  0
TEXT
  5
17E
330
1E
100
AcDbEntity
  8
TEXT_LEADERS
100
AcDbText
 10
5.22616264039956
 20
2.299709033374058
 30
0.0
 40
0.125
  1
PVC SCH 40 STREET ELL
  7
ROMANS
100
AcDbText
  0
TEXT
  5
180
330
1E
100
AcDbEntity
  8
TEXT_LEADERS
100
AcDbText
 10
4.89521089
 20
2.976903190294124
 30
0.0
 40
0.125
  1
  (LENGTH AS REQUIRED)
  7
ROMANS
100
AcDbText
  0
TEXT
  5
181
330
1E
100
AcDbEntity
  8
TEXT_LEADERS
100
AcDbText
 10
5.22616264039956
 20
3.151903190294123
 30
0.0
 40
0.125
  1
PVC SCH 80 NIPPLE
  7
ROMANS
100
AcDbText
  0
TEXT
  5
182
330
1E
100
AcDbEntity
  8
TEXT_LEADERS
100
AcDbText
 10
5.22616264039956
 20
4.168813499999999
 30
0.0
 40
0.125
  1
  (LENGTH AS REQUIRED)
  7
ROMANS
100
AcDbText
  0
TEXT
  5
183
330
1E
100
AcDbEntity
  8
TEXT_LEADERS
100
AcDbText
 10
5.22616264039956
 20
4.3438135
 30
0.0
 40
0.125
  1
PVC SCH 80 NIPPLE
  7
ROMANS
100
AcDbText
  0
TEXT
  5
184
330
1E
100
AcDbEntity
  8
TEXT_LEADERS
100
AcDbText
 10
5.22616264039956
 20
3.851903190294124
 30
0.0
 40
0.125
  1
PVC SCH 40 ELL
  7
ROMANS
100
AcDbText
  0
TEXT
  5
186
330
1E
100
AcDbEntity
  8
TEXT_BUBBLES
100
AcDbText
 10
5.22616264039956
 20
2.694999999999999
 30
0.0
 40
0.125
  1
PVC LATERAL PIPE
  7
ROMANS
100
AcDbText
  0
TEXT
  5
187
330
1E
100
AcDbEntity
  8
TEXT_BUBBLES
100
AcDbText
 10
5.22616264039956
 20
3.395
 30
0.0
 40
0.125
  1
PVC SCH 40 STREET ELL
  7
ROMANS
100
AcDbText
  0
TEXT
  5
188
330
1E
100
AcDbEntity
  8
TEXT_BUBBLES
100
AcDbText
 10
5.22616264039956
 20
3.745
 30
0.0
 40
0.125
  1
PVC SCH 40 ELL
  7
ROMANS
100
AcDbText
  0
TEXT
  5
189
330
1E
100
AcDbEntity
  8
TEXT_BUBBLES
100
AcDbText
 10
5.22616264039956
 20
4.094999999999999
 30
0.0
 40
0.125
  1
  (LENGTH AS REQUIRED)
  7
ROMANS
100
AcDbText
  0
TEXT
  5
18A
330
1E
100
AcDbEntity
  8
TEXT_BUBBLES
100
AcDbText
 10
5.22616264039956
 20
4.269999999999999
 30
0.0
 40
0.125
  1
PVC SCH 80 NIPPLE
  7
ROMANS
100
AcDbText
  0
TEXT
  5
18B
330
1E
100
AcDbEntity
  8
TEXT_BUBBLES
100
AcDbText
 10
5.22616264039956
 20
5.32
 30
0.0
 40
0.125
  1
FINISH GRADE/TOP OF MULCH
  7
ROMANS
100
AcDbText
  0
TEXT
  5
18C
330
1E
100
AcDbEntity
  8
TEXT_BUBBLES
100
AcDbText
 10
5.22616264039956
 20
3.044999999999999
 30
0.0
 40
0.125
  1
PVC SCH 40 TEE OR ELL
  7
ROMANS
100
AcDbText
  0
TEXT
  5
18D
330
1E
100
AcDbEntity
  8
TEXT_BUBBLES
100
AcDbText
 10
5.22616264039956
 20
4.794999999999999
 30
0.0
 40
0.125
  1
  RAIN BIRD 1802
  7
ROMANS
100
AcDbText
  0
TEXT
  5
18E
330
1E
100
AcDbEntity
  8
TEXT_BUBBLES
100
AcDbText
 10
5.22616264039956
 20
4.969999999999999
 30
0.0
 40
0.125
  1
POP-UP SPRAY SPRINKLER:
  7
ROMANS
100
AcDbText
  0
TEXT
  5
18F
330
1E
100
AcDbEntity
  8
TEXT_BUBBLES
100
AcDbText
 10
4.885209464018194
 20
2.700836270027031
 30
0.0
 40
0.125
  1
7
  7
ROMANS
 72
     4
 11
4.944733273542003
 21
2.763336270027031
 31
0.0
100
AcDbText
  0
CIRCLE
  5
190
330
1E
100
AcDbEntity
  8
TEXT_BUBBLES
100
AcDbCircle
 10
4.944733273542003
 20
2.763336270027031
 30
0.0
 40
0.15625
  0
TEXT
  5
192
330
1E
100
AcDbEntity
  8
OPTION-VPC
100
AcDbText
 10
6.883513256721035
 20
4.794999999999999
 30
0.0
 40
0.125
  1
  WITH 1800 VPC
  7
ROMANS
100
AcDbText
  0
TEXT
  5
193
330
1E
100
AcDbEntity
  8
OPTION-NOZ-VAN
100
AcDbText
 10
5.22616264039956
 20
4.62
 30
0.0
 40
0.125
  1
  WITH VAN NOZZLE
  7
ROMANS
100
AcDbText
  0
TEXT
  5
194
330
1E
100
AcDbEntity
  8
OPTION-NOZ-PLASTIC
100
AcDbText
 10
5.22616264039956
 20
4.62
 30
0.0
 40
0.125
  1
  WITH PLASTIC MPR NOZZLE
  7
ROMANS
100
AcDbText
  0
TEXT
  5
1AE
330
1E
100
AcDbEntity
  8
INSTRUCT-CALLOUT
100
AcDbText
 10
11.48728821462088
 20
9.776134305190703
 30
0.0
 40
0.125
  1
CHOOSE EITHER LEADERS OR BUBBLE CALLOUTS
  7
ROMANS
100
AcDbText
  0
TEXT
  5
1AF
330
1E
100
AcDbEntity
  8
INSTRUCT-CALLOUT
100
AcDbText
 10
11.48728821462088
 20
9.601134305190704
 30
0.0
 40
0.125
  1
BY TURNING ON THE APPROPRIATE LAYER:
  7
ROMANS
100
AcDbText
  0
LINE
  5
1B1
330
1E
100
AcDbEntity
  8
INSTRUCT-CALLOUT
100
AcDbLine
 10
12.28957190238158
 20
9.02474571333578
 30
0.0
 11
12.4258404482402
 21
9.024745713335779
 31
0.0
  0
LINE
  5
1B2
330
1E
100
AcDbEntity
  8
INSTRUCT-CALLOUT
100
AcDbLine
 10
12.00180148790325
 20
8.904994011529499
 30
0.0
 11
12.28957190238158
 21
9.02474571333578
 31
0.0
  0
SOLID
  5
1B3
330
1E
100
AcDbEntity
  8
INSTRUCT-CALLOUT
100
AcDbTrace
 10
12.08718748544358
 20
8.908032337391386
 30
0.0
 11
12.06413560055185
 21
8.963427378712232
 31
0.0
 12
11.90947641903517
 22
8.866574203376611
 32
0.0
 13
11.90947641903517
 23
8.866574203376611
 33
0.0
  0
SOLID
  5
1B5
330
1E
100
AcDbEntity
  8
INSTRUCT-CALLOUT
100
AcDbTrace
 10
14.88064028360426
 20
8.921458371942785
 30
0.0
 11
14.8964425772586
 21
8.863576703728558
 31
0.0
 12
14.71489642578874
 22
8.845110656872655
 32
0.0
 13
14.71489642578874
 23
8.845110656872655
 33
0.0
  0
LINE
  5
1B6
330
1E
100
AcDbEntity
  8
INSTRUCT-CALLOUT
100
AcDbLine
 10
14.81136587281246
 20
8.87144781296322
 30
0.0
 11
15.06724728973731
 21
8.941306084427839
 31
0.0
  0
TEXT
  5
1B7
330
1E
100
AcDbEntity
  8
INSTRUCT-CALLOUT
100
AcDbText
 10
15.16738556261662
 20
8.919957890819343
 30
0.0
 40
0.125
  1
1
  7
ROMANS
 72
     4
 11
15.21798080071186
 21
8.982457890819343
 31
0.0
100
AcDbText
  0
CIRCLE
  5
1B8
330
1E
100
AcDbEntity
  8
INSTRUCT-CALLOUT
100
AcDbCircle
 10
15.21798080071186
 20
8.982457890819343
 30
0.0
 40
0.15625
  0
LINE
  5
1BB
330
1E
100
AcDbEntity
  8
IMAGE
100
AcDbLine
 10
4.006316214713946
 20
4.966606576296678
 30
0.0
 11
2.774842149386292
 21
4.966606576296678
 31
0.0
  0
LINE
  5
1BC
330
1E
100
AcDbEntity
  8
IMAGE
100
AcDbLine
 10
3.552641493462724
 20
5.268195908246836
 30
0.0
 11
3.589454282739819
 21
4.966331036174679
 31
0.0
  0
LINE
  5
1BD
330
1E
100
AcDbEntity
  8
IMAGE
100
AcDbLine
 10
3.737215699838165
 20
5.254352842768671
 30
0.0
 11
3.811045382388348
 21
4.972877178046136
 31
0.0
  0
LINE
  5
1BE
330
1E
100
AcDbEntity
  8
IMAGE
100
AcDbLine
 10
3.889489420097902
 20
5.249738487609297
 30
0.0
 11
3.916058868669897
 21
4.966331036174679
 31
0.0
  0
LINE
  5
1BF
330
1E
100
AcDbEntity
  8
IMAGE
100
AcDbLine
 10
3.988100830220698
 20
5.296084497199181
 30
0.0
 11
3.908645350447747
 21
4.966331036174679
 31
0.0
  0
LINE
  5
1C0
330
1E
100
AcDbEntity
  8
IMAGE
100
AcDbLine
 10
3.515035127572476
 20
5.208150240925979
 30
0.0
 11
3.710523816860027
 21
4.966331036174679
 31
0.0
  0
LINE
  5
1C1
330
1E
100
AcDbEntity
  8
IMAGE
100
AcDbLine
 10
3.658054991163799
 20
5.307076279233324
 30
0.0
 11
3.658054991163799
 21
4.966331036174679
 31
0.0
  0
LINE
  5
1C2
330
1E
100
AcDbEntity
  8
IMAGE
100
AcDbLine
 10
3.823077910692253
 20
5.252117369062577
 30
0.0
 11
3.891478715018537
 21
4.96633103617469
 31
0.0
  0
LINE
  5
1C3
330
1E
100
AcDbEntity
  8
IMAGE
100
AcDbLine
 10
3.940008436529544
 20
5.249738487609297
 30
0.0
 11
3.966577885101539
 21
4.966331036174679
 31
0.0
  0
LINE
  5
1C4
330
1E
100
AcDbEntity
  8
IMAGE
100
AcDbLine
 10
3.363744210477924
 20
5.254352842768671
 30
0.0
 11
3.437573893028107
 21
4.972877178046136
 31
0.0
  0
LINE
  5
1C5
330
1E
100
AcDbEntity
  8
IMAGE
100
AcDbLine
 10
3.516017930737661
 20
5.249738487609297
 30
0.0
 11
3.542587379309655
 21
4.966331036174679
 31
0.0
  0
LINE
  5
1C6
330
1E
100
AcDbEntity
  8
IMAGE
100
AcDbLine
 10
3.394598781489188
 20
5.274100933130874
 30
0.0
 11
3.368928549562543
 21
4.96633103617469
 31
0.0
  0
LINE
  5
1C7
330
1E
100
AcDbEntity
  8
IMAGE
100
AcDbLine
 10
3.284583501803559
 20
5.307076279233324
 30
0.0
 11
3.284583501803559
 21
4.966331036174679
 31
0.0
  0
LINE
  5
1C8
330
1E
100
AcDbEntity
  8
IMAGE
100
AcDbLine
 10
3.449606421332012
 20
5.252117369062577
 30
0.0
 11
3.518007225658297
 21
4.96633103617469
 31
0.0
  0
LINE
  5
1C9
330
1E
100
AcDbEntity
  8
IMAGE
100
AcDbLine
 10
3.746647676483224
 20
5.285092715165033
 30
0.0
 11
3.594721814060197
 21
4.966331036174679
 31
0.0
  0
LINE
  5
1CA
330
1E
100
AcDbEntity
  8
IMAGE
100
AcDbLine
 10
3.449863123651272
 20
5.245124132449907
 30
0.0
 11
3.423490803733349
 21
4.966331036174679
 31
0.0
  0
LINE
  5
1CB
330
1E
100
AcDbEntity
  8
IMAGE
100
AcDbLine
 10
3.163773103769337
 20
5.254352842768671
 30
0.0
 11
3.23760278631952
 21
4.972877178046136
 31
0.0
  0
LINE
  5
1CC
330
1E
100
AcDbEntity
  8
IMAGE
100
AcDbLine
 10
3.084612395094973
 20
5.307076279233324
 30
0.0
 11
3.084612395094973
 21
4.966331036174679
 31
0.0
  0
LINE
  5
1CD
330
1E
100
AcDbEntity
  8
IMAGE
100
AcDbLine
 10
3.249635314623426
 20
5.252117369062577
 30
0.0
 11
3.31803611894971
 21
4.96633103617469
 31
0.0
  0
LINE
  5
1CE
330
1E
100
AcDbEntity
  8
IMAGE
100
AcDbLine
 10
3.546676569774639
 20
5.285092715165033
 30
0.0
 11
3.39475070735161
 21
4.966331036174679
 31
0.0
  0
LINE
  5
1CF
330
1E
100
AcDbEntity
  8
IMAGE
100
AcDbLine
 10
2.831851766134938
 20
5.268195908246836
 30
0.0
 11
2.868664555412033
 21
4.966331036174679
 31
0.0
  0
LINE
  5
1D0
330
1E
100
AcDbEntity
  8
IMAGE
100
AcDbLine
 10
3.016425972510379
 20
5.254352842768671
 30
0.0
 11
3.090255655060562
 21
4.972877178046136
 31
0.0
  0
LINE
  5
1D1
330
1E
100
AcDbEntity
  8
IMAGE
100
AcDbLine
 10
3.26731110289291
 20
5.296084497199181
 30
0.0
 11
3.187855623119959
 21
4.966331036174679
 31
0.0
  0
LINE
  5
1D2
330
1E
100
AcDbEntity
  8
IMAGE
100
AcDbLine
 10
3.047280543521643
 20
5.274100933130874
 30
0.0
 11
3.021610311594998
 21
4.96633103617469
 31
0.0
  0
LINE
  5
1D3
330
1E
100
AcDbEntity
  8
IMAGE
100
AcDbLine
 10
2.79424540024469
 20
5.208150240925979
 30
0.0
 11
2.989734089532241
 21
4.966331036174679
 31
0.0
  0
LINE
  5
1D4
330
1E
100
AcDbEntity
  8
IMAGE
100
AcDbLine
 10
2.937265263836014
 20
5.307076279233324
 30
0.0
 11
2.937265263836014
 21
4.966331036174679
 31
0.0
  0
LINE
  5
1D5
330
1E
100
AcDbEntity
  8
IMAGE
100
AcDbLine
 10
3.102288183364467
 20
5.252117369062577
 30
0.0
 11
3.170688987690752
 21
4.96633103617469
 31
0.0
  0
LINE
  5
1D6
330
1E
100
AcDbEntity
  8
IMAGE
100
AcDbLine
 10
3.399329438515679
 20
5.285092715165033
 30
0.0
 11
3.247403576092652
 21
4.966331036174679
 31
0.0
  0
LINE
  5
1D7
330
1E
100
AcDbEntity
  8
IMAGE
100
AcDbLine
 10
2.906729213253552
 20
5.226666711812363
 30
0.0
 11
2.978111575928401
 21
4.966331036174679
 31
0.0
  0
LINE
  5
1D8
330
1E
100
AcDbEntity
  8
IMAGE
100
AcDbLine
 10
2.772912913631356
 20
5.268195908246836
 30
0.0
 11
2.809725702908449
 21
4.966331036174679
 31
0.0
  0
LINE
  5
1D9
330
1E
100
AcDbEntity
  8
IMAGE
100
AcDbLine
 10
3.109760840266533
 20
5.249738487609297
 30
0.0
 11
3.136330288838526
 21
4.966331036174679
 31
0.0
  0
LINE
  5
1DA
330
1E
100
AcDbEntity
  8
IMAGE
100
AcDbLine
 10
3.208372250389329
 20
5.296084497199181
 30
0.0
 11
3.128916770616376
 21
4.966331036174679
 31
0.0
  0
LINE
  5
1DB
330
1E
100
AcDbEntity
  8
IMAGE
100
AcDbLine
 10
2.988341691018059
 20
5.274100933130874
 30
0.0
 11
2.962671459091414
 21
4.96633103617469
 31
0.0
  0
LINE
  5
1DC
330
1E
100
AcDbEntity
  8
IMAGE
100
AcDbLine
 10
2.878326411332429
 20
5.307076279233324
 30
0.0
 11
2.878326411332429
 21
4.966331036174679
 31
0.0
  0
LINE
  5
1DD
330
1E
100
AcDbEntity
  8
IMAGE
100
AcDbLine
 10
3.340390586012095
 20
5.285092715165033
 30
0.0
 11
3.188464723589067
 21
4.966331036174679
 31
0.0
  0
LINE
  5
1DE
330
1E
100
AcDbEntity
  8
IMAGE
100
AcDbLine
 10
3.875064845284268
 20
5.245124132449907
 30
0.0
 11
3.848692525366345
 21
4.966331036174679
 31
0.0
  0
LINE
  5
1DF
330
1E
100
AcDbEntity
  8
IMAGE
100
AcDbLine
 10
3.588974825402332
 20
5.254352842768671
 30
0.0
 11
3.662804507952515
 21
4.972877178046136
 31
0.0
  0
LINE
  5
1E0
330
1E
100
AcDbEntity
  8
IMAGE
100
AcDbLine
 10
3.839859955784865
 20
5.296084497199181
 30
0.0
 11
3.760404476011913
 21
4.966331036174679
 31
0.0
  0
LINE
  5
1E1
330
1E
100
AcDbEntity
  8
IMAGE
100
AcDbLine
 10
3.509814116727967
 20
5.307076279233324
 30
0.0
 11
3.509814116727967
 21
4.966331036174679
 31
0.0
  0
LINE
  5
1E2
330
1E
100
AcDbEntity
  8
IMAGE
100
AcDbLine
 10
3.674837036256421
 20
5.252117369062577
 30
0.0
 11
3.743237840582705
 21
4.96633103617469
 31
0.0
  0
LINE
  5
1E3
330
1E
100
AcDbEntity
  8
IMAGE
100
AcDbLine
 10
3.971878291407633
 20
5.285092715165033
 30
0.0
 11
3.819952428984605
 21
4.966331036174679
 31
0.0
  0
LWPOLYLINE
  5
21B
330
1E
100
AcDbEntity
  8
INSTRUCT-CALLOUT
100
AcDbPolyline
 90
        4
 70
     1
 43
0.0
 10
11.44826086726666
 20
10.09312987775725
 10
11.44826086726666
 20
8.661643856415011
 10
16.36666371200561
 20
8.661643856415011
 10
16.36666371200561
 20
10.09312987775725
  0
TEXT
  5
221
330
1E
100
AcDbEntity
  8
INSTRUCT-CALLOUT
100
AcDbText
 10
11.77885328720868
 20
10.15024536847445
 30
0.0
 40
0.125
  1
CHOOSING EQUIPMENT CALLOUT METHOD
  7
ROMANS
100
AcDbText
  0
TEXT
  5
224
330
1E
100
AcDbEntity
  8
INSTRUCT-CALLOUT
100
AcDbText
 10
11.98244725042478
 20
9.277216967037395
 30
0.0
 40
0.125
  1
TEXT_LEADERS         TEXT_BUBBLES
  7
ROMANS
100
AcDbText
  0
LINE
  5
225
330
1E
100
AcDbEntity
  8
INSTRUCT-CALLOUT
100
AcDbLine
 10
12.28957190238158
 20
9.02474571333578
 30
0.0
 11
12.4258404482402
 21
9.024745713335779
 31
0.0
  0
LINE
  5
226
330
1E
100
AcDbEntity
  8
INSTRUCT-CALLOUT
100
AcDbLine
 10
12.00180148790325
 20
8.904994011529499
 30
0.0
 11
12.28957190238158
 21
9.02474571333578
 31
0.0
  0
SOLID
  5
227
330
1E
100
AcDbEntity
  8
INSTRUCT-CALLOUT
100
AcDbTrace
 10
12.08718748544358
 20
8.908032337391386
 30
0.0
 11
12.06413560055185
 21
8.963427378712232
 31
0.0
 12
11.90947641903517
 22
8.866574203376611
 32
0.0
 13
11.90947641903517
 23
8.866574203376611
 33
0.0
  0
TEXT
  5
228
330
1E
100
AcDbEntity
  8
INSTRUCT-CALLOUT
100
AcDbText
 10
12.45181518525733
 20
8.959995103941881
 30
0.0
 40
0.125
  1
ITEM 1
  7
ROMANS
100
AcDbText
  0
SOLID
  5
229
330
1E
100
AcDbEntity
  8
INSTRUCT-CALLOUT
100
AcDbTrace
 10
14.88064028360426
 20
8.921458371942785
 30
0.0
 11
14.8964425772586
 21
8.863576703728558
 31
0.0
 12
14.71489642578874
 22
8.845110656872655
 32
0.0
 13
14.71489642578874
 23
8.845110656872655
 33
0.0
  0
LINE
  5
22A
330
1E
100
AcDbEntity
  8
INSTRUCT-CALLOUT
100
AcDbLine
 10
14.81136587281246
 20
8.87144781296322
 30
0.0
 11
15.06724728973731
 21
8.941306084427839
 31
0.0
  0
TEXT
  5
22B
330
1E
100
AcDbEntity
  8
INSTRUCT-CALLOUT
100
AcDbText
 10
15.16738556261662
 20
8.919957890819343
 30
0.0
 40
0.125
  1
1
  7
ROMANS
 72
     4
 11
15.21798080071186
 21
8.982457890819343
 31
0.0
100
AcDbText
  0
CIRCLE
  5
22C
330
1E
100
AcDbEntity
  8
INSTRUCT-CALLOUT
100
AcDbCircle
 10
15.21798080071186
 20
8.982457890819343
 30
0.0
 40
0.15625
  0
TEXT
  5
22D
330
1E
100
AcDbEntity
  8
INSTRUCT-CALLOUT
100
AcDbText
 10
11.48728821462088
 20
8.274564795924504
 30
0.0
 40
0.125
  1
LAYER "INSTRUCT-CALLOUT".
  7
ROMANS
100
AcDbText
  0
TEXT
  5
22E
330
1E
100
AcDbEntity
  8
INSTRUCT-CALLOUT
100
AcDbText
 10
11.48728821462088
 20
8.449564795924503
 30
0.0
 40
0.125
  1
TO TURN OFF THIS INSTRUCTION BOX, TURN OFF
  7
ROMANS
100
AcDbText
  0
TEXT
  5
23E
330
1E
100
AcDbEntity
  8
OPTION-NOZ-U-SERIES
100
AcDbText
 10
5.22616264039956
 20
4.62
 30
0.0
 40
0.125
  1
  WITH U-SERIES NOZZLE
  7
ROMANS
100
AcDbText
  0
INSERT
  5
25C
330
1E
100
AcDbEntity
  8
TITLE
100
AcDbBlockReference
 66
     1
  2
titleblock
 10
0.0
 20
0.0
 30
0.0
  0
ATTRIB
  5
25E
330
25C
100
AcDbEntity
  8
TITLE
100
AcDbText
 10
0.5055556038023421
 20
0.7842270964783673
 30
0.0
 40
0.2
  1
D
  7
L200
 72
     4
 11
0.6064423705144839
 21
0.8842270964783672
 31
0.0
100
AcDbAttribute
  2
D
 70
     0
  0
ATTRIB
  5
25F
330
25C
100
AcDbEntity
  8
TITLE
100
AcDbText
 10
1.231442370514484
 20
1.34371230274675
 30
0.0
 40
0.2
  1

  7
L200
100
AcDbAttribute
  2
TITLE1
 70
     0
  0
ATTRIB
  5
260
330
25C
100
AcDbEntity
  8
TITLE
100
AcDbText
 10
1.231442370514484
 20
0.9842270964783674
 30
0.0
 40
0.2
  1
POP-UP SPRAY SPRINKLER
  7
L200
100
AcDbAttribute
  2
TITLE2
 70
     0
  0
ATTRIB
  5
261
330
25C
100
AcDbEntity
  8
TITLE
100
AcDbText
 10
2.713645751168312
 20
0.5927927664583189
 30
0.0
 40
0.2
  1
1802 WITH SWING JOINT
  7
L200
100
AcDbAttribute
  2
TITLE3
 70
     0
  0
ATTRIB
  5
262
330
25C
100
AcDbEntity
  8
TITLE
100
AcDbText
 10
2.713645751168312
 20
0.2692560808167741
 30
0.0
 40
0.2
  1

  7
L200
100
AcDbAttribute
  2
TITLE4
 70
     0
  0
ATTRIB
  5
263
330
25C
100
AcDbEntity
  8
TITLE
 62
     7
100
AcDbText
 10
7.689595782347332
 20
0.9696027915446398
 30
0.0
 40
0.08
  1
4-13-04
  7
L80
 72
     2
 11
8.261024353775903
 21
0.9696027915446398
 31
0.0
100
AcDbAttribute
  2
REVISED
 70
     0
  0
ATTRIB
  5
264
330
25C
100
AcDbEntity
  8
TITLE
 62
     7
100
AcDbText
 10
0.2639423705144838
 20
0.0847116480207214
 30
0.0
 40
0.08
  1
S-1802-SJ.DWG
  7
L80
100
AcDbAttribute
  2
DWG-NAME
 70
     0
  0
ATTRIB
  5
265
330
25C
100
AcDbEntity
  8
TITLE
 62
     7
100
AcDbText
 10
1.231442370514484
 20
0.7005637793954894
 30
0.0
 40
0.1
  1
N.T.S.
  7
L100
100
AcDbAttribute
  2
SCALE
 70
     0
  0
SEQEND
  5
25D
330
25C
100
AcDbEntity
  8
IMAGE
  0
LEADER
  5
26B
330
1E
100
AcDbEntity
  8
TEXT_BUBBLES
100
AcDbLeader
  3
Standard
 76
     2
 10
1.218991517176728
 20
4.966606576296678
 30
0.0
 10
0.8264812299861583
 20
5.073765941461785
 30
0.0
1001
ACAD
1000
DSTYLE
1002
{
1070
   147
1040
0.09
1070
    77
1070
     0
1070
   279
1070
     2
1002
}
  0
LEADER
  5
26C
330
1E
100
AcDbEntity
  8
TEXT_BUBBLES
100
AcDbLeader
  3
Standard
 76
     2
 10
2.215426355022171
 20
4.228785417014858
 30
0.0
 10
0.8193437796253199
 20
4.609930389210096
 30
0.0
1001
ACAD
1000
DSTYLE
1002
{
1070
   147
1040
0.09
1070
    77
1070
     0
1070
   279
1070
     2
1002
}
  0
LEADER
  5
26D
330
1E
100
AcDbEntity
  8
TEXT_BUBBLES
100
AcDbLeader
  3
Standard
 76
     2
 10
2.337697083802058
 20
3.454311623571235
 30
0.0
 10
0.8064054441642618
 20
3.872370067747894
 30
0.0
1001
ACAD
1000
DSTYLE
1002
{
1070
   147
1040
0.09
1070
    77
1070
     0
1070
   279
1070
     2
1002
}
  0
LEADER
  5
26E
330
1E
100
AcDbEntity
  8
TEXT_BUBBLES
100
AcDbLeader
  3
Standard
 76
     2
 10
2.316869027287958
 20
3.092455378591663
 30
0.0
 10
0.8282750192117909
 20
3.498856928053671
 30
0.0
1001
ACAD
1000
DSTYLE
1002
{
1070
   147
1040
0.09
1070
    77
1070
     0
1070
   279
1070
     2
1002
}
  0
LEADER
  5
26F
330
1E
100
AcDbEntity
  8
TEXT_BUBBLES
100
AcDbLeader
  3
Standard
 76
     2
 10
2.579878436736248
 20
2.896006403763459
 30
0.0
 10
2.786909307089907
 20
2.066841408833294
 30
0.0
1001
ACAD
1000
DSTYLE
1002
{
1070
   147
1040
0.09
1070
    77
1070
     0
1070
   279
1070
     2
1002
}
  0
LEADER
  5
270
330
1E
100
AcDbEntity
  8
TEXT_BUBBLES
100
AcDbLeader
  3
Standard
 76
     2
 10
3.384967810624866
 20
2.735448829082972
 30
0.0
 10
3.551032271737961
 20
2.070297926156214
 30
0.0
1001
ACAD
1000
DSTYLE
1002
{
1070
   147
1040
0.09
1070
    77
1070
     0
1070
   279
1070
     2
1002
}
  0
LEADER
  5
271
330
1E
100
AcDbEntity
  8
TEXT_BUBBLES
100
AcDbLeader
  3
Standard
 76
     2
 10
3.765827084441137
 20
2.575738135175503
 30
0.0
 10
3.892075038815853
 20
2.070280531940507
 30
0.0
1001
ACAD
1000
DSTYLE
1002
{
1070
   147
1040
0.09
1070
    77
1070
     0
1070
   279
1070
     2
1002
}
  0
LEADER
  5
273
330
1E
100
AcDbEntity
  8
TEXT_BUBBLES
100
AcDbLeader
  3
Standard
 76
     2
 10
4.015653674888747
 20
2.662833237005701
 30
0.0
 10
4.165442504390115
 20
2.063125280341176
 30
0.0
1001
ACAD
1000
DSTYLE
1002
{
1070
   147
1040
0.09
1070
    77
1070
     0
1070
   279
1070
     2
1002
}
  0
LEADER
  5
275
330
1E
100
AcDbEntity
  8
TEXT_BUBBLES
100
AcDbLeader
  3
Standard
 76
     2
 10
4.487053026399804
 20
2.599337109671563
 30
0.0
 10
4.62187975345803
 20
2.059532764734647
 30
0.0
1001
ACAD
1000
DSTYLE
1002
{
1070
   147
1040
0.09
1070
    77
1070
     0
1070
   279
1070
     2
1002
}
  0
TEXT
  5
27C
330
1E
100
AcDbEntity
  8
TEXT_LEADERS
100
AcDbText
 10
5.22616264039956
 20
5.373852901169523
 30
0.0
 40
0.125
  1
FINISH GRADE/TOP OF MULCH
  7
ROMANS
100
AcDbText
  0
TEXT
  5
27D
330
1E
100
AcDbEntity
  8
TEXT_LEADERS
100
AcDbText
 10
5.22616264039956
 20
3.501903190294124
 30
0.0
 40
0.125
  1
PVC SCH 40 STREET ELL
  7
ROMANS
100
AcDbText
  0
TEXT
  5
27E
330
1E
100
AcDbEntity
  8
TEXT_LEADERS
100
AcDbText
 10
5.22616264039956
 20
2.626903190294124
 30
0.0
 40
0.125
  1
PVC LATERAL PIPE
  7
ROMANS
100
AcDbText
  0
LEADER
  5
288
330
1E
100
AcDbEntity
  8
TEXT_LEADERS
100
AcDbLeader
  3
Standard
 76
     2
 10
4.601898187686517
 20
2.698814321127418
 30
0.0
 10
5.14085151938211
 20
2.698814321127418
 30
0.0
1001
ACAD
1000
DSTYLE
1002
{
1070
   147
1040
0.09
1070
    77
1070
     0
1070
   279
1070
     2
1002
}
  0
LEADER
  5
295
330
1E
100
AcDbEntity
  8
TEXT_LEADERS
100
AcDbLeader
  3
Standard
 76
     3
 10
4.009482082839742
 20
4.966331036174679
 30
0.0
 10
4.770810834978902
 20
5.437127196986594
 30
0.0
 10
5.14085151938211
 20
5.437127196986594
 30
0.0
1001
ACAD
1000
DSTYLE
1002
{
1070
   147
1040
0.09
1070
    77
1070
     0
1070
   279
1070
     2
1002
}
  0
LEADER
  5
297
330
1E
100
AcDbEntity
  8
TEXT_LEADERS
100
AcDbLeader
  3
Standard
 76
     3
 10
2.627404140081108
 20
4.137675527321851
 30
0.0
 10
4.770810834978902
 20
5.027059650198815
 30
0.0
 10
5.14085151938211
 20
5.027059650198815
 30
0.0
1001
ACAD
1000
DSTYLE
1002
{
1070
   147
1040
0.09
1070
    77
1070
     0
1070
   279
1070
     2
1002
}
  0
LEADER
  5
298
330
1E
100
AcDbEntity
  8
TEXT_LEADERS
100
AcDbLeader
  3
Standard
 76
     3
 10
2.510617184417811
 20
3.518540708839634
 30
0.0
 10
4.770810834978902
 20
4.408509918818597
 30
0.0
 10
5.146938469749934
 20
4.408509918818597
 30
0.0
1001
ACAD
1000
DSTYLE
1002
{
1070
   147
1040
0.09
1070
    77
1070
     0
1070
   279
1070
     2
1002
}
  0
LEADER
  5
299
330
1E
100
AcDbEntity
  8
TEXT_LEADERS
100
AcDbLeader
  3
Standard
 76
     3
 10
2.51962312426222
 20
3.148969378008991
 30
0.0
 10
4.770810834978902
 20
3.912323649456225
 30
0.0
 10
5.140739921236432
 20
3.912323649456225
 30
0.0
1001
ACAD
1000
DSTYLE
1002
{
1070
   147
1040
0.09
1070
    77
1070
     0
1070
   279
1070
     2
1002
}
  0
LEADER
  5
29B
330
1E
100
AcDbEntity
  8
TEXT_LEADERS
100
AcDbLeader
  3
Standard
 76
     3
 10
2.639598764867544
 20
3.073796225126886
 30
0.0
 10
4.770810834978902
 20
3.56751623257587
 30
0.0
 10
5.140739921236431
 20
3.56751623257587
 30
0.0
1001
ACAD
1000
DSTYLE
1002
{
1070
   147
1040
0.09
1070
    77
1070
     0
1070
   279
1070
     2
1002
}
  0
LEADER
  5
29C
330
1E
100
AcDbEntity
  8
TEXT_LEADERS
100
AcDbLeader
  3
Standard
 76
     3
 10
3.206323496552383
 20
2.94380153649705
 30
0.0
 10
4.770810834978902
 20
3.214298860571856
 30
0.0
 10
5.14085151938211
 20
3.214298860571856
 30
0.0
1001
ACAD
1000
DSTYLE
1002
{
1070
   147
1040
0.09
1070
    77
1070
     0
1070
   279
1070
     2
1002
}
  0
LEADER
  5
29D
330
1E
100
AcDbEntity
  8
TEXT_LEADERS
100
AcDbLeader
  3
Standard
 76
     3
 10
4.016800643854971
 20
2.668449931851034
 30
0.0
 10
4.770810834978902
 20
2.361089939645389
 30
0.0
 10
5.14085151938211
 20
2.361089939645389
 30
0.0
1001
ACAD
1000
DSTYLE
1002
{
1070
   147
1040
0.09
1070
    77
1070
     0
1070
   279
1070
     2
1002
}
  0
LEADER
  5
29E
330
1E
100
AcDbEntity
  8
TEXT_LEADERS
100
AcDbLeader
  3
Standard
 76
     3
 10
3.881622965013841
 20
2.575738135175503
 30
0.0
 10
4.770810834978902
 20
2.018280704880924
 30
0.0
 10
5.14085151938211
 20
2.018280704880923
 30
0.0
1001
ACAD
1000
DSTYLE
1002
{
1070
   147
1040
0.09
1070
    77
1070
     0
1070
   279
1070
     2
1002
}
  0
TEXT
  5
2CF
330
1E
100
AcDbEntity
  8
OPTION-NP
100
AcDbText
 10
6.883513256721035
 20
4.794999999999999
 30
0.0
 40
0.125
  1
  WITH 1800 NP COVER
  7
ROMANS
100
AcDbText
  0
HATCH
  5
2DC
330
1E
100
AcDbEntity
  8
IMAGE
100
AcDbHatch
 10
0.0
 20
0.0
 30
0.0
210
0.0
220
0.0
230
1.0
  2
EARTH
 70
     0
 71
     0
 91
        2
 92
        1
 93
       10
 72
     1
 10
1.385929291125632
 20
4.965180079731688
 11
1.634387502285776
 21
4.59138432344767
 72
     1
 10
1.634387502285776
 20
4.59138432344767
 11
1.836070771882319
 21
4.45365633807467
 72
     1
 10
1.836070771882319
 20
4.45365633807467
 11
2.095189474008353
 21
4.373363785231161
 72
     1
 10
2.095189474008353
 20
4.373363785231161
 11
2.19693220059504
 21
4.361969426828
 72
     1
 10
2.19693220059504
 20
4.361969426828
 11
2.215426355022171
 21
4.361969426828
 72
     1
 10
2.215426355022171
 20
4.361969426828
 11
2.215426355022171
 21
4.7861977743401
 72
     1
 10
2.215426355022171
 20
4.7861977743401
 11
2.14235036713603
 21
4.7861977743401
 72
     1
 10
2.14235036713603
 20
4.7861977743401
 11
2.067988345716984
 21
4.92010290187924
 72
     1
 10
2.067988345716984
 20
4.92010290187924
 11
2.067988345716988
 21
4.966606576296678
 72
     1
 10
2.067988345716988
 20
4.966606576296678
 11
1.385929291125632
 21
4.965180079731688
 97
        0
 92
        1
 93
       10
 72
     1
 10
3.456901203977645
 20
4.965180079731688
 11
3.208442992817502
 21
4.59138432344767
 72
     1
 10
3.208442992817502
 20
4.59138432344767
 11
3.006759723220958
 21
4.45365633807467
 72
     1
 10
3.006759723220958
 20
4.45365633807467
 11
2.747641021094925
 21
4.373363785231161
 72
     1
 10
2.747641021094925
 20
4.373363785231161
 11
2.645898294508238
 21
4.361969426828
 72
     1
 10
2.645898294508238
 20
4.361969426828
 11
2.627404140081107
 21
4.361969426828
 72
     1
 10
2.627404140081107
 20
4.361969426828
 11
2.627404140081107
 21
4.7861977743401
 72
     1
 10
2.627404140081107
 20
4.7861977743401
 11
2.700480127967248
 21
4.7861977743401
 72
     1
 10
2.700480127967248
 20
4.7861977743401
 11
2.774842149386294
 21
4.92010290187924
 72
     1
 10
2.774842149386294
 20
4.92010290187924
 11
2.77484214938629
 21
4.966606576296678
 72
     1
 10
2.77484214938629
 20
4.966606576296678
 11
3.456901203977645
 21
4.965180079731688
 97
        0
 75
     0
 76
     1
 52
45.0
 41
0.75
 77
     0
 78
     6
 53
45.0
 43
0.0
 44
0.0
 45
0.0
 46
0.2651650429449553
 79
     2
 49
0.1875
 49
-0.1875
 53
45.0
 43
-0.0497184455521791
 44
0.0497184455521791
 45
0.0
 46
0.2651650429449553
 79
     2
 49
0.1875
 49
-0.1875
 53
45.0
 43
-0.0994368911043583
 44
0.0994368911043583
 45
0.0
 46
0.2651650429449553
 79
     2
 49
0.1875
 49
-0.1875
 53
135.0
 43
-0.0994368911043583
 44
0.1325825214724777
 45
-0.2651650429449553
 46
0.0
 79
     2
 49
0.1875
 49
-0.1875
 53
135.0
 43
-0.0497184455521791
 44
0.1823009670246568
 45
-0.2651650429449553
 46
0.0
 79
     2
 49
0.1875
 49
-0.1875
 53
135.0
 43
0.0
 44
0.2320194125768359
 45
-0.2651650429449553
 46
0.0
 79
     2
 49
0.1875
 49
-0.1875
 98
        1
 10
0.0
 20
0.0
  0
CIRCLE
  5
359
330
1E
100
AcDbEntity
  8
OPTION-VPC
100
AcDbCircle
 10
2.423333297537552
 20
4.851494968088781
 30
0.0
 40
0.0139560404963533
  0
TEXT
  5
3C4
330
1E
100
AcDbEntity
  8
INSTRUCT-OPTION
100
AcDbText
 10
11.66502823218926
 20
7.364783748576554
 30
0.0
 40
0.125
  1
BY TURNING ON THE APPROPRIATE LAYER:
  7
ROMANS
100
AcDbText
  0
TEXT
  5
3C5
330
1E
100
AcDbEntity
  8
INSTRUCT-OPTION
100
AcDbText
 10
11.66502823218926
 20
6.734690446428908
 30
0.0
 40
0.125
  1
  OPTION-NOZ-PLASTIC
  7
ROMANS
100
AcDbText
  0
TEXT
  5
3C6
330
1E
100
AcDbEntity
  8
INSTRUCT-OPTION
100
AcDbText
 10
11.44370692389068
 20
7.80549858673732
 30
0.0
 40
0.125
  1
CHOOSING NOZZLES AND OPTIONAL FEATURES
  7
ROMANS
100
AcDbText
  0
TEXT
  5
3C7
330
1E
100
AcDbEntity
  8
INSTRUCT-OPTION
100
AcDbText
 10
11.45324007352052
 20
2.891246275841287
 30
0.0
 40
0.125
  1
TO TURN OFF THIS INSTRUCTION BOX, TURN OFF
  7
ROMANS
100
AcDbText
  0
TEXT
  5
3C8
330
1E
100
AcDbEntity
  8
INSTRUCT-OPTION
100
AcDbText
 10
11.45324007352052
 20
2.678845561557285
 30
0.0
 40
0.125
  1
LAYER "INSTRUCT-OPTION".
  7
ROMANS
100
AcDbText
  0
TEXT
  5
3C9
330
1E
100
AcDbEntity
  8
INSTRUCT-OPTION
100
AcDbText
 10
11.66502823218926
 20
6.064558874706612
 30
0.0
 40
0.125
  1
  OPTION-NOZ-U-SERIES
  7
ROMANS
100
AcDbText
  0
TEXT
  5
3CA
330
1E
100
AcDbEntity
  8
INSTRUCT-OPTION
100
AcDbText
 10
11.66502823218926
 20
5.52876200485341
 30
0.0
 40
0.125
  1
  OPTION-NOZ-VAN
  7
ROMANS
100
AcDbText
  0
TEXT
  5
3CB
330
1E
100
AcDbEntity
  8
INSTRUCT-OPTION
100
AcDbText
 10
11.66502823218926
 20
7.539783748576555
 30
0.0
 40
0.125
  1
CHOOSE A DIFFERENT SPRINKLER NOZZLE 
  7
ROMANS
100
AcDbText
  0
TEXT
  5
3CC
330
1E
100
AcDbEntity
  8
INSTRUCT-OPTION
100
AcDbText
 10
11.66502823218926
 20
3.552681280154158
 30
0.0
 40
0.125
  1
%%uNON-POTABLE CAP%%u
  7
ROMANS
100
AcDbText
  0
TEXT
  5
3CD
330
1E
100
AcDbEntity
  8
INSTRUCT-OPTION
100
AcDbText
 10
11.66502823218926
 20
6.960551618559795
 30
0.0
 40
0.125
  1
%%uPLASTIC MPR NOZZLE%%u
  7
ROMANS
100
AcDbText
  0
TEXT
  5
3CE
330
1E
100
AcDbEntity
  8
INSTRUCT-OPTION
100
AcDbText
 10
11.66502823218926
 20
4.076426749584899
 30
0.0
 40
0.125
  1
%%uVANDAL-PROOF CAP%%u
  7
ROMANS
100
AcDbText
  0
TEXT
  5
3CF
330
1E
100
AcDbEntity
  8
INSTRUCT-OPTION
100
AcDbText
 10
11.66502823218926
 20
3.821333054267651
 30
0.0
 40
0.125
  1
  OPTION-VPC
  7
ROMANS
100
AcDbText
  0
TEXT
  5
3D0
330
1E
100
AcDbEntity
  8
INSTRUCT-OPTION
100
AcDbText
 10
11.66502823218926
 20
3.29633305426765
 30
0.0
 40
0.125
  1
  OPTION-NP
  7
ROMANS
100
AcDbText
  0
LINE
  5
3D1
330
1E
100
AcDbEntity
  8
INSTRUCT-OPTION
100
AcDbLine
 10
11.45988283133142
 20
7.761600303520294
 30
0.0
 11
16.05237509760495
 21
7.761600303520292
 31
0.0
  0
LINE
  5
3D2
330
1E
100
AcDbEntity
  8
INSTRUCT-OPTION
100
AcDbLine
 10
16.05237509760496
 20
7.761600303520294
 30
0.0
 11
16.05237509760496
 21
3.08767061745274
 31
0.0
  0
LINE
  5
3D3
330
1E
100
AcDbEntity
  8
INSTRUCT-OPTION
100
AcDbLine
 10
16.05237509760495
 20
3.08767061745274
 30
0.0
 11
11.45988283133142
 21
3.087670617452741
 31
0.0
  0
LINE
  5
3D4
330
1E
100
AcDbEntity
  8
INSTRUCT-OPTION
100
AcDbLine
 10
11.45988283133143
 20
3.087670617452741
 30
0.0
 11
11.45988283133142
 21
7.761600303520294
 31
0.0
  0
TEXT
  5
3D5
330
1E
100
AcDbEntity
  8
INSTRUCT-OPTION
100
AcDbText
 10
11.66502823218926
 20
4.553225329780619
 30
0.0
 40
0.125
  1
CHOOSE ONE OF THE FOLLOWING CAPS 
  7
ROMANS
100
AcDbText
  0
TEXT
  5
3D6
330
1E
100
AcDbEntity
  8
INSTRUCT-OPTION
100
AcDbText
 10
11.66502823218926
 20
4.378225329780618
 30
0.0
 40
0.125
  1
BY TURNING ON THE APPROPRIATE LAYER:
  7
ROMANS
100
AcDbText
  0
TEXT
  5
3D7
330
1E
100
AcDbEntity
  8
INSTRUCT-OPTION
100
AcDbText
 10
11.66502823218926
 20
6.354928292849162
 30
0.0
 40
0.125
  1
%%uU-SERIES NOZZLE%%u
  7
ROMANS
100
AcDbText
  0
TEXT
  5
3D8
330
1E
100
AcDbEntity
  8
INSTRUCT-OPTION
100
AcDbText
 10
11.66502823218926
 20
5.736419406928998
 30
0.0
 40
0.125
  1
%%uVAN NOZZLE%%u
  7
ROMANS
100
AcDbText
  0
TEXT
  5
3EE
330
1E
100
AcDbEntity
  8
OPTION-NOZ-ROTARY
100
AcDbText
 10
5.22616264039956
 20
4.62
 30
0.0
 40
0.125
  1
  WITH RAIN BIRD ROTARY NOZZLE
  7
ROMANS
100
AcDbText
  0
TEXT
  5
3F0
330
1E
100
AcDbEntity
  8
INSTRUCT-OPTION
100
AcDbText
 10
11.66502823218926
 20
5.166891107936118
 30
0.0
 40
0.125
  1
%%uROTARY NOZZLE%%u
  7
ROMANS
100
AcDbText
  0
TEXT
  5
3F1
330
1E
100
AcDbEntity
  8
INSTRUCT-OPTION
100
AcDbText
 10
11.66502823218926
 20
4.95923370586053
 30
0.0
 40
0.125
  1
  OPTION-NOZ-ROTARY
  7
ROMANS
100
AcDbText
  0
ENDSEC
  0
SECTION
  2
OBJECTS
  0
DICTIONARY
  5
C
330
0
100
AcDbDictionary
281
     1
  3
ACAD_GROUP
350
D
  3
ACAD_LAYOUT
350
19
  3
ACAD_MLINESTYLE
350
16
  3
ACAD_PLOTSETTINGS
350
18
  3
ACAD_PLOTSTYLENAME
350
E
  3
AcadDim
350
29A
  3
AcDbVariableDictionary
350
235
  0
DICTIONARY
  5
367
330
2
100
AcDbDictionary
280
     1
281
     1
  3
ACAD_LAYERFILTERS
360
3DA
  3
ACAD_LAYERSTATES
360
368
  0
DICTIONARY
  5
D
102
{ACAD_REACTORS
330
C
102
}
330
C
100
AcDbDictionary
281
     1
  0
DICTIONARY
  5
19
102
{ACAD_REACTORS
330
C
102
}
330
C
100
AcDbDictionary
281
     1
  3
Layout1
350
1D
  3
Model
350
21
  0
DICTIONARY
  5
16
102
{ACAD_REACTORS
330
C
102
}
330
C
100
AcDbDictionary
281
     1
  3
Standard
350
17
  0
DICTIONARY
  5
18
102
{ACAD_REACTORS
330
C
102
}
330
C
100
AcDbDictionary
281
     1
  3
1055 B&W Full Shaded Draft
350
2A3
  3
1055 B&W Full Shaded Final
350
2A4
  3
1055 Color Full Shaded Draft
350
2A5
  3
1055 Color Full Shaded Final
350
2A6
  3
1055 PLUS B&W Full Shaded Draft
350
2A7
  3
1055 PLUS B&W Full Shaded Final
350
2A8
  3
1055 PLUS Color Full Shaded Draft
350
2A9
  3
1055 PLUS Color Full Shaded Final
350
2AA
  3
1055-B&W-Shaded-Draft
350
2AB
  3
1055-B&W-Shaded-Final
350
2AC
  3
1055-Color-Shaded-Draft
350
2AD
  3
1055-Color-Shaded-Final
350
2AE
  3
1055-PLUS-B&W-Shaded-Draft
350
2AF
  3
1055-PLUS-B&W-Shaded-Final
350
2B0
  3
1055-PLUS-Color-Shaded-Draft
350
2B1
  3
1055-PLUS-Color-Shaded-Final
350
2B2
  3
2200 Color Inkjet
350
2B3
  3
2200-Color-Inkjet
350
2B4
  3
24x36 PDF
350
2B5
  3
8500 B&W Shaded 11x17
350
2B6
  3
8500 B&W Shaded 8.5x11
350
2B7
  3
8500 Color Shaded 11x17
350
2B8
  3
8500 Color Shaded 8.5x11
350
2B9
  3
8500-B&W-Shaded-11x17
350
2BA
  3
8500-B&W-Shaded-8.5x11
350
2BB
  3
8500-Color-Shaded-11x17
350
2BC
  3
8500-Color-Shaded-8.5x11
350
2BD
  3
Laser Jet 5 Shaded 11x17
350
2BE
  3
Laser Jet 5 Shaded 8.5x11
350
2BF
  3
LaserJet5-Shaded-11x17
350
2C0
  3
LaserJet5-Shaded-8.5x11
350
2C1
  3
Oki Doki B&W Shaded 11x17
350
2C2
  3
Oki Doki B&W Shaded 8.5x11
350
2C3
  3
Oki Doki Color Laser
350
2C4
  3
Oki Doki Color Shaded 11x17
350
2C5
  3
Oki Doki Color Shaded 8.5x11
350
2C6
  3
Oki-Doki-B&W-Shaded-11x17
350
2C7
  3
Oki-Doki-B&W-Shaded-8.5x11
350
2C8
  3
Oki-Doki-Color-Laser
350
2C9
  3
Oki-Doki-Color-Shaded-11x17
350
2CA
  3
Oki-Doki-Color-Shaded-8.5x11
350
2CB
  0
ACDBDICTIONARYWDFLT
  5
E
102
{ACAD_REACTORS
330
C
102
}
330
C
100
AcDbDictionary
281
     1
  3
Normal
350
F
100
AcDbDictionaryWithDefault
340
F
  0
XRECORD
  5
29A
102
{ACAD_REACTORS
330
C
102
}
330
C
100
AcDbXrecord
280
     1
 90
   990106
  3

 60
     4
 61
     0
 62
     1
 63
     3
 64
     0
 65
     0
 66
     0
 67
     3
 68
     1
 69
     0
 70
     0
 71
     0
 72
     0
 40
0.0
170
     0
  0
DICTIONARY
  5
235
102
{ACAD_REACTORS
330
C
102
}
330
C
100
AcDbDictionary
281
     1
  3
DIMASSOC
350
238
  3
HIDETEXT
350
237
  3
SORTENTS
350
236
  0
DICTIONARY
  5
3DA
102
{ACAD_REACTORS
330
367
102
}
330
367
100
AcDbDictionary
280
     1
281
     1
  0
DICTIONARY
  5
368
102
{ACAD_REACTORS
330
367
102
}
330
367
100
AcDbDictionary
281
     1
  0
LAYOUT
  5
1D
102
{ACAD_REACTORS
330
19
102
}
330
19
100
AcDbPlotSettings
  1

  2
S:\AutoCAD 2002\Plotters\1055B&WDraftShaded.pc3
  4

  6

 40
0.0
 41
0.0
 42
0.0
 43
0.0
 44
0.0
 45
0.0
 46
0.0
 47
0.0
 48
0.0
 49
0.0
140
0.0
141
0.0
142
1.0
143
1.0
 70
   688
 72
     0
 73
     0
 74
     5
  7

 75
    16
147
1.0
148
0.0
149
0.0
100
AcDbLayout
  1
Layout1
 70
     1
 71
     1
 10
0.0
 20
0.0
 11
12.0
 21
9.0
 12
0.0
 22
0.0
 32
0.0
 14
1.000000000000000E+20
 24
1.000000000000000E+20
 34
1.000000000000000E+20
 15
-1.000000000000000E+20
 25
-1.000000000000000E+20
 35
-1.000000000000000E+20
146
0.0
 13
0.0
 23
0.0
 33
0.0
 16
1.0
 26
0.0
 36
0.0
 17
0.0
 27
1.0
 37
0.0
 76
     0
330
1A
  0
LAYOUT
  5
21
102
{ACAD_REACTORS
330
19
102
}
330
19
100
AcDbPlotSettings
  1

  2
OKI DOKI Color Laser.pc3
  4
Tabloid
  6
PS1
 40
5.027083396911621
 41
5.027085304260253
 42
5.027099609375
 43
5.027069091796875
 44
279.3999938964843
 45
431.7999877929687
 46
1.27
 47
0.0
 48
0.0
 49
0.0000000000000001
140
16.48999999999999
141
10.44
142
1.0
143
0.9931242156595709
 70
 11956
 72
     0
 73
     1
 74
     3
  7
OKIColorShaded.ctb
 75
     0
147
1.006923388063659
148
0.0000000000000115
149
0.0
100
AcDbLayout
  1
Model
 70
     1
 71
     0
 10
0.0
 20
0.0
 11
12.0
 21
9.0
 12
0.0
 22
0.0
 32
0.0
 14
0.0
 24
0.0
 34
0.0
 15
0.0
 25
0.0
 35
0.0
146
0.0
 13
0.0
 23
0.0
 33
0.0
 16
1.0
 26
0.0
 36
0.0
 17
0.0
 27
1.0
 37
0.0
 76
     0
330
1E
  0
MLINESTYLE
  5
17
102
{ACAD_REACTORS
330
16
102
}
330
16
100
AcDbMlineStyle
  2
STANDARD
 70
     0
  3

 62
   256
 51
90.0
 52
90.0
 71
     2
 49
0.5
 62
   256
  6
BYLAYER
 49
-0.5
 62
   256
  6
BYLAYER
  0
PLOTSETTINGS
  5
2A3
102
{ACAD_REACTORS
330
18
102
}
330
18
100
AcDbPlotSettings
  1
1055 B&W Full Shaded Draft
  2
1055B&WDraftShaded.pc3
  4
User607
  6
ps1
 40
0.0
 41
0.0
 42
0.0
 43
0.0
 44
901.7000122070312
 45
1155.700073242187
 46
0.0
 47
0.0
 48
180377.877572
 49
80019.819395
140
180380.8390819999
141
80022.26069
142
1.0
143
1.0
 70
   688
 72
     0
 73
     2
 74
     3
  7
1055B&WFullDraftShaded.ctb
 75
    16
147
1.0
148
-4581603.303200401
149
-2032962.095032944
  0
PLOTSETTINGS
  5
2A4
102
{ACAD_REACTORS
330
18
102
}
330
18
100
AcDbPlotSettings
  1
1055 B&W Full Shaded Final
  2
1055B&WFinalShaded.pc3
  4
User257
  6
PS1
 40
4.995333194732666
 41
8.297271728515625
 42
4.99530029296875
 43
8.29736328125
 44
911.6906738281249
 45
1172.294677734375
 46
0.0
 47
0.0
 48
180377.877572
 49
80019.819395
140
180380.8390819999
141
80022.26069
142
1.0
143
1.0
 70
   688
 72
     0
 73
     3
 74
     3
  7
1055B&WFullFinalShaded.ctb
 75
    16
147
1.0
148
-4581603.303200401
149
-2032962.095032944
  0
PLOTSETTINGS
  5
2A5
102
{ACAD_REACTORS
330
18
102
}
330
18
100
AcDbPlotSettings
  1
1055 Color Full Shaded Draft
  2
1055ColorDraftShaded.pc3
  4
User607
  6
PS1
 40
0.0
 41
0.0
 42
0.0
 43
0.0
 44
901.7000122070312
 45
1155.700073242187
 46
0.0
 47
0.0
 48
180377.877572
 49
80019.819395
140
180380.8390819999
141
80022.26069
142
1.0
143
1.0
 70
   688
 72
     0
 73
     2
 74
     3
  7
1055ColorFullDraftShaded.ctb
 75
    16
147
1.0
148
-4581603.303200401
149
-2032962.095032944
  0
PLOTSETTINGS
  5
2A6
102
{ACAD_REACTORS
330
18
102
}
330
18
100
AcDbPlotSettings
  1
1055 Color Full Shaded Final
  2
1055ColorFinalShaded.pc3
  4
User607
  6
PS1
 40
0.0
 41
0.0
 42
0.0
 43
0.0
 44
901.7000122070312
 45
1155.700073242187
 46
0.0
 47
0.0
 48
180377.877572
 49
80019.819395
140
180380.8390819999
141
80022.26069
142
1.0
143
1.0
 70
   688
 72
     0
 73
     2
 74
     3
  7
1055ColorFullFinalShaded.ctb
 75
    16
147
1.0
148
-4581603.303200401
149
-2032962.095032944
  0
PLOTSETTINGS
  5
2A7
102
{ACAD_REACTORS
330
18
102
}
330
18
100
AcDbPlotSettings
  1
1055 PLUS B&W Full Shaded Draft
  2
1055_PLUS_B&WDraftShaded.pc3
  4
User257
  6
ps1
 40
4.995333194732666
 41
8.297393798828125
 42
4.99530029296875
 43
8.29736328125
 44
901.6152954101562
 45
1155.615356445312
 46
0.0
 47
0.0
 48
180377.877572
 49
80019.819395
140
180380.8390819999
141
80022.26069
142
1.0
143
1.0
 70
   688
 72
     0
 73
     3
 74
     5
  7
1055B&WFullDraftShaded.ctb
 75
    16
147
1.0
148
-4581603.303200401
149
-2032962.095032944
  0
PLOTSETTINGS
  5
2A8
102
{ACAD_REACTORS
330
18
102
}
330
18
100
AcDbPlotSettings
  1
1055 PLUS B&W Full Shaded Final
  2
1055_PLUS_B&WFinalShaded.pc3
  4
User257
  6
PS1
 40
4.995333194732666
 41
8.297271728515625
 42
4.99530029296875
 43
8.29736328125
 44
901.6576538085937
 45
1155.657592773437
 46
0.0
 47
0.0
 48
180377.877572
 49
80019.819395
140
180380.8390819999
141
80022.26069
142
1.0
143
1.0
 70
   688
 72
     0
 73
     3
 74
     5
  7
1055B&WFullFinalShaded.ctb
 75
    16
147
1.0
148
-4581603.303200401
149
-2032962.095032944
  0
PLOTSETTINGS
  5
2A9
102
{ACAD_REACTORS
330
18
102
}
330
18
100
AcDbPlotSettings
  1
1055 PLUS Color Full Shaded Draft
  2
1055_PLUS_ColorDraftShaded.pc3
  4
User257
  6
PS1
 40
4.995333194732666
 41
8.297393798828125
 42
4.99530029296875
 43
8.29736328125
 44
901.6152954101562
 45
1155.615356445312
 46
0.0
 47
0.0
 48
180377.877572
 49
80019.819395
140
180380.8390819999
141
80022.26069
142
1.0
143
1.0
 70
   688
 72
     0
 73
     3
 74
     5
  7
1055ColorFullDraftShaded.ctb
 75
    16
147
1.0
148
-4581603.303200401
149
-2032962.095032944
  0
PLOTSETTINGS
  5
2AA
102
{ACAD_REACTORS
330
18
102
}
330
18
100
AcDbPlotSettings
  1
1055 PLUS Color Full Shaded Final
  2
1055_PLUS_ColorFinalShaded.pc3
  4
User257
  6
PS1
 40
4.995333194732666
 41
8.297271728515625
 42
4.99530029296875
 43
8.29736328125
 44
901.6576538085937
 45
1155.657592773437
 46
0.0
 47
0.0
 48
180377.877572
 49
80019.819395
140
180380.8390819999
141
80022.26069
142
1.0
143
1.0
 70
   688
 72
     0
 73
     3
 74
     5
  7
1055ColorFullFinalShaded.ctb
 75
    16
147
1.0
148
-4581603.303200401
149
-2032962.095032944
  0
PLOTSETTINGS
  5
2AB
102
{ACAD_REACTORS
330
18
102
}
330
18
100
AcDbPlotSettings
  1
1055-B&W-Shaded-Draft
  2
1055B&WDraftShaded.pc3
  4
User257
  6

 40
4.995333194732666
 41
8.297393798828125
 42
4.99530029296875
 43
8.29736328125
 44
901.6152954101562
 45
1155.615356445312
 46
0.0
 47
0.0
 48
180360.0524337165
 49
80033.77936194791
140
180369.1574725906
141
80037.61796031875
142
1.0
143
30.0
 70
  1696
 72
     0
 73
     1
 74
     1
  7
1055B&WFullDraftShaded.ctb
 75
     0
147
0.0333333333333333
148
-190.0773302744904
149
-129.2444057835751
  0
PLOTSETTINGS
  5
2AC
102
{ACAD_REACTORS
330
18
102
}
330
18
100
AcDbPlotSettings
  1
1055-B&W-Shaded-Final
  2
1055B&WFinalShaded.pc3
  4
User607
  6

 40
0.0
 41
0.0
 42
0.0
 43
0.0
 44
901.7000122070312
 45
1155.700073242187
 46
0.0
 47
0.0
 48
180360.0524337165
 49
80033.77936194791
140
180369.1574725906
141
80037.61796031875
142
1.0
143
30.0
 70
  1696
 72
     0
 73
     1
 74
     1
  7
1055B&WFullFinalShaded.ctb
 75
     0
147
0.0333333333333333
148
-190.0773302744904
149
-129.2444057835751
  0
PLOTSETTINGS
  5
2AD
102
{ACAD_REACTORS
330
18
102
}
330
18
100
AcDbPlotSettings
  1
1055-Color-Shaded-Draft
  2
1055ColorDraftShaded.pc3
  4
User257
  6

 40
4.995333194732666
 41
8.297393798828125
 42
4.99530029296875
 43
8.29736328125
 44
901.6152954101562
 45
1155.615356445312
 46
0.0
 47
0.0
 48
180360.0524337165
 49
80033.77936194791
140
180369.1574725906
141
80037.61796031875
142
1.0
143
30.0
 70
  1696
 72
     0
 73
     1
 74
     1
  7
1055ColorFullDraftShaded.ctb
 75
     0
147
0.0333333333333333
148
-190.0773302744904
149
-129.2444057835751
  0
PLOTSETTINGS
  5
2AE
102
{ACAD_REACTORS
330
18
102
}
330
18
100
AcDbPlotSettings
  1
1055-Color-Shaded-Final
  2
1055ColorDraftShaded.pc3
  4
User257
  6

 40
4.995333194732666
 41
8.297393798828125
 42
4.99530029296875
 43
8.29736328125
 44
901.6152954101562
 45
1155.615356445312
 46
0.0
 47
0.0
 48
180360.0524337165
 49
80033.77936194791
140
180369.1574725906
141
80037.61796031875
142
1.0
143
30.0
 70
  1696
 72
     0
 73
     1
 74
     1
  7
1055ColorFullFinalShaded.ctb
 75
     0
147
0.0333333333333333
148
-190.0773302744904
149
-129.2444057835751
  0
PLOTSETTINGS
  5
2AF
102
{ACAD_REACTORS
330
18
102
}
330
18
100
AcDbPlotSettings
  1
1055-PLUS-B&W-Shaded-Draft
  2
1055_PLUS_B&WDraftShaded.pc3
  4
User257
  6

 40
4.995333194732666
 41
8.297393798828125
 42
4.99530029296875
 43
8.29736328125
 44
901.6152954101562
 45
1155.615356445312
 46
0.0
 47
0.0
 48
180360.0524337165
 49
80033.77936194791
140
180369.1574725906
141
80037.61796031875
142
1.0
143
30.0
 70
  1696
 72
     0
 73
     1
 74
     0
  7
1055B&WFullDraftShaded.ctb
 75
     0
147
0.0333333333333333
148
0.9506237099442845
149
8.593888772447144
  0
PLOTSETTINGS
  5
2B0
102
{ACAD_REACTORS
330
18
102
}
330
18
100
AcDbPlotSettings
  1
1055-PLUS-B&W-Shaded-Final
  2
1055_PLUS_B&WFinalShaded.pc3
  4
User257
  6

 40
4.995333194732666
 41
8.297271728515625
 42
4.99530029296875
 43
8.29736328125
 44
901.6576538085937
 45
1155.657592773437
 46
0.0
 47
0.0
 48
180360.0524337165
 49
80033.77936194791
140
180369.1574725906
141
80037.61796031875
142
1.0
143
30.0
 70
  1696
 72
     0
 73
     1
 74
     0
  7
1055B&WFullFinalShaded.ctb
 75
     0
147
0.0333333333333333
148
0.9506237099442845
149
8.593888772447144
  0
PLOTSETTINGS
  5
2B1
102
{ACAD_REACTORS
330
18
102
}
330
18
100
AcDbPlotSettings
  1
1055-PLUS-Color-Shaded-Draft
  2
1055_PLUS_ColorDraftShaded.pc3
  4
User257
  6

 40
4.995333194732666
 41
8.297393798828125
 42
4.99530029296875
 43
8.29736328125
 44
901.6152954101562
 45
1155.615356445312
 46
0.0
 47
0.0
 48
180360.0524337165
 49
80033.77936194791
140
180369.1574725906
141
80037.61796031875
142
1.0
143
30.0
 70
  1696
 72
     0
 73
     1
 74
     0
  7
1055ColorFullDraftShaded.ctb
 75
     0
147
0.0333333333333333
148
0.9506237099442845
149
8.593888772447144
  0
PLOTSETTINGS
  5
2B2
102
{ACAD_REACTORS
330
18
102
}
330
18
100
AcDbPlotSettings
  1
1055-PLUS-Color-Shaded-Final
  2
1055_PLUS_ColorFinalShaded.pc3
  4
User257
  6

 40
4.995333194732666
 41
8.297271728515625
 42
4.99530029296875
 43
8.29736328125
 44
901.6576538085937
 45
1155.657592773437
 46
0.0
 47
0.0
 48
180360.0524337165
 49
80033.77936194791
140
180369.1574725906
141
80037.61796031875
142
1.0
143
30.0
 70
  1696
 72
     0
 73
     1
 74
     0
  7
1055ColorFullFinalShaded.ctb
 75
     0
147
0.0333333333333333
148
0.9506237099442845
149
8.593888772447144
  0
PLOTSETTINGS
  5
2B3
102
{ACAD_REACTORS
330
18
102
}
330
18
100
AcDbPlotSettings
  1
2200 Color Inkjet
  2
HP  2200 Color Inkjet.pc3
  4
Letter
  6
PS1
 40
7.143749713897705
 41
12.47775650024414
 42
7.14373779296875
 43
3.17498779296875
 44
215.8999938964843
 45
279.3999938964843
 46
0.0
 47
0.0
 48
180377.877572
 49
80019.819395
140
180380.8390819999
141
80022.26069
142
1.0
143
0.3486331030131726
 70
   688
 72
     0
 73
     1
 74
     3
  7
Color.ctb
 75
     0
147
2.868344948764708
148
-4581603.303200401
149
-2032962.095032944
  0
PLOTSETTINGS
  5
2B4
102
{ACAD_REACTORS
330
18
102
}
330
18
100
AcDbPlotSettings
  1
2200-Color-Inkjet
  2
HP  2200 Color Inkjet.pc3
  4
Letter
  6

 40
7.143749713897705
 41
12.47775650024414
 42
7.14373779296875
 43
3.17498779296875
 44
215.8999938964843
 45
279.3999938964843
 46
0.0
 47
0.0
 48
180360.0524337165
 49
80033.77936194791
140
180369.1574725906
141
80037.61796031875
142
1.0
143
0.069393053089765
 70
  1712
 72
     0
 73
     1
 74
     1
  7
Color.ctb
 75
     0
147
14.41066440334347
148
-190.0773302744904
149
-129.2444057835751
  0
PLOTSETTINGS
  5
2B5
102
{ACAD_REACTORS
330
18
102
}
330
18
100
AcDbPlotSettings
  1
24x36 PDF
  2
Bluebeam PDF Printer.pc3
  4
User128
  6
PS1
 40
3.174999952316284
 41
3.174999952316284
 42
3.17498779296875
 43
3.17498779296875
 44
609.5999755859375
 45
914.3999633789062
 46
270.5099999999999
 47
416.3059999999999
 48
180377.877572
 49
80019.819395
140
180380.8390819999
141
80022.26069
142
1.0
143
1.0
 70
   692
 72
     0
 73
     1
 74
     4
  7
1055B&WFullDraftShaded.ctb
 75
    16
147
1.0
148
-4581598.0903288
149
-2032503.412632999
  0
PLOTSETTINGS
  5
2B6
102
{ACAD_REACTORS
330
18
102
}
330
18
100
AcDbPlotSettings
  1
8500 B&W Shaded 11x17
  2
8500B&WShaded.pc3
  4
11x17
  6
PS1
 40
5.027083396911621
 41
5.027085304260253
 42
5.027099609375
 43
5.027069091796875
 44
279.3999938964843
 45
431.7999877929687
 46
0.0
 47
92.964
 48
180377.877572
 49
80019.819395
140
180380.8390819999
141
80022.26069
142
1.0
143
0.0116192543742624
 70
   692
 72
     0
 73
     1
 74
     3
  7
8500B&WShaded.ctb
 75
     0
147
86.06404230335863
148
-4581651.879813895
149
-2032998.63613423
  0
PLOTSETTINGS
  5
2B7
102
{ACAD_REACTORS
330
18
102
}
330
18
100
AcDbPlotSettings
  1
8500 B&W Shaded 8.5x11
  2
8500B&WShaded.pc3
  4
Letter
  6
PS1
 40
5.027083396911621
 41
5.027085304260253
 42
5.027084350585937
 43
5.027069091796875
 44
215.8999938964843
 45
279.3999938964843
 46
0.0
 47
44.44999999999999
 48
180377.877572
 49
80019.819395
140
180380.8390819999
141
80022.26069
142
1.0
143
0.0152035994604527
 70
   692
 72
     0
 73
     1
 74
     3
  7
8500B&WShaded.ctb
 75
     0
147
65.77389799048455
148
-4581651.879813895
149
-2032998.63613423
  0
PLOTSETTINGS
  5
2B8
102
{ACAD_REACTORS
330
18
102
}
330
18
100
AcDbPlotSettings
  1
8500 Color Shaded 11x17
  2
8500ColorShaded.pc3
  4
11x17
  6
PS1
 40
5.027083396911621
 41
5.027085304260253
 42
5.027099609375
 43
5.027069091796875
 44
279.3999938964843
 45
431.7999877929687
 46
0.0
 47
92.964
 48
180377.877572
 49
80019.819395
140
180380.8390819999
141
80022.26069
142
1.0
143
0.0116192543742624
 70
   692
 72
     0
 73
     1
 74
     3
  7
8500ColorShaded.ctb
 75
     0
147
86.06404230335863
148
-4581651.879813895
149
-2032998.63613423
  0
PLOTSETTINGS
  5
2B9
102
{ACAD_REACTORS
330
18
102
}
330
18
100
AcDbPlotSettings
  1
8500 Color Shaded 8.5x11
  2
8500ColorShaded.pc3
  4
Letter
  6
PS1
 40
5.027083396911621
 41
5.027085304260253
 42
5.027084350585937
 43
5.027069091796875
 44
215.8999938964843
 45
279.3999938964843
 46
0.0
 47
44.44999999999999
 48
180377.877572
 49
80019.819395
140
180380.8390819999
141
80022.26069
142
1.0
143
0.0152035994604527
 70
   692
 72
     0
 73
     1
 74
     3
  7
8500ColorShaded.ctb
 75
     0
147
65.77389799048455
148
-4581651.879813895
149
-2032998.63613423
  0
PLOTSETTINGS
  5
2BA
102
{ACAD_REACTORS
330
18
102
}
330
18
100
AcDbPlotSettings
  1
8500-B&W-Shaded-11x17
  2
8500B&WShaded.pc3
  4
11x17
  6

 40
5.027083396911621
 41
5.027085304260253
 42
5.027099609375
 43
5.027069091796875
 44
279.3999938964843
 45
431.7999877929687
 46
0.0
 47
0.0
 48
180360.0524337165
 49
80033.77936194791
140
180369.1574725906
141
80037.61796031875
142
1.0
143
0.0519425466957002
 70
  1712
 72
     0
 73
     1
 74
     1
  7
8500B&WShaded.ctb
 75
     0
147
19.252040256293
148
-190.0773302744904
149
-129.2444057835751
  0
PLOTSETTINGS
  5
2BB
102
{ACAD_REACTORS
330
18
102
}
330
18
100
AcDbPlotSettings
  1
8500-B&W-Shaded-8.5x11
  2
8500B&WShaded.pc3
  4
Letter
  6

 40
5.027083396911621
 41
5.027085304260253
 42
5.027084350585937
 43
5.027069091796875
 44
215.8999938964843
 45
279.3999938964843
 46
0.0
 47
0.0
 48
180360.0524337165
 49
80033.77936194791
140
180369.1574725906
141
80037.61796031875
142
1.0
143
0.0679659511256221
 70
  1712
 72
     0
 73
     1
 74
     1
  7
8500B&WShaded.ctb
 75
     0
147
14.71324955273106
148
-190.0773302744904
149
-129.2444057835751
  0
PLOTSETTINGS
  5
2BC
102
{ACAD_REACTORS
330
18
102
}
330
18
100
AcDbPlotSettings
  1
8500-Color-Shaded-11x17
  2
8500ColorShaded.pc3
  4
11x17
  6

 40
5.027083396911621
 41
5.027085304260253
 42
5.027099609375
 43
5.027069091796875
 44
279.3999938964843
 45
431.7999877929687
 46
0.0
 47
0.0
 48
180360.0524337165
 49
80033.77936194791
140
180369.1574725906
141
80037.61796031875
142
1.0
143
0.0519425466957002
 70
  1712
 72
     0
 73
     1
 74
     1
  7
8500ColorShaded.ctb
 75
     0
147
19.252040256293
148
-190.0773302744904
149
-129.2444057835751
  0
PLOTSETTINGS
  5
2BD
102
{ACAD_REACTORS
330
18
102
}
330
18
100
AcDbPlotSettings
  1
8500-Color-Shaded-8.5x11
  2
8500ColorShaded.pc3
  4
Letter
  6

 40
5.027083396911621
 41
5.027085304260253
 42
5.027084350585937
 43
5.027069091796875
 44
215.8999938964843
 45
279.3999938964843
 46
0.0
 47
0.0
 48
180360.0524337165
 49
80033.77936194791
140
180369.1574725906
141
80037.61796031875
142
1.0
143
0.0679659511256221
 70
  1712
 72
     0
 73
     1
 74
     1
  7
8500ColorShaded.ctb
 75
     0
147
14.71324955273106
148
-190.0773302744904
149
-129.2444057835751
  0
PLOTSETTINGS
  5
2BE
102
{ACAD_REACTORS
330
18
102
}
330
18
100
AcDbPlotSettings
  1
Laser Jet 5 Shaded 11x17
  2
LaserJet5Shaded.pc3
  4
11x17
  6
PS1
 40
7.143749713897705
 41
5.873736858367919
 42
7.143768310546875
 43
7.14373779296875
 44
279.3999938964843
 45
431.7999877929687
 46
0.0
 47
29.71799999999999
 48
180377.877572
 49
80019.819395
140
180380.8390819999
141
80022.26069
142
1.0
143
0.2557442899420743
 70
   692
 72
     0
 73
     1
 74
     3
  7
LaserJet5Shaded.ctb
 75
     0
147
3.910155727138614
148
-4581603.303200401
149
-2032962.095032944
  0
PLOTSETTINGS
  5
2BF
102
{ACAD_REACTORS
330
18
102
}
330
18
100
AcDbPlotSettings
  1
Laser Jet 5 Shaded 8.5x11
  2
LaserJet5Shaded.pc3
  4
Letter
  6
PS1
 40
7.143749713897705
 41
6.974400997161865
 42
7.14373779296875
 43
6.297088623046875
 44
215.8999938964843
 45
279.3999938964843
 46
2.794
 47
0.0
 48
180377.877572
 49
80019.819395
140
180380.8390819999
141
80022.26069
142
1.0
143
0.345513616778612
 70
   692
 72
     0
 73
     1
 74
     3
  7
LaserJet5Shaded.ctb
 75
     0
147
2.894241938489939
148
-4581603.303200401
149
-2032962.095032944
  0
PLOTSETTINGS
  5
2C0
102
{ACAD_REACTORS
330
18
102
}
330
18
100
AcDbPlotSettings
  1
LaserJet5-Shaded-11x17
  2
LaserJet5Shaded.pc3
  4
11x17
  6

 40
7.143749713897705
 41
5.873736858367919
 42
7.143768310546875
 43
7.14373779296875
 44
279.3999938964843
 45
431.7999877929687
 46
0.0
 47
0.0
 48
180360.0524337165
 49
80033.77936194791
140
180369.1574725906
141
80037.61796031875
142
1.0
143
0.0527719690046124
 70
  1712
 72
     0
 73
     1
 74
     1
  7
LaserJet5Shaded.ctb
 75
     0
147
18.9494540162524
148
-190.0773302744904
149
-129.2444057835751
  0
PLOTSETTINGS
  5
2C1
102
{ACAD_REACTORS
330
18
102
}
330
18
100
AcDbPlotSettings
  1
LaserJet5-Shaded-8.5x11
  2
LaserJet5Shaded.pc3
  4
Letter
  6

 40
7.143749713897705
 41
6.974400997161865
 42
7.14373779296875
 43
6.297088623046875
 44
215.8999938964843
 45
279.3999938964843
 46
0.0
 47
0.0
 48
180360.0524337165
 49
80033.77936194791
140
180369.1574725906
141
80037.61796031875
142
1.0
143
0.069393053089765
 70
  1712
 72
     0
 73
     1
 74
     1
  7
LaserJet5Shaded.ctb
 75
     0
147
14.41066440334347
148
-190.0773302744904
149
-129.2444057835751
  0
PLOTSETTINGS
  5
2C2
102
{ACAD_REACTORS
330
18
102
}
330
18
100
AcDbPlotSettings
  1
Oki Doki B&W Shaded 11x17
  2
OKI DOKI Color Laser.pc3
  4
Tabloid
  6
PS1
 40
5.027083396911621
 41
5.027085304260253
 42
5.027099609375
 43
5.027069091796875
 44
279.3999938964843
 45
431.7999877929687
 46
0.0
 47
47.49799999999999
 48
180377.877572
 49
80019.819395
140
180380.8390819999
141
80022.26069
142
1.0
143
0.2302203728173071
 70
   692
 72
     0
 73
     1
 74
     4
  7
OKIB&WShaded.ctb
 75
     0
147
4.343664236846477
148
-4581598.0903288
149
-2032503.412632999
  0
PLOTSETTINGS
  5
2C3
102
{ACAD_REACTORS
330
18
102
}
330
18
100
AcDbPlotSettings
  1
Oki Doki B&W Shaded 8.5x11
  2
OKI DOKI Color Laser.pc3
  4
Letter
  6
PS1
 40
5.027083396911621
 41
5.027085304260253
 42
5.027084350585937
 43
5.027069091796875
 44
215.8999938964843
 45
279.3999938964843
 46
0.0
 47
9.906
 48
180377.877572
 49
80019.819395
140
180380.8390819999
141
80022.26069
142
1.0
143
0.3012394963745367
 70
   692
 72
     0
 73
     1
 74
     4
  7
OKIB&WShaded.ctb
 75
     0
147
3.319617819161008
148
-4581598.0903288
149
-2032503.412632999
  0
PLOTSETTINGS
  5
2C4
102
{ACAD_REACTORS
330
18
102
}
330
18
100
AcDbPlotSettings
  1
Oki Doki Color Laser
  2
OKI DOKI Color Laser.pc3
  4
Letter
  6
PS1
 40
5.027083396911621
 41
5.027085304260253
 42
5.027084350585937
 43
5.027069091796875
 44
215.8999938964843
 45
279.3999938964843
 46
71.88199999999999
 47
97.02799999999999
 48
180377.877572
 49
80019.819395
140
180380.8390819999
141
80022.26069
142
1.0
143
1.0
 70
   692
 72
     0
 73
     1
 74
     4
  7
Color.ctb
 75
    16
147
1.0
148
-4581598.0903288
149
-2032503.412632999
  0
PLOTSETTINGS
  5
2C5
102
{ACAD_REACTORS
330
18
102
}
330
18
100
AcDbPlotSettings
  1
Oki Doki Color Shaded 11x17
  2
OKI DOKI Color Laser.pc3
  4
Tabloid
  6
PS1
 40
5.027083396911621
 41
5.027085304260253
 42
5.027099609375
 43
5.027069091796875
 44
279.3999938964843
 45
431.7999877929687
 46
0.0
 47
47.49799999999999
 48
180377.877572
 49
80019.819395
140
180380.8390819999
141
80022.26069
142
1.0
143
0.2302203728173071
 70
   692
 72
     0
 73
     1
 74
     4
  7
OKIColorShaded.ctb
 75
     0
147
4.343664236846477
148
-4581598.0903288
149
-2032503.412632999
  0
PLOTSETTINGS
  5
2C6
102
{ACAD_REACTORS
330
18
102
}
330
18
100
AcDbPlotSettings
  1
Oki Doki Color Shaded 8.5x11
  2
OKI DOKI Color Laser.pc3
  4
Letter
  6
PS1
 40
5.027083396911621
 41
5.027085304260253
 42
5.027084350585937
 43
5.027069091796875
 44
215.8999938964843
 45
279.3999938964843
 46
0.0
 47
9.906
 48
180377.877572
 49
80019.819395
140
180380.8390819999
141
80022.26069
142
1.0
143
0.3012394963745367
 70
   692
 72
     0
 73
     1
 74
     4
  7
OKIColorShaded.ctb
 75
     0
147
3.319617819161008
148
-4581598.0903288
149
-2032503.412632999
  0
PLOTSETTINGS
  5
2C7
102
{ACAD_REACTORS
330
18
102
}
330
18
100
AcDbPlotSettings
  1
Oki-Doki-B&W-Shaded-11x17
  2
OKI DOKI Color Laser.pc3
  4
Tabloid
  6

 40
5.027083396911621
 41
5.027085304260253
 42
5.027099609375
 43
5.027069091796875
 44
279.3999938964843
 45
431.7999877929687
 46
45.72
 47
0.0
 48
180360.0524337165
 49
80033.77936194791
140
180369.1574725906
141
80037.61796031875
142
1.0
143
0.5483586774064594
 70
  1716
 72
     0
 73
     1
 74
     4
  7
OKIB&WShaded.ctb
 75
     0
147
1.823623918435361
148
-4581145.331816398
149
-2032857.995793476
  0
PLOTSETTINGS
  5
2C8
102
{ACAD_REACTORS
330
18
102
}
330
18
100
AcDbPlotSettings
  1
Oki-Doki-B&W-Shaded-8.5x11
  2
OKI DOKI Color Laser.pc3
  4
Letter
  6

 40
5.027083396911621
 41
5.027085304260253
 42
5.027084350585937
 43
5.027069091796875
 44
215.8999938964843
 45
279.3999938964843
 46
46.228
 47
0.0
 48
180360.0524337165
 49
80033.77936194791
140
180369.1574725906
141
80037.61796031875
142
1.0
143
0.8586284006917006
 70
  1716
 72
     0
 73
     1
 74
     4
  7
OKIB&WShaded.ctb
 75
     0
147
1.16464817515285
148
-4581145.331816398
149
-2032857.995793476
  0
PLOTSETTINGS
  5
2C9
102
{ACAD_REACTORS
330
18
102
}
330
18
100
AcDbPlotSettings
  1
Oki-Doki-Color-Laser
  2
OKI DOKI Color Laser.pc3
  4
Letter
  6

 40
5.027083396911621
 41
5.027085304260253
 42
5.027084350585937
 43
5.027069091796875
 44
215.8999938964843
 45
279.3999938964843
 46
17.018
 47
0.0
 48
180360.0524337165
 49
80033.77936194791
140
180369.1574725906
141
80037.61796031875
142
1.0
143
1.429088128819241
 70
  1716
 72
     0
 73
     1
 74
     0
  7
Color.ctb
 75
     0
147
0.6997469084193093
148
0.9506237099442977
149
8.593888772447144
  0
PLOTSETTINGS
  5
2CA
102
{ACAD_REACTORS
330
18
102
}
330
18
100
AcDbPlotSettings
  1
Oki-Doki-Color-Shaded-11x17
  2
OKI DOKI Color Laser.pc3
  4
Tabloid
  6

 40
5.027083396911621
 41
5.027085304260253
 42
5.027099609375
 43
5.027069091796875
 44
279.3999938964843
 45
431.7999877929687
 46
45.72
 47
0.0
 48
180360.0524337165
 49
80033.77936194791
140
180369.1574725906
141
80037.61796031875
142
1.0
143
0.5483586774064594
 70
  1716
 72
     0
 73
     1
 74
     4
  7
OKIColorShaded.ctb
 75
     0
147
1.823623918435361
148
-4581145.331816398
149
-2032857.995793476
  0
PLOTSETTINGS
  5
2CB
102
{ACAD_REACTORS
330
18
102
}
330
18
100
AcDbPlotSettings
  1
Oki-Doki-Color-Shaded-8.5x11
  2
OKI DOKI Color Laser.pc3
  4
Letter
  6

 40
5.027083396911621
 41
5.027085304260253
 42
5.027084350585937
 43
5.027069091796875
 44
215.8999938964843
 45
279.3999938964843
 46
46.228
 47
0.0
 48
180360.0524337165
 49
80033.77936194791
140
180369.1574725906
141
80037.61796031875
142
1.0
143
0.8586284006917006
 70
  1716
 72
     0
 73
     1
 74
     4
  7
OKIColorShaded.ctb
 75
     0
147
1.16464817515285
148
-4581145.331816398
149
-2032857.995793476
  0
ACDBPLACEHOLDER
  5
F
102
{ACAD_REACTORS
330
E
102
}
330
E
  0
DICTIONARYVAR
  5
238
102
{ACAD_REACTORS
330
235
102
}
330
235
100
DictionaryVariables
280
     0
  1
1
  0
DICTIONARYVAR
  5
237
102
{ACAD_REACTORS
330
235
102
}
330
235
100
DictionaryVariables
280
     0
  1
1
  0
DICTIONARYVAR
  5
236
102
{ACAD_REACTORS
330
235
102
}
330
235
100
DictionaryVariables
280
     0
  1
1
  0
ENDSEC
  0
EOF
