  0
SECTION
  2
HEADER
  9
$ACADVER
  1
AC1018
  9
$ACADMAINTVER
 70
   104
  9
$DWGCODEPAGE
  3
ANSI_1252
  9
$LASTSAVEDBY
  1
dweyer
  9
$INSBASE
 10
-0.0102040656010656
 20
-0.0099921734210461
 30
0.0
  9
$EXTMIN
 10
0.0
 20
0.0
 30
0.0
  9
$EXTMAX
 10
16.48999999999999
 20
10.44
 30
0.03
  9
$LIMMIN
 10
0.0
 20
0.0
  9
$LIMMAX
 10
12.0
 20
9.0
  9
$ORTHOMODE
 70
     1
  9
$REGENMODE
 70
     1
  9
$FILLMODE
 70
     1
  9
$QTEXTMODE
 70
     0
  9
$MIRRTEXT
 70
     0
  9
$LTSCALE
 40
1.0
  9
$ATTMODE
 70
     1
  9
$TEXTSIZE
 40
0.125
  9
$TRACEWID
 40
0.05
  9
$TEXTSTYLE
  7
ROMANS
  9
$CLAYER
  8
0
  9
$CELTYPE
  6
BYLAYER
  9
$CECOLOR
 62
   256
  9
$CELTSCALE
 40
1.0
  9
$DISPSILH
 70
     0
  9
$DIMSCALE
 40
1.0
  9
$DIMASZ
 40
0.18
  9
$DIMEXO
 40
0.0625
  9
$DIMDLI
 40
0.38
  9
$DIMRND
 40
0.0
  9
$DIMDLE
 40
0.0
  9
$DIMEXE
 40
0.125
  9
$DIMTP
 40
0.0
  9
$DIMTM
 40
0.0
  9
$DIMTXT
 40
0.125
  9
$DIMCEN
 40
0.09
  9
$DIMTSZ
 40
0.0
  9
$DIMTOL
 70
     0
  9
$DIMLIM
 70
     0
  9
$DIMTIH
 70
     1
  9
$DIMTOH
 70
     1
  9
$DIMSE1
 70
     0
  9
$DIMSE2
 70
     0
  9
$DIMTAD
 70
     0
  9
$DIMZIN
 70
     0
  9
$DIMBLK
  1

  9
$DIMASO
 70
     1
  9
$DIMSHO
 70
     1
  9
$DIMPOST
  1

  9
$DIMAPOST
  1

  9
$DIMALT
 70
     0
  9
$DIMALTD
 70
     2
  9
$DIMALTF
 40
25.4
  9
$DIMLFAC
 40
1.0
  9
$DIMTOFL
 70
     0
  9
$DIMTVP
 40
0.0
  9
$DIMTIX
 70
     0
  9
$DIMSOXD
 70
     0
  9
$DIMSAH
 70
     0
  9
$DIMBLK1
  1

  9
$DIMBLK2
  1

  9
$DIMSTYLE
  2
STANDARD
  9
$DIMCLRD
 70
   256
  9
$DIMCLRE
 70
   256
  9
$DIMCLRT
 70
   256
  9
$DIMTFAC
 40
1.0
  9
$DIMGAP
 40
0.09
  9
$DIMJUST
 70
     0
  9
$DIMSD1
 70
     0
  9
$DIMSD2
 70
     0
  9
$DIMTOLJ
 70
     1
  9
$DIMTZIN
 70
     0
  9
$DIMALTZ
 70
     0
  9
$DIMALTTZ
 70
     0
  9
$DIMUPT
 70
     0
  9
$DIMDEC
 70
     4
  9
$DIMTDEC
 70
     4
  9
$DIMALTU
 70
     2
  9
$DIMALTTD
 70
     2
  9
$DIMTXSTY
  7
arial
  9
$DIMAUNIT
 70
     0
  9
$DIMADEC
 70
     0
  9
$DIMALTRND
 40
0.0
  9
$DIMAZIN
 70
     0
  9
$DIMDSEP
 70
    46
  9
$DIMATFIT
 70
     3
  9
$DIMFRAC
 70
     0
  9
$DIMLDRBLK
  1

  9
$DIMLUNIT
 70
     2
  9
$DIMLWD
 70
    -1
  9
$DIMLWE
 70
    -1
  9
$DIMTMOVE
 70
     0
  9
$LUNITS
 70
     2
  9
$LUPREC
 70
     3
  9
$SKETCHINC
 40
0.1
  9
$FILLETRAD
 40
0.0
  9
$AUNITS
 70
     0
  9
$AUPREC
 70
     0
  9
$MENU
  1
c:\acad13nt\win\SUPPORT\ACAD
  9
$ELEVATION
 40
0.0
  9
$PELEVATION
 40
0.0
  9
$THICKNESS
 40
0.0
  9
$LIMCHECK
 70
     0
  9
$CHAMFERA
 40
0.0
  9
$CHAMFERB
 40
0.0
  9
$CHAMFERC
 40
0.0
  9
$CHAMFERD
 40
0.0
  9
$SKPOLY
 70
     0
  9
$TDCREATE
 40
2449623.343430903
  9
$TDUCREATE
 40
2449623.635097569
  9
$TDUPDATE
 40
2455575.513243403
  9
$TDUUPDATE
 40
2455575.804910069
  9
$TDINDWG
 40
0.4236481481
  9
$TDUSRTIMER
 40
0.4236481481
  9
$USRTIMER
 70
     1
  9
$ANGBASE
 50
0.0
  9
$ANGDIR
 70
     0
  9
$PDMODE
 70
     0
  9
$PDSIZE
 40
0.0
  9
$PLINEWID
 40
0.0
  9
$SPLFRAME
 70
     0
  9
$SPLINETYPE
 70
     6
  9
$SPLINESEGS
 70
     8
  9
$HANDSEED
  5
A09
  9
$SURFTAB1
 70
     6
  9
$SURFTAB2
 70
     6
  9
$SURFTYPE
 70
     6
  9
$SURFU
 70
     6
  9
$SURFV
 70
     6
  9
$UCSBASE
  2

  9
$UCSNAME
  2

  9
$UCSORG
 10
0.0
 20
0.0
 30
0.0
  9
$UCSXDIR
 10
1.0
 20
0.0
 30
0.0
  9
$UCSYDIR
 10
0.0
 20
1.0
 30
0.0
  9
$UCSORTHOREF
  2

  9
$UCSORTHOVIEW
 70
     0
  9
$UCSORGTOP
 10
0.0
 20
0.0
 30
0.0
  9
$UCSORGBOTTOM
 10
0.0
 20
0.0
 30
0.0
  9
$UCSORGLEFT
 10
0.0
 20
0.0
 30
0.0
  9
$UCSORGRIGHT
 10
0.0
 20
0.0
 30
0.0
  9
$UCSORGFRONT
 10
0.0
 20
0.0
 30
0.0
  9
$UCSORGBACK
 10
0.0
 20
0.0
 30
0.0
  9
$PUCSBASE
  2

  9
$PUCSNAME
  2

  9
$PUCSORG
 10
0.0
 20
0.0
 30
0.0
  9
$PUCSXDIR
 10
1.0
 20
0.0
 30
0.0
  9
$PUCSYDIR
 10
0.0
 20
1.0
 30
0.0
  9
$PUCSORTHOREF
  2

  9
$PUCSORTHOVIEW
 70
     0
  9
$PUCSORGTOP
 10
0.0
 20
0.0
 30
0.0
  9
$PUCSORGBOTTOM
 10
0.0
 20
0.0
 30
0.0
  9
$PUCSORGLEFT
 10
0.0
 20
0.0
 30
0.0
  9
$PUCSORGRIGHT
 10
0.0
 20
0.0
 30
0.0
  9
$PUCSORGFRONT
 10
0.0
 20
0.0
 30
0.0
  9
$PUCSORGBACK
 10
0.0
 20
0.0
 30
0.0
  9
$USERI1
 70
     0
  9
$USERI2
 70
     0
  9
$USERI3
 70
     0
  9
$USERI4
 70
     0
  9
$USERI5
 70
     0
  9
$USERR1
 40
0.0
  9
$USERR2
 40
0.0
  9
$USERR3
 40
0.0
  9
$USERR4
 40
0.0
  9
$USERR5
 40
0.0
  9
$WORLDVIEW
 70
     1
  9
$SHADEDGE
 70
     3
  9
$SHADEDIF
 70
    70
  9
$TILEMODE
 70
     1
  9
$MAXACTVP
 70
    16
  9
$PINSBASE
 10
0.0
 20
0.0
 30
0.0
  9
$PLIMCHECK
 70
     0
  9
$PEXTMIN
 10
1.000000000000000E+20
 20
1.000000000000000E+20
 30
1.000000000000000E+20
  9
$PEXTMAX
 10
-1.000000000000000E+20
 20
-1.000000000000000E+20
 30
-1.000000000000000E+20
  9
$PLIMMIN
 10
0.0
 20
0.0
  9
$PLIMMAX
 10
12.0
 20
9.0
  9
$UNITMODE
 70
     0
  9
$VISRETAIN
 70
     0
  9
$PLINEGEN
 70
     1
  9
$PSLTSCALE
 70
     1
  9
$TREEDEPTH
 70
  3020
  9
$CMLSTYLE
  2
STANDARD
  9
$CMLJUST
 70
     0
  9
$CMLSCALE
 40
1.0
  9
$PROXYGRAPHICS
 70
     1
  9
$MEASUREMENT
 70
     0
  9
$CELWEIGHT
370
    -1
  9
$ENDCAPS
280
     0
  9
$JOINSTYLE
280
     0
  9
$LWDISPLAY
290
     0
  9
$INSUNITS
 70
     0
  9
$HYPERLINKBASE
  1

  9
$STYLESHEET
  1
okicolorshaded.ctb
  9
$XEDIT
290
     1
  9
$CEPSNTYPE
380
     0
  9
$PSTYLEMODE
290
     1
  9
$FINGERPRINTGUID
  2
{836422F3-A604-42EF-94E6-CBC462A1BF8A}
  9
$VERSIONGUID
  2
{C887666A-E05C-4939-9676-3F60FA17E955}
  9
$EXTNAMES
290
     1
  9
$PSVPSCALE
 40
0.0
  9
$OLESTARTUP
290
     1
  9
$SORTENTS
280
    48
  9
$INDEXCTL
280
     0
  9
$HIDETEXT
280
     1
  9
$XCLIPFRAME
290
     0
  9
$HALOGAP
280
     0
  9
$OBSCOLOR
 70
   257
  9
$OBSLTYPE
280
     0
  9
$INTERSECTIONDISPLAY
280
     0
  9
$INTERSECTIONCOLOR
 70
   257
  9
$DIMASSOC
280
     1
  9
$PROJECTNAME
  1

  0
ENDSEC
  0
SECTION
  2
CLASSES
  0
CLASS
  1
ACDBDICTIONARYWDFLT
  2
AcDbDictionaryWithDefault
  3
ObjectDBX Classes
 90
        0
 91
        1
280
     0
281
     0
  0
CLASS
  1
DICTIONARYVAR
  2
AcDbDictionaryVar
  3
ObjectDBX Classes
 90
        0
 91
       12
280
     0
281
     0
  0
CLASS
  1
PLOTSETTINGS
  2
AcDbPlotSettings
  3
ObjectDBX Classes
 90
        0
 91
       41
280
     0
281
     0
  0
CLASS
  1
MATERIAL
  2
AcDbMaterial
  3
ObjectDBX Classes
 90
     1153
 91
        3
280
     0
281
     0
  0
CLASS
  1
VISUALSTYLE
  2
AcDbVisualStyle
  3
ObjectDBX Classes
 90
     4095
 91
       16
280
     0
281
     0
  0
CLASS
  1
TABLESTYLE
  2
AcDbTableStyle
  3
ObjectDBX Classes
 90
     4095
 91
        1
280
     0
281
     0
  0
CLASS
  1
SCALE
  2
AcDbScale
  3
ObjectDBX Classes
 90
     1153
 91
       33
280
     0
281
     0
  0
CLASS
  1
MLEADERSTYLE
  2
AcDbMLeaderStyle
  3
ACDB_MLEADERSTYLE_CLASS
 90
     4095
 91
        1
280
     0
281
     0
  0
CLASS
  1
EXACXREFPANELOBJECT
  2
ExAcXREFPanelObject
  3
EXAC_ESW
 90
     1025
 91
        0
280
     0
281
     0
  0
CLASS
  1
NPOCOLLECTION
  2
AcDbImpNonPersistentObjectsCollection
  3
ObjectDBX Classes
 90
     1153
 91
        0
280
     0
281
     0
  0
CLASS
  1
CELLSTYLEMAP
  2
AcDbCellStyleMap
  3
ObjectDBX Classes
 90
     1152
 91
        5
280
     0
281
     0
  0
CLASS
  1
SORTENTSTABLE
  2
AcDbSortentsTable
  3
ObjectDBX Classes
 90
        0
 91
        2
280
     0
281
     0
  0
ENDSEC
  0
SECTION
  2
TABLES
  0
TABLE
  2
VPORT
  5
19
330
0
100
AcDbSymbolTable
 70
     1
  0
VPORT
  5
897
330
19
100
AcDbSymbolTableRecord
100
AcDbViewportTableRecord
  2
*Active
 70
     0
 10
0.0
 20
0.0
 11
1.0
 21
1.0
 12
8.244999999999997
 22
5.219999999999999
 13
0.0
 23
0.0
 14
0.14
 24
0.14
 15
0.14
 25
0.14
 16
0.0
 26
0.0
 36
1.0
 17
0.0
 27
0.0
 37
0.0
 40
10.53157894736842
 41
2.281112737920937
 42
50.0
 43
0.0
 44
0.0
 50
0.0
 51
0.0
 71
     0
 72
  1000
 73
     1
 74
     1
 75
     0
 76
     0
 77
     0
 78
     0
281
     0
 65
     1
110
0.0
120
0.0
130
0.0
111
1.0
121
0.0
131
0.0
112
0.0
122
1.0
132
0.0
 79
     0
146
0.0
  0
ENDTAB
  0
TABLE
  2
LTYPE
  5
14
330
0
100
AcDbSymbolTable
 70
     1
  0
LTYPE
  5
15
330
14
100
AcDbSymbolTableRecord
100
AcDbLinetypeTableRecord
  2
BYBLOCK
 70
     0
  3

 72
    65
 73
     0
 40
0.0
  0
LTYPE
  5
16
330
14
100
AcDbSymbolTableRecord
100
AcDbLinetypeTableRecord
  2
BYLAYER
 70
     0
  3

 72
    65
 73
     0
 40
0.0
  0
LTYPE
  5
8
330
14
100
AcDbSymbolTableRecord
100
AcDbLinetypeTableRecord
  2
CONTINUOUS
 70
     0
  3
Solid line
 72
    65
 73
     0
 40
0.0
  0
ENDTAB
  0
TABLE
  2
LAYER
  5
10
102
{ACAD_XDICTIONARY
360
8F1
102
}
330
0
100
AcDbSymbolTable
 70
     3
  0
LAYER
  5
4
330
10
100
AcDbSymbolTableRecord
100
AcDbLayerTableRecord
  2
0
 70
     0
 62
     7
  6
CONTINUOUS
370
    -3
390
5
  0
LAYER
  5
22
330
10
100
AcDbSymbolTableRecord
100
AcDbLayerTableRecord
  2
image
 70
     0
 62
     7
  6
CONTINUOUS
370
    -3
390
5
  0
LAYER
  5
81E
330
10
100
AcDbSymbolTableRecord
100
AcDbLayerTableRecord
  2
title
 70
     0
 62
     4
  6
CONTINUOUS
370
    -3
390
5
  0
ENDTAB
  0
TABLE
  2
STYLE
  5
11
330
0
100
AcDbSymbolTable
 70
     6
  0
STYLE
  5
12
330
11
100
AcDbSymbolTableRecord
100
AcDbTextStyleTableRecord
  2
STANDARD
 70
     0
 40
0.0
 41
1.0
 50
0.0
 71
     0
 42
0.2
  3
txt
  4

  0
STYLE
  5
3B
330
11
100
AcDbSymbolTableRecord
100
AcDbTextStyleTableRecord
  2
arial
 70
     0
 40
0.0
 41
1.0
 50
0.0
 71
     0
 42
0.125
  3
ARIAL.TTF
  4

1001
ACAD
1000
Arial
1071
       34
  0
STYLE
  5
81F
330
11
100
AcDbSymbolTableRecord
100
AcDbTextStyleTableRecord
  2
L100
 70
     0
 40
0.1
 41
1.0
 50
0.0
 71
     0
 42
0.1
  3
romans.shx
  4

  0
STYLE
  5
820
330
11
100
AcDbSymbolTableRecord
100
AcDbTextStyleTableRecord
  2
L200
 70
     0
 40
0.2
 41
1.0
 50
0.0
 71
     0
 42
0.081
  3
ARIAL.TTF
  4

1001
ACAD
1000
Arial
1071
       34
  0
STYLE
  5
821
330
11
100
AcDbSymbolTableRecord
100
AcDbTextStyleTableRecord
  2
L80
 70
     0
 40
0.08
 41
1.0
 50
0.0
 71
     0
 42
0.08
  3
ROMANS
  4

  0
STYLE
  5
95C
330
11
100
AcDbSymbolTableRecord
100
AcDbTextStyleTableRecord
  2
ROMANS
 70
     0
 40
0.0
 41
1.0
 50
0.0
 71
     0
 42
0.125
  3
romans.shx
  4

  0
ENDTAB
  0
TABLE
  2
VIEW
  5
17
330
0
100
AcDbSymbolTable
 70
     0
  0
ENDTAB
  0
TABLE
  2
UCS
  5
18
330
0
100
AcDbSymbolTable
 70
     0
  0
ENDTAB
  0
TABLE
  2
APPID
  5
1B
330
0
100
AcDbSymbolTable
 70
    13
  0
APPID
  5
1C
330
1B
100
AcDbSymbolTableRecord
100
AcDbRegAppTableRecord
  2
ACAD
 70
     0
  0
APPID
  5
822
330
1B
100
AcDbSymbolTableRecord
100
AcDbRegAppTableRecord
  2
RAK
 70
     0
  0
APPID
  5
823
330
1B
100
AcDbSymbolTableRecord
100
AcDbRegAppTableRecord
  2
DCO15
 70
     0
  0
APPID
  5
8EA
330
1B
100
AcDbSymbolTableRecord
100
AcDbRegAppTableRecord
  2
ACAD_MLEADERVER
 70
     0
  0
APPID
  5
918
330
1B
100
AcDbSymbolTableRecord
100
AcDbRegAppTableRecord
  2
ACAD_PSEXT
 70
     0
  0
APPID
  5
946
330
1B
100
AcDbSymbolTableRecord
100
AcDbRegAppTableRecord
  2
BBSI_PltSel
 70
     0
  0
APPID
  5
947
330
1B
100
AcDbSymbolTableRecord
100
AcDbRegAppTableRecord
  2
BBSI_Plots
 70
     0
  0
APPID
  5
948
330
1B
100
AcDbSymbolTableRecord
100
AcDbRegAppTableRecord
  2
BBSI_Bookmarks
 70
     0
  0
APPID
  5
949
330
1B
100
AcDbSymbolTableRecord
100
AcDbRegAppTableRecord
  2
BBSI_BookmarksEx
 70
     0
  0
APPID
  5
94A
330
1B
100
AcDbSymbolTableRecord
100
AcDbRegAppTableRecord
  2
BBSI_StampsEx
 70
     0
  0
APPID
  5
94B
330
1B
100
AcDbSymbolTableRecord
100
AcDbRegAppTableRecord
  2
BBSI_Attachs
 70
     0
  0
APPID
  5
94C
330
1B
100
AcDbSymbolTableRecord
100
AcDbRegAppTableRecord
  2
BBSI_DigSigs
 70
     0
  0
APPID
  5
959
330
1B
100
AcDbSymbolTableRecord
100
AcDbRegAppTableRecord
  2
ACAD_EXEMPT_FROM_CAD_STANDARDS
 70
     0
  0
ENDTAB
  0
TABLE
  2
DIMSTYLE
  5
1D
330
0
100
AcDbSymbolTable
 70
     1
100
AcDbDimStyleTable
 71
     0
  0
DIMSTYLE
105
25
330
1D
100
AcDbSymbolTableRecord
100
AcDbDimStyleTableRecord
  2
STANDARD
 70
     0
340
12
  0
ENDTAB
  0
TABLE
  2
BLOCK_RECORD
  5
1
330
0
100
AcDbSymbolTable
 70
     1
  0
BLOCK_RECORD
  5
2
102
{ACAD_XDICTIONARY
360
9C5
102
}
330
1
100
AcDbSymbolTableRecord
100
AcDbBlockTableRecord
  2
*MODEL_SPACE
340
A
  0
BLOCK_RECORD
  5
C
330
1
100
AcDbSymbolTableRecord
100
AcDbBlockTableRecord
  2
*PAPER_SPACE
340
F
  0
BLOCK_RECORD
  5
824
102
{ACAD_XDICTIONARY
360
9D3
102
}
330
1
100
AcDbSymbolTableRecord
100
AcDbBlockTableRecord
  2
titleblock
340
0
102
{BLKREFS
331
832
102
}
  0
ENDTAB
  0
ENDSEC
  0
SECTION
  2
BLOCKS
  0
BLOCK
  5
3
330
2
100
AcDbEntity
  8
0
100
AcDbBlockBegin
  2
*MODEL_SPACE
 70
     0
 10
0.0
 20
0.0
 30
0.0
  3
*MODEL_SPACE
  1

  0
ENDBLK
  5
9
330
2
100
AcDbEntity
  8
0
100
AcDbBlockEnd
  0
BLOCK
  5
D
330
C
100
AcDbEntity
 67
     1
  8
0
100
AcDbBlockBegin
  2
*PAPER_SPACE
 70
     0
 10
0.0
 20
0.0
 30
0.0
  3
*PAPER_SPACE
  1

  0
ENDBLK
  5
E
330
C
100
AcDbEntity
 67
     1
  8
0
100
AcDbBlockEnd
  0
BLOCK
  5
830
330
824
100
AcDbEntity
  8
0
100
AcDbBlockBegin
  2
titleblock
 70
     2
 10
0.0
 20
0.0
 30
0.0
  3
titleblock
  1

  0
LWPOLYLINE
  5
825
330
824
100
AcDbEntity
  8
title
100
AcDbPolyline
 90
        4
 70
     1
 43
0.0
 10
0.0
 20
0.0
 10
16.48999999999999
 20
0.0000000000000001
 10
16.48999999999999
 20
10.44
 10
0.0
 20
10.44
  0
ATTDEF
  5
826
330
824
100
AcDbEntity
  8
title
100
AcDbText
 10
0.5055556038023421
 20
0.7842270964783673
 30
0.0
 40
0.2
  1
D
  7
L200
 72
     4
 11
0.6064423705144839
 21
0.8842270964783672
 31
0.0
100
AcDbAttributeDefinition
  3
#
  2
D
 70
     0
  0
ATTDEF
  5
827
330
824
100
AcDbEntity
  8
title
100
AcDbText
 10
1.231442370514484
 20
1.34371230274675
 30
0.0
 40
0.2
  1

  7
L200
100
AcDbAttributeDefinition
  3
DETAIL TITLE TOP LINE
  2
TITLE1
 70
     0
  0
ATTDEF
  5
828
330
824
100
AcDbEntity
  8
title
100
AcDbText
 10
1.231442370514484
 20
0.9842270964783674
 30
0.0
 40
0.2
  1
TITLE
  7
L200
100
AcDbAttributeDefinition
  3
DETAIL TITLE TOP 2ND LINE
  2
TITLE2
 70
     0
  0
ATTDEF
  5
829
330
824
100
AcDbEntity
  8
title
100
AcDbText
 10
2.713645751168312
 20
0.5927927664583189
 30
0.0
 40
0.2
  1
TITLE2
  7
L200
100
AcDbAttributeDefinition
  3
DETAIL TITLE BOTTOM 1
  2
TITLE3
 70
     0
  0
ATTDEF
  5
82A
330
824
100
AcDbEntity
  8
title
100
AcDbText
 10
2.713645751168312
 20
0.2692560808167741
 30
0.0
 40
0.2
  1

  7
L200
100
AcDbAttributeDefinition
  3
DETAIL TITLE BOTTOM 2
  2
TITLE4
 70
     0
  0
ATTDEF
  5
82B
330
824
100
AcDbEntity
  8
title
 62
     7
100
AcDbText
 10
8.177214829966379
 20
0.9696027915446398
 30
0.0
 40
0.08
  1
-
  7
L80
 72
     2
 11
8.261024353775903
 21
0.9696027915446398
 31
0.0
100
AcDbAttributeDefinition
  3
REVISION DATE
  2
REVISED
 70
     0
  0
ATTDEF
  5
82C
330
824
100
AcDbEntity
  8
title
 62
     7
100
AcDbText
 10
0.2639423705144838
 20
0.0847116480207214
 30
0.0
 40
0.08
  1
-
  7
L80
100
AcDbAttributeDefinition
  3
DWG-NAME
  2
DWG-NAME
 70
     0
  0
LWPOLYLINE
  5
82D
330
824
100
AcDbEntity
  8
title
 62
     3
100
AcDbPolyline
 90
        2
 70
     1
 43
0.03
 10
0.6064423705144839
 20
0.5417270964783675
 42
0.9999999999999998
 10
0.6064423705144839
 20
1.226727096478367
 42
0.9999999999999998
  0
ATTDEF
  5
82E
330
824
100
AcDbEntity
  8
title
 62
     7
100
AcDbText
 10
1.231442370514484
 20
0.7005637793954894
 30
0.0
 40
0.1
  1
N.T.S.
  7
L100
100
AcDbAttributeDefinition
  3
SCALE
  2
SCALE
 70
     0
  0
LWPOLYLINE
  5
82F
330
824
100
AcDbEntity
  8
title
 62
     3
100
AcDbPolyline
 90
        2
 70
     0
 43
0.04
 39
0.03
 10
0.9489423705144833
 20
0.8842270964783672
 10
8.261024353775903
 20
0.8842270964783672
  0
ENDBLK
  5
831
330
824
100
AcDbEntity
  8
0
100
AcDbBlockEnd
  0
ENDSEC
  0
SECTION
  2
ENTITIES
  0
LWPOLYLINE
  5
41B
330
2
100
AcDbEntity
  8
image
100
AcDbPolyline
 90
        2
 70
     0
 43
0.0
 10
6.689667177788934
 20
4.218401236456547
 10
6.689667177788934
 20
4.119875414372045
  0
LWPOLYLINE
  5
41C
330
2
100
AcDbEntity
  8
image
100
AcDbPolyline
 90
        2
 70
     0
 43
0.0
 10
6.652652367611826
 20
4.218401236456542
 10
6.652652367611826
 20
4.119875414372045
  0
LWPOLYLINE
  5
41D
330
2
100
AcDbEntity
  8
image
 62
     5
100
AcDbPolyline
 90
        5
 70
     0
 43
0.037
 10
6.721131823416475
 20
4.122829946007935
 10
6.721131823416475
 20
4.232266917332991
 10
6.721131823416475
 20
4.356498782983236
 42
0.081374222779636
 10
6.657231149103107
 20
4.625667814106615
 42
-0.0300668381132792
 10
6.620163627564896
 20
4.811532685818726
 42
-1.093220757323432
  0
LWPOLYLINE
  5
41E
330
2
100
AcDbEntity
  8
image
100
AcDbPolyline
 90
        3
 70
     0
 43
0.0
 10
6.652652367611826
 20
4.218401236456542
 42
-0.0983242927606133
 10
6.674756164014394
 20
4.473937333870627
 42
0.0880393955965766
 10
6.826830935230188
 20
5.072957664792071
 42
1.190049425856698
  0
LWPOLYLINE
  5
41F
330
2
100
AcDbEntity
  8
image
100
AcDbPolyline
 90
        3
 70
     0
 43
0.0
 10
6.689667177788934
 20
4.218401236456547
 42
-0.0978733617649846
 10
6.709526535732906
 20
4.460916581651006
 42
0.0872125590264546
 10
6.863292430207697
 20
5.066581493805316
 42
0.0657011673153704
  0
LWPOLYLINE
  5
420
330
2
100
AcDbEntity
  8
image
100
AcDbPolyline
 90
        4
 70
     1
 43
0.0
 10
7.143564583283873
 20
4.120567283956661
 10
7.143564583283873
 20
2.445567283956659
 10
6.258564583283873
 20
2.445567283956659
 10
6.258564583283873
 20
4.120567283956661
  0
LWPOLYLINE
  5
421
330
2
100
AcDbEntity
  8
image
100
AcDbPolyline
 90
        3
 70
     0
 43
0.0
 10
6.711797870830953
 20
4.218401236456542
 42
-0.0983242927606133
 10
6.733901667233522
 20
4.473937333870627
 42
0.0880393955965766
 10
6.885976438449316
 20
5.072957664792071
 42
1.190049425856698
  0
LWPOLYLINE
  5
422
330
2
100
AcDbEntity
  8
image
100
AcDbPolyline
 90
        3
 70
     0
 43
0.0
 10
6.748812681008062
 20
4.218401236456547
 42
-0.0978733617649846
 10
6.768672038952034
 20
4.460916581651006
 42
0.0872125590264546
 10
6.922437933426825
 20
5.066581493805316
 42
0.0657011673153704
  0
LWPOLYLINE
  5
423
330
2
100
AcDbEntity
  8
image
100
AcDbPolyline
 90
        2
 70
     0
 43
0.0
 10
6.711797870830953
 20
4.218401236456542
 10
6.711797870830953
 20
4.119875414372045
  0
LWPOLYLINE
  5
424
330
2
100
AcDbEntity
  8
image
100
AcDbPolyline
 90
        2
 70
     0
 43
0.0
 10
6.748812681008062
 20
4.218401236456547
 10
6.748812681008062
 20
4.119875414372045
  0
LWPOLYLINE
  5
425
330
2
100
AcDbEntity
  8
image
100
AcDbPolyline
 90
        2
 70
     0
 43
0.0
 10
7.143564583283873
 20
4.099688189581226
 10
6.258564583283873
 20
4.099688189581226
  0
LWPOLYLINE
  5
426
330
2
100
AcDbEntity
  8
image
 62
     5
100
AcDbPolyline
 90
        5
 70
     0
 43
0.037
 10
6.670978422706331
 20
4.122829946007935
 10
6.670978422706331
 20
4.232266917332991
 10
6.670978422706331
 20
4.356498782983236
 42
0.081374222779636
 10
6.607077748392963
 20
4.625667814106615
 42
-0.0655100906327898
 10
6.570010226854752
 20
4.811532685818726
 42
-1.093220757323432
  0
LINE
  5
427
330
2
100
AcDbEntity
  8
image
100
AcDbLine
 10
10.54264555717711
 20
6.301567540440573
 30
0.0
 11
10.88144138966424
 21
6.301567540440573
 31
0.0
  0
LINE
  5
428
330
2
100
AcDbEntity
  8
image
100
AcDbLine
 10
10.3298912511817
 20
5.908516990722987
 30
0.0
 11
10.92219165762773
 21
5.908516990722987
 31
0.0
  0
LINE
  5
429
330
2
100
AcDbEntity
  8
image
100
AcDbLine
 10
10.3298912511817
 20
6.050669088270034
 30
0.0
 11
10.92219165762773
 21
6.050669088270034
 31
0.0
  0
LINE
  5
42A
330
2
100
AcDbEntity
  8
image
100
AcDbLine
 10
10.59207315412663
 20
5.813518656528231
 30
0.0
 11
11.57128315472493
 21
5.813518656528231
 31
0.0
  0
LINE
  5
42B
330
2
100
AcDbEntity
  8
image
100
AcDbLine
 10
10.3298912511817
 20
6.050669088270034
 30
0.0
 11
10.3298912511817
 21
5.908516990722987
 31
0.0
  0
LINE
  5
42C
330
2
100
AcDbEntity
  8
image
100
AcDbLine
 10
10.37727528369738
 20
6.050669088270034
 30
0.0
 11
10.37727528369738
 21
5.908516990722987
 31
0.0
  0
LINE
  5
42D
330
2
100
AcDbEntity
  8
image
100
AcDbLine
 10
10.45451125669794
 20
5.757361926997966
 30
0.0
 11
10.45451125669794
 21
6.050669088270034
 31
0.0
  0
LINE
  5
42E
330
2
100
AcDbEntity
  8
image
100
AcDbLine
 10
10.50189528921363
 20
5.757361926997966
 30
0.0
 11
10.50189528921363
 21
6.050669088270034
 31
0.0
  0
LINE
  5
42F
330
2
100
AcDbEntity
  8
image
100
AcDbLine
 10
10.53445923715806
 20
5.652593793736898
 30
0.0
 11
10.53445923715806
 21
5.908516990722987
 31
0.0
  0
LINE
  5
430
330
2
100
AcDbEntity
  8
image
100
AcDbLine
 10
10.59207315412663
 20
5.813518656528231
 30
0.0
 11
10.59207315412663
 21
5.684189033807713
 31
0.0
  0
LINE
  5
431
330
2
100
AcDbEntity
  8
image
100
AcDbLine
 10
10.61135240432485
 20
6.301567540440573
 30
0.0
 11
10.61135240432485
 21
6.050669088270034
 31
0.0
  0
LINE
  5
432
330
2
100
AcDbEntity
  8
image
100
AcDbLine
 10
10.54264555717711
 20
6.050669088270034
 30
0.0
 11
10.54264555717711
 21
6.301567540440573
 31
0.0
  0
LINE
  5
433
330
2
100
AcDbEntity
  8
image
100
AcDbLine
 10
10.55804536774471
 20
6.301567540440573
 30
0.0
 11
10.55804536774471
 21
6.050669088270034
 31
0.0
  0
LINE
  5
434
330
2
100
AcDbEntity
  8
image
100
AcDbLine
 10
10.71893597573166
 20
6.050669088270034
 30
0.0
 11
10.71893597573166
 21
5.908516990722987
 31
0.0
  0
LINE
  5
435
330
2
100
AcDbEntity
  8
image
100
AcDbLine
 10
10.70515097110969
 20
6.050669088270034
 30
0.0
 11
10.70515097110969
 21
5.908516990722987
 31
0.0
  0
ARC
  5
436
330
2
100
AcDbEntity
  8
image
100
AcDbCircle
 10
10.76759192781877
 20
5.693426864002028
 30
0.0
 40
0.1521972825592481
100
AcDbArc
 50
79.50852298766861
 51
123.1113419603719
  0
LINE
  5
437
330
2
100
AcDbEntity
  8
image
100
AcDbLine
 10
10.68445145606985
 20
5.8209089206837
 30
0.0
 11
10.68445145606985
 21
5.813518656528231
 31
0.0
  0
LINE
  5
438
330
2
100
AcDbEntity
  8
image
100
AcDbLine
 10
10.90615938073362
 20
5.813518656528231
 30
0.0
 11
10.68445145606985
 21
5.813518656528231
 31
0.0
  0
LINE
  5
439
330
2
100
AcDbEntity
  8
image
100
AcDbLine
 10
10.73987843723581
 20
5.880031033927374
 30
0.0
 11
10.73987843723581
 21
5.843079713150083
 31
0.0
  0
LINE
  5
43A
330
2
100
AcDbEntity
  8
image
100
AcDbLine
 10
10.85073239956769
 20
5.880031033927374
 30
0.0
 11
10.73987843723581
 21
5.880031033927374
 31
0.0
  0
LINE
  5
43B
330
2
100
AcDbEntity
  8
image
100
AcDbLine
 10
10.68242845309838
 20
6.301567540440573
 30
0.0
 11
10.68242845309838
 21
6.050669088270034
 31
0.0
  0
LINE
  5
43C
330
2
100
AcDbEntity
  8
image
100
AcDbLine
 10
10.74165849374298
 20
6.301567540440573
 30
0.0
 11
10.74165849374298
 21
6.050669088270034
 31
0.0
  0
ARC
  5
43D
330
2
100
AcDbEntity
  8
image
100
AcDbCircle
 10
10.75683842367967
 20
5.998535524434225
 30
0.0
 40
0.9498126021764614
100
AcDbArc
 50
262.3355331415187
 51
277.664466858481
  0
LINE
  5
43E
330
2
100
AcDbEntity
  8
image
100
AcDbLine
 10
10.63016041496007
 20
5.259248844868829
 30
0.0
 11
10.71016041496007
 21
5.259248844868829
 31
0.0
  0
LINE
  5
43F
330
2
100
AcDbEntity
  8
image
100
AcDbLine
 10
10.61054881451527
 20
5.591810731864478
 30
0.0
 11
11.57128315472493
 21
5.591810731864478
 31
0.0
  0
ARC
  5
440
330
2
100
AcDbEntity
  8
image
100
AcDbCircle
 10
10.61054881451527
 20
5.628762052641776
 30
0.0
 40
0.0369513207772945
100
AcDbArc
 50
180.0
 51
270.0
  0
LWPOLYLINE
  5
441
330
2
100
AcDbEntity
  8
image
100
AcDbPolyline
 90
        4
 70
     0
 43
0.0
 10
10.63016041496007
 20
5.591810731864478
 10
10.63016041496007
 20
5.024513870626955
 42
-0.4142135623730951
 10
10.62101667207179
 20
5.015370127738678
 10
10.48093649673509
 20
5.015370127738678
  0
LINE
  5
442
330
2
100
AcDbEntity
  8
image
100
AcDbLine
 10
10.4439851759578
 20
5.052321448515983
 30
0.0
 11
10.4439851759578
 21
5.466176241221682
 31
0.0
  0
LINE
  5
443
330
2
100
AcDbEntity
  8
image
100
AcDbLine
 10
10.4439851759578
 20
5.065108186618844
 30
0.0
 11
10.35049331429879
 21
5.065108186618844
 31
0.0
  0
ARC
  5
444
330
2
100
AcDbEntity
  8
image
100
AcDbCircle
 10
10.48093649673509
 20
5.052321448515983
 30
0.0
 40
0.0369513207772945
100
AcDbArc
 50
180.0
 51
270.0
  0
LINE
  5
445
330
2
100
AcDbEntity
  8
image
100
AcDbLine
 10
10.4439851759578
 20
5.453389503118828
 30
0.0
 11
10.35049331429879
 21
5.453389503118828
 31
0.0
  0
ARC
  5
446
330
2
100
AcDbEntity
  8
image
100
AcDbCircle
 10
10.48093649673509
 20
5.466176241221682
 30
0.0
 40
0.0369513207772945
100
AcDbArc
 50
89.99999999999969
 51
180.0
  0
LINE
  5
447
330
2
100
AcDbEntity
  8
image
100
AcDbLine
 10
10.48093649673509
 20
5.503127561998973
 30
0.0
 11
10.63016041496007
 21
5.503127561998973
 31
0.0
  0
LINE
  5
448
330
2
100
AcDbEntity
  8
image
100
AcDbLine
 10
10.45451125669794
 20
5.757361926997966
 30
0.0
 11
10.50189528921363
 21
5.757361926997966
 31
0.0
  0
LINE
  5
449
330
2
100
AcDbEntity
  8
image
100
AcDbLine
 10
10.57359749373798
 20
5.651078465810535
 30
0.0
 11
10.57359749373798
 21
5.628762052641776
 31
0.0
  0
ARC
  5
44A
330
2
100
AcDbEntity
  8
image
100
AcDbCircle
 10
10.55512183334934
 20
5.651078465810557
 30
0.0
 40
0.0184756603886473
100
AcDbArc
 50
359.9999999999998
 51
66.30571927358838
  0
LINE
  5
44B
330
2
100
AcDbEntity
  8
image
100
AcDbLine
 10
10.53445923715806
 20
5.652593793736898
 30
0.0
 11
10.59207315412663
 21
5.684189033807713
 31
0.0
  0
LINE
  5
44C
330
2
100
AcDbEntity
  8
image
100
AcDbLine
 10
11.65272792577361
 20
5.503127561998973
 30
0.0
 11
11.58350400754863
 21
5.503127561998973
 31
0.0
  0
LINE
  5
44D
330
2
100
AcDbEntity
  8
image
100
AcDbLine
 10
11.5126477504369
 20
5.015370127738678
 30
0.0
 11
11.65272792577361
 21
5.015370127738678
 31
0.0
  0
ARC
  5
44E
330
2
100
AcDbEntity
  8
image
100
AcDbCircle
 10
11.57128315472493
 20
5.628762052641776
 30
0.0
 40
0.0369513207772945
100
AcDbArc
 50
270.0
 51
0.0
  0
LINE
  5
44F
330
2
100
AcDbEntity
  8
image
100
AcDbLine
 10
10.98175660402398
 20
5.00306107936865
 30
0.0
 11
11.19916592464297
 21
5.00306107936865
 31
0.0
  0
ARC
  5
450
330
2
100
AcDbEntity
  8
image
100
AcDbCircle
 10
11.09046126433347
 20
5.002753815528323
 30
0.0
 40
0.1215812912057411
100
AcDbArc
 50
23.16768142207863
 51
66.64339045708148
  0
ARC
  5
451
330
2
100
AcDbEntity
  8
image
100
AcDbCircle
 10
10.55781885377928
 20
7.108931370038164
 30
0.0
 40
2.077413260277443
100
AcDbArc
 50
279.0200653521828
 51
297.0792479580131
  0
LINE
  5
452
330
2
100
AcDbEntity
  8
image
100
AcDbLine
 10
10.88351643239927
 20
5.057208449842158
 30
0.0
 11
10.96568451024218
 21
5.057208449842158
 31
0.0
  0
ARC
  5
453
330
2
100
AcDbEntity
  8
image
100
AcDbCircle
 10
10.96568451024218
 20
5.041136356060357
 30
0.0
 40
0.0160720937818013
100
AcDbArc
 50
0.0
 51
90.0
  0
ARC
  5
454
330
2
100
AcDbEntity
  8
image
100
AcDbCircle
 10
11.09046126433347
 20
5.002753815528323
 30
0.0
 40
0.1215812912057411
100
AcDbArc
 50
141.7411440853695
 51
156.8323185779213
  0
LINE
  5
455
330
2
100
AcDbEntity
  8
image
100
AcDbLine
 10
10.98175660402398
 20
5.041136356060357
 30
0.0
 11
10.98175660402398
 21
5.00306107936865
 31
0.0
  0
LWPOLYLINE
  5
456
330
2
100
AcDbEntity
  8
image
100
AcDbPolyline
 90
        2
 70
     0
 43
0.0
 10
10.71016041496007
 20
5.591810731864478
 10
10.71016041496007
 20
5.259248844868829
  0
LINE
  5
457
330
2
100
AcDbEntity
  8
image
100
AcDbLine
 10
11.05390883999627
 20
5.259248844868829
 30
0.0
 11
11.13390883999627
 21
5.259248844868829
 31
0.0
  0
LWPOLYLINE
  5
458
330
2
100
AcDbEntity
  8
image
100
AcDbPolyline
 90
        2
 70
     0
 43
0.0
 10
11.05390883999627
 20
5.591810731864478
 10
11.05390883999627
 20
5.259248844868829
  0
LWPOLYLINE
  5
459
330
2
100
AcDbEntity
  8
image
100
AcDbPolyline
 90
        2
 70
     0
 43
0.0
 10
11.13390883999627
 20
5.591810731864478
 10
11.13390883999627
 20
5.259248844868829
  0
LINE
  5
45A
330
2
100
AcDbEntity
  8
image
100
AcDbLine
 10
11.50350400754863
 20
5.358674735961359
 30
0.0
 11
11.50350400754863
 21
5.024513870626955
 31
0.0
  0
LINE
  5
45B
330
2
100
AcDbEntity
  8
image
100
AcDbLine
 10
11.21523801842477
 20
5.057208449842158
 30
0.0
 11
11.50350400754863
 21
5.057208449842158
 31
0.0
  0
ARC
  5
45C
330
2
100
AcDbEntity
  8
image
100
AcDbCircle
 10
11.21523801842477
 20
5.041136356060357
 30
0.0
 40
0.0160720937818013
100
AcDbArc
 50
89.99999999999991
 51
180.0
  0
LINE
  5
45D
330
2
100
AcDbEntity
  8
image
100
AcDbLine
 10
11.19916592464297
 20
5.041136356060357
 30
0.0
 11
11.19916592464297
 21
5.00306107936865
 31
0.0
  0
ARC
  5
45E
330
2
100
AcDbEntity
  8
image
100
AcDbCircle
 10
11.5126477504369
 20
5.024513870626955
 30
0.0
 40
0.009143742888277
100
AcDbArc
 50
180.0000000000002
 51
270.0
  0
LINE
  5
45F
330
2
100
AcDbEntity
  8
image
100
AcDbLine
 10
11.50350400754862
 20
5.259248844868829
 30
0.0
 11
11.58350400754863
 21
5.259248844868829
 31
0.0
  0
LWPOLYLINE
  5
460
330
2
100
AcDbEntity
  8
image
100
AcDbPolyline
 90
        2
 70
     0
 43
0.0
 10
11.50350400754863
 20
5.591810731864478
 10
11.50350400754863
 20
5.358674735961359
  0
LWPOLYLINE
  5
461
330
2
100
AcDbEntity
  8
image
100
AcDbPolyline
 90
        2
 70
     0
 43
0.0
 10
11.58350400754863
 20
5.593908806322873
 10
11.58350400754863
 20
5.259248844868829
  0
LINE
  5
462
330
2
100
AcDbEntity
  8
image
100
AcDbLine
 10
11.62535278982003
 20
5.503127561998973
 30
0.0
 11
11.58350400754863
 21
5.503127561998973
 31
0.0
  0
LINE
  5
463
330
2
100
AcDbEntity
  8
image
100
AcDbLine
 10
11.10015381481443
 20
5.887421298082835
 30
0.0
 11
11.22024560734063
 21
5.887421298082835
 31
0.0
  0
LINE
  5
464
330
2
100
AcDbEntity
  8
image
100
AcDbLine
 10
11.10015381481443
 20
5.950238543404233
 30
0.0
 11
11.1648186261747
 21
5.950238543404233
 31
0.0
  0
LINE
  5
465
330
2
100
AcDbEntity
  8
image
100
AcDbLine
 10
10.92219165762773
 20
6.050669088270034
 30
0.0
 11
10.92219165762773
 21
5.908516990722987
 31
0.0
  0
LINE
  5
466
330
2
100
AcDbEntity
  8
image
100
AcDbLine
 10
11.01701334306552
 20
6.238458845467129
 30
0.0
 11
11.01701334306552
 21
5.950238543404233
 31
0.0
  0
LINE
  5
467
330
2
100
AcDbEntity
  8
image
100
AcDbLine
 10
11.08167815442578
 20
5.813518656528231
 30
0.0
 11
11.08167815442578
 21
6.025881264552048
 31
0.0
  0
LINE
  5
468
330
2
100
AcDbEntity
  8
image
100
AcDbLine
 10
11.10015381481443
 20
5.813518656528231
 30
0.0
 11
11.10015381481443
 21
6.025881264552048
 31
0.0
  0
LINE
  5
469
330
2
100
AcDbEntity
  8
image
100
AcDbLine
 10
11.01701334306552
 20
6.025881264552048
 30
0.0
 11
10.95210995878277
 21
5.933189625657825
 31
0.0
  0
LINE
  5
46A
330
2
100
AcDbEntity
  8
image
100
AcDbLine
 10
10.9911474185214
 20
5.887421298082835
 30
0.0
 11
10.89099708543674
 21
5.829599476316979
 31
0.0
  0
ARC
  5
46B
330
2
100
AcDbEntity
  8
image
100
AcDbCircle
 10
10.82301890898471
 20
5.693426864002028
 30
0.0
 40
0.1521972825592481
100
AcDbArc
 50
56.88865803962805
 51
100.4914770123314
  0
LINE
  5
46C
330
2
100
AcDbEntity
  8
image
100
AcDbLine
 10
10.79530541840175
 20
5.880031033927374
 30
0.0
 11
10.79530541840175
 21
5.843079713150083
 31
0.0
  0
LINE
  5
46D
330
2
100
AcDbEntity
  8
image
100
AcDbLine
 10
10.90615938073362
 20
5.8209089206837
 30
0.0
 11
10.90615938073362
 21
5.813518656528231
 31
0.0
  0
LINE
  5
46E
330
2
100
AcDbEntity
  8
image
100
AcDbLine
 10
10.85073239956769
 20
5.880031033927374
 30
0.0
 11
10.85073239956769
 21
5.843079713150083
 31
0.0
  0
LINE
  5
46F
330
2
100
AcDbEntity
  8
image
100
AcDbLine
 10
10.88473248482809
 20
5.908516990722987
 30
0.0
 11
10.88473248482809
 21
5.832550720241884
 31
0.0
  0
LINE
  5
470
330
2
100
AcDbEntity
  8
image
100
AcDbLine
 10
11.01701334306552
 20
5.950238543404233
 30
0.0
 11
11.08167815442578
 21
5.950238543404233
 31
0.0
  0
LINE
  5
471
330
2
100
AcDbEntity
  8
image
100
AcDbLine
 10
10.96158636189957
 20
5.887421298082835
 30
0.0
 11
11.08167815442578
 21
5.887421298082835
 31
0.0
  0
LINE
  5
472
330
2
100
AcDbEntity
  8
image
100
AcDbLine
 10
11.01701334306552
 20
5.950238543404233
 30
0.0
 11
10.96158636189957
 21
5.887421298082835
 31
0.0
  0
LINE
  5
473
330
2
100
AcDbEntity
  8
image
100
AcDbLine
 10
10.99853768267686
 20
5.887421298082835
 30
0.0
 11
10.98929985248254
 21
5.813518656528231
 31
0.0
  0
LINE
  5
474
330
2
100
AcDbEntity
  8
image
100
AcDbLine
 10
10.96158636189957
 20
5.887421298082835
 30
0.0
 11
10.95823588813894
 21
5.868419817157076
 31
0.0
  0
LWPOLYLINE
  5
475
330
2
100
AcDbEntity
  8
image
100
AcDbPolyline
 90
        5
 70
     0
 43
0.0
 10
10.95210995878277
 20
5.933189625657825
 10
10.95102058351807
 20
5.927955781873955
 10
10.95618977670973
 20
5.903726410631159
 10
10.95360518011391
 20
5.880102773669421
 10
10.95692294353038
 20
5.867661788233889
  0
LINE
  5
476
330
2
100
AcDbEntity
  8
image
100
AcDbLine
 10
10.88144138966424
 20
6.050669088270034
 30
0.0
 11
10.88144138966424
 21
6.301567540440573
 31
0.0
  0
LINE
  5
477
330
2
100
AcDbEntity
  8
image
100
AcDbLine
 10
10.8127345425165
 20
6.301567540440573
 30
0.0
 11
10.8127345425165
 21
6.050669088270034
 31
0.0
  0
LINE
  5
478
330
2
100
AcDbEntity
  8
image
100
AcDbLine
 10
10.86604157909665
 20
6.301567540440573
 30
0.0
 11
10.86604157909665
 21
6.050669088270034
 31
0.0
  0
LINE
  5
479
330
2
100
AcDbEntity
  8
image
100
AcDbLine
 10
11.08167815442578
 20
6.025881264552048
 30
0.0
 11
11.10015381481443
 21
6.025881264552048
 31
0.0
  0
LINE
  5
47A
330
2
100
AcDbEntity
  8
image
100
AcDbLine
 10
11.1648186261747
 20
6.238458845467129
 30
0.0
 11
11.1648186261747
 21
5.950238543404233
 31
0.0
  0
LINE
  5
47B
330
2
100
AcDbEntity
  8
image
100
AcDbLine
 10
11.1648186261747
 20
6.025881264552048
 30
0.0
 11
11.36994712581541
 21
5.880031033927374
 31
0.0
  0
LINE
  5
47C
330
2
100
AcDbEntity
  8
image
100
AcDbLine
 10
11.33109956967251
 20
5.880031033927374
 30
0.0
 11
11.4419535320044
 21
5.880031033927374
 31
0.0
  0
LINE
  5
47D
330
2
100
AcDbEntity
  8
image
100
AcDbLine
 10
11.27567258850658
 20
5.813518656528231
 30
0.0
 11
11.49738051317034
 21
5.813518656528231
 31
0.0
  0
ARC
  5
47E
330
2
100
AcDbEntity
  8
image
100
AcDbCircle
 10
11.41424004142143
 20
5.693426864002028
 30
0.0
 40
0.1521972825592481
100
AcDbArc
 50
56.88865803962805
 51
100.4914770123314
  0
LINE
  5
47F
330
2
100
AcDbEntity
  8
image
100
AcDbLine
 10
11.1648186261747
 20
5.950238543404233
 30
0.0
 11
11.22024560734063
 21
5.887421298082835
 31
0.0
  0
LINE
  5
480
330
2
100
AcDbEntity
  8
image
100
AcDbLine
 10
11.18329428656333
 20
5.887421298082835
 30
0.0
 11
11.19253211675766
 21
5.813518656528231
 31
0.0
  0
LINE
  5
481
330
2
100
AcDbEntity
  8
image
100
AcDbLine
 10
11.33109956967251
 20
5.880031033927374
 30
0.0
 11
11.33109956967251
 21
5.843079713150083
 31
0.0
  0
LINE
  5
482
330
2
100
AcDbEntity
  8
image
100
AcDbLine
 10
11.27567258850658
 20
5.8209089206837
 30
0.0
 11
11.27567258850658
 21
5.813518656528231
 31
0.0
  0
LINE
  5
483
330
2
100
AcDbEntity
  8
image
100
AcDbLine
 10
11.38652655083846
 20
5.880031033927374
 30
0.0
 11
11.38652655083846
 21
5.843079713150083
 31
0.0
  0
ARC
  5
484
330
2
100
AcDbEntity
  8
image
100
AcDbCircle
 10
11.35881306025548
 20
5.693426864002028
 30
0.0
 40
0.1521972825592481
100
AcDbArc
 50
79.50852298766861
 51
123.1113419603719
  0
LINE
  5
485
330
2
100
AcDbEntity
  8
image
100
AcDbLine
 10
11.1906845507188
 20
5.887421298082835
 30
0.0
 11
11.29083488380347
 21
5.829599476316979
 31
0.0
  0
LINE
  5
486
330
2
100
AcDbEntity
  8
image
100
AcDbLine
 10
11.22024560734063
 20
5.887421298082835
 30
0.0
 11
11.22359608110126
 21
5.868419817157076
 31
0.0
  0
LINE
  5
487
330
2
100
AcDbEntity
  8
image
100
AcDbLine
 10
11.60823447550223
 20
5.776567335750955
 30
0.0
 11
11.60823447550223
 21
5.628762052641776
 31
0.0
  0
ARC
  5
488
330
2
100
AcDbEntity
  8
image
100
AcDbCircle
 10
11.57128315472493
 20
5.776567335750955
 30
0.0
 40
0.0369513207772945
100
AcDbArc
 50
0.0
 51
90.0
  0
LINE
  5
489
330
2
100
AcDbEntity
  8
image
100
AcDbLine
 10
11.4419535320044
 20
5.880031033927374
 30
0.0
 11
11.4419535320044
 21
5.843079713150083
 31
0.0
  0
LINE
  5
48A
330
2
100
AcDbEntity
  8
image
100
AcDbLine
 10
11.49738051317034
 20
5.8209089206837
 30
0.0
 11
11.49738051317034
 21
5.813518656528231
 31
0.0
  0
LINE
  5
48B
330
2
100
AcDbEntity
  8
image
100
AcDbLine
 10
11.6896792465509
 20
5.466176241221682
 30
0.0
 11
11.6896792465509
 21
5.052321448515983
 31
0.0
  0
LINE
  5
48C
330
2
100
AcDbEntity
  8
image
100
AcDbLine
 10
11.6896792465509
 20
5.052321448515983
 30
0.0
 11
11.6896792465509
 21
5.466176241221682
 31
0.0
  0
LINE
  5
48D
330
2
100
AcDbEntity
  8
image
100
AcDbLine
 10
11.71690803428679
 20
5.419695907762879
 30
0.0
 11
11.71690803428679
 21
5.101042895019269
 31
0.0
  0
ARC
  5
48F
330
2
100
AcDbEntity
  8
image
100
AcDbCircle
 10
11.65272792577361
 20
5.052321448515983
 30
0.0
 40
0.0369513207772945
100
AcDbArc
 50
270.0
 51
0.0
  0
ARC
  5
491
330
2
100
AcDbEntity
  8
image
100
AcDbCircle
 10
11.65272792577361
 20
5.466176241221682
 30
0.0
 40
0.0369513207772945
100
AcDbArc
 50
0.0
 51
90.00000000000019
  0
LINE
  5
492
330
2
100
AcDbEntity
  8
image
100
AcDbLine
 10
11.21710513559172
 20
6.238458845467129
 30
0.0
 11
11.21710513559172
 21
6.462629267669279
 31
0.0
  0
LINE
  5
493
330
2
100
AcDbEntity
  8
image
100
AcDbLine
 10
10.96472683364848
 20
6.238458845467129
 30
0.0
 11
10.96472683364848
 21
6.462629267669279
 31
0.0
  0
LINE
  5
494
330
2
100
AcDbEntity
  8
image
100
AcDbLine
 10
10.96472683364848
 20
6.238458845467129
 30
0.0
 11
11.21710513559172
 21
6.238458845467129
 31
0.0
  0
LINE
  5
495
330
2
100
AcDbEntity
  8
image
100
AcDbLine
 10
11.13091598462011
 20
6.462629267669286
 30
0.0
 11
11.34033739986684
 21
6.462629267669279
 31
0.0
  0
LINE
  5
496
330
2
100
AcDbEntity
  8
image
100
AcDbLine
 10
11.13091598462011
 20
6.601196720584142
 30
0.0
 11
11.34033739986684
 21
6.601196720584135
 31
0.0
  0
LINE
  5
497
330
2
100
AcDbEntity
  8
image
100
AcDbLine
 10
11.01633475890312
 20
6.675099362138724
 30
0.0
 11
11.16458776976382
 21
6.675099362138724
 31
0.0
  0
LINE
  5
498
330
2
100
AcDbEntity
  8
image
100
AcDbLine
 10
11.01633475890312
 20
6.601196720584135
 30
0.0
 11
11.01633475890312
 21
6.675099362138724
 31
0.0
  0
LINE
  5
499
330
2
100
AcDbEntity
  8
image
100
AcDbLine
 10
10.84149456937336
 20
6.462629267669279
 30
0.0
 11
11.0509159846201
 21
6.462629267669286
 31
0.0
  0
LINE
  5
49A
330
2
100
AcDbEntity
  8
image
100
AcDbLine
 10
10.84149456937336
 20
6.601196720584135
 30
0.0
 11
11.0509159846201
 21
6.601196720584142
 31
0.0
  0
LWPOLYLINE
  5
49B
330
2
100
AcDbEntity
  8
image
100
AcDbPolyline
 90
        2
 70
     0
 43
0.0
 10
10.84149456937336
 20
6.601196720584135
 10
10.84149456937336
 20
6.462629267669279
  0
LINE
  5
49C
330
2
100
AcDbEntity
  8
image
100
AcDbLine
 10
11.0509159846201
 20
6.502917203490938
 30
0.0
 11
11.1309159846201
 21
6.502917203490945
 31
0.0
  0
LINE
  5
49D
330
2
100
AcDbEntity
  8
image
100
AcDbLine
 10
11.0509159846201
 20
6.560908784762475
 30
0.0
 11
11.1309159846201
 21
6.560908784762475
 31
0.0
  0
LWPOLYLINE
  5
49E
330
2
100
AcDbEntity
  8
image
100
AcDbPolyline
 90
        2
 70
     0
 43
0.0
 10
11.1309159846201
 20
6.601196720584135
 10
11.1309159846201
 20
6.462629267669279
  0
LWPOLYLINE
  5
49F
330
2
100
AcDbEntity
  8
image
100
AcDbPolyline
 90
        2
 70
     0
 43
0.0
 10
11.0509159846201
 20
6.601196720584135
 10
11.0509159846201
 20
6.462629267669279
  0
LINE
  5
4A0
330
2
100
AcDbEntity
  8
image
100
AcDbLine
 10
11.16458776976382
 20
6.601196720584135
 30
0.0
 11
11.16458776976382
 21
6.675099362138724
 31
0.0
  0
LWPOLYLINE
  5
4A1
330
2
100
AcDbEntity
  8
image
100
AcDbPolyline
 90
        2
 70
     0
 43
0.0
 10
11.34033739986684
 20
6.601196720584135
 10
11.34033739986684
 20
6.462629267669279
  0
LINE
  5
4A3
330
2
100
AcDbEntity
  8
image
100
AcDbLine
 10
7.91221444668564
 20
6.739040711981847
 30
0.0
 11
8.374264396442958
 21
6.739040711981847
 31
0.0
  0
LINE
  5
4A4
330
2
100
AcDbEntity
  8
image
100
AcDbLine
 10
7.91221444668564
 20
6.753380193181212
 30
0.0
 11
8.374264396442958
 21
6.753380193181212
 31
0.0
  0
LINE
  5
4A5
330
2
100
AcDbEntity
  8
image
100
AcDbLine
 10
7.91221444668564
 20
6.724701230782483
 30
0.0
 11
7.963517923865593
 21
6.724701230782483
 31
0.0
  0
LINE
  5
4A6
330
2
100
AcDbEntity
  8
image
100
AcDbLine
 10
7.91221444668564
 20
6.724701230782483
 30
0.0
 11
7.91221444668564
 21
6.753380193181212
 31
0.0
  0
LINE
  5
4A7
330
2
100
AcDbEntity
  8
image
100
AcDbLine
 10
7.966385820105459
 20
6.801178463845769
 30
0.0
 11
7.966385820105459
 21
6.753380193181212
 31
0.0
  0
LINE
  5
4A8
330
2
100
AcDbEntity
  8
image
100
AcDbLine
 10
8.058795810056926
 20
6.801178463845769
 30
0.0
 11
8.058795810056926
 21
6.753380193181212
 31
0.0
  0
LINE
  5
4A9
330
2
100
AcDbEntity
  8
image
100
AcDbLine
 10
8.071542015567471
 20
6.801178463845769
 30
0.0
 11
8.071542015567471
 21
6.753380193181212
 31
0.0
  0
LINE
  5
4AA
330
2
100
AcDbEntity
  8
image
100
AcDbLine
 10
7.966385820105459
 20
6.801178463845769
 30
0.0
 11
8.071542015567471
 21
6.801178463845769
 31
0.0
  0
LINE
  5
4AB
330
2
100
AcDbEntity
  8
image
100
AcDbLine
 10
8.04971413863066
 20
6.645037446341572
 30
0.0
 11
7.963517923865593
 21
6.724701230782483
 31
0.0
  0
LINE
  5
4AC
330
2
100
AcDbEntity
  8
image
100
AcDbLine
 10
7.963517923865593
 20
6.724701230782483
 30
0.0
 11
7.963517923865593
 21
6.739040711981847
 31
0.0
  0
LINE
  5
4AD
330
2
100
AcDbEntity
  8
image
100
AcDbLine
 10
8.04971413863066
 20
6.645037446341572
 30
0.0
 11
8.049714138630662
 21
6.082133145482043
 31
0.0
  0
LINE
  5
4AE
330
2
100
AcDbEntity
  8
image
100
AcDbLine
 10
8.04971413863066
 20
6.645037446341572
 30
0.0
 11
8.236764704497931
 21
6.645037446341572
 31
0.0
  0
LINE
  5
4AF
330
2
100
AcDbEntity
  8
image
100
AcDbLine
 10
8.214936827561125
 20
6.801178463845769
 30
0.0
 11
8.332839228533684
 21
6.801178463845769
 31
0.0
  0
LINE
  5
4B0
330
2
100
AcDbEntity
  8
image
100
AcDbLine
 10
8.322960919263003
 20
6.724701230782483
 30
0.0
 11
8.374264396442958
 21
6.724701230782483
 31
0.0
  0
LINE
  5
4B1
330
2
100
AcDbEntity
  8
image
100
AcDbLine
 10
8.227683033071672
 20
6.801178463845769
 30
0.0
 11
8.227683033071672
 21
6.753380193181212
 31
0.0
  0
LINE
  5
4B2
330
2
100
AcDbEntity
  8
image
100
AcDbLine
 10
8.214936827561125
 20
6.801178463845769
 30
0.0
 11
8.214936827561125
 21
6.753380193181212
 31
0.0
  0
LINE
  5
4B3
330
2
100
AcDbEntity
  8
image
100
AcDbLine
 10
8.322960919263003
 20
6.724701230782483
 30
0.0
 11
8.322960919263003
 21
6.739040711981847
 31
0.0
  0
LINE
  5
4B4
330
2
100
AcDbEntity
  8
image
100
AcDbLine
 10
8.332839228533684
 20
6.801178463845769
 30
0.0
 11
8.332839228533684
 21
6.753380193181212
 31
0.0
  0
LINE
  5
4B5
330
2
100
AcDbEntity
  8
image
100
AcDbLine
 10
8.374264396442958
 20
6.753380193181212
 30
0.0
 11
8.374264396442958
 21
6.724701230782483
 31
0.0
  0
LINE
  5
4B6
330
2
100
AcDbEntity
  8
image
100
AcDbLine
 10
8.236764704497931
 20
6.645037446341572
 30
0.0
 11
8.322960919263003
 21
6.724701230782483
 31
0.0
  0
LINE
  5
4B7
330
2
100
AcDbEntity
  8
image
100
AcDbLine
 10
8.236764704497931
 20
6.645037446341572
 30
0.0
 11
8.236764704497932
 21
6.082133145482043
 31
0.0
  0
ARC
  5
4B8
330
2
100
AcDbEntity
  8
image
100
AcDbCircle
 10
8.143239421564297
 20
6.082133145482043
 30
0.0
 40
0.093525282933636
100
AcDbArc
 50
180.0
 51
0.0
  0
LINE
  5
4B9
330
2
100
AcDbEntity
  8
image
100
AcDbLine
 10
8.67347083277464
 20
6.900978935681142
 30
0.0
 11
8.67347083277464
 21
6.791617027870754
 31
0.0
  0
LINE
  5
4BA
330
2
100
AcDbEntity
  8
image
100
AcDbLine
 10
8.486420266907369
 20
6.900978935681142
 30
0.0
 11
8.486420266907369
 21
6.796978617728766
 31
0.0
  0
ARC
  5
4BB
330
2
100
AcDbEntity
  8
image
100
AcDbCircle
 10
8.579945549841006
 20
6.338074634821613
 30
0.0
 40
0.093525282933636
100
AcDbArc
 50
180.0
 51
0.0
  0
LINE
  5
4BC
330
2
100
AcDbEntity
  8
image
100
AcDbLine
 10
8.348920574962349
 20
6.980642720122053
 30
0.0
 11
8.400224052142302
 21
6.980642720122053
 31
0.0
  0
LINE
  5
4BD
330
2
100
AcDbEntity
  8
image
100
AcDbLine
 10
8.348920574962349
 20
7.009321682520782
 30
0.0
 11
8.810970524719667
 21
7.009321682520782
 31
0.0
  0
LINE
  5
4BE
330
2
100
AcDbEntity
  8
image
100
AcDbLine
 10
8.348920574962349
 20
6.994982201321417
 30
0.0
 11
8.810970524719667
 21
6.994982201321417
 31
0.0
  0
LINE
  5
4BF
330
2
100
AcDbEntity
  8
image
100
AcDbLine
 10
8.348920574962349
 20
6.980642720122053
 30
0.0
 11
8.348920574962349
 21
7.009321682520782
 31
0.0
  0
LINE
  5
4C0
330
2
100
AcDbEntity
  8
image
100
AcDbLine
 10
8.67347083277464
 20
6.900978935681142
 30
0.0
 11
8.759667047539712
 21
6.980642720122053
 31
0.0
  0
LINE
  5
4C1
330
2
100
AcDbEntity
  8
image
100
AcDbLine
 10
8.651642955837834
 20
7.057119953185339
 30
0.0
 11
8.769545356810393
 21
7.057119953185339
 31
0.0
  0
LINE
  5
4C2
330
2
100
AcDbEntity
  8
image
100
AcDbLine
 10
8.651642955837834
 20
7.057119953185339
 30
0.0
 11
8.651642955837834
 21
7.009321682520782
 31
0.0
  0
LINE
  5
4C3
330
2
100
AcDbEntity
  8
image
100
AcDbLine
 10
8.664389161348381
 20
7.057119953185339
 30
0.0
 11
8.664389161348381
 21
7.009321682520782
 31
0.0
  0
LINE
  5
4C4
330
2
100
AcDbEntity
  8
image
100
AcDbLine
 10
8.486420266907369
 20
6.900978935681142
 30
0.0
 11
8.67347083277464
 21
6.900978935681142
 31
0.0
  0
LINE
  5
4C5
330
2
100
AcDbEntity
  8
image
100
AcDbLine
 10
8.400224052142302
 20
6.980642720122053
 30
0.0
 11
8.400224052142302
 21
6.994982201321417
 31
0.0
  0
LINE
  5
4C6
330
2
100
AcDbEntity
  8
image
100
AcDbLine
 10
8.486420266907369
 20
6.900978935681142
 30
0.0
 11
8.400224052142302
 21
6.980642720122053
 31
0.0
  0
LINE
  5
4C7
330
2
100
AcDbEntity
  8
image
100
AcDbLine
 10
8.403091948382169
 20
7.057119953185339
 30
0.0
 11
8.508248143844181
 21
7.057119953185339
 31
0.0
  0
LINE
  5
4C8
330
2
100
AcDbEntity
  8
image
100
AcDbLine
 10
8.508248143844181
 20
7.057119953185339
 30
0.0
 11
8.508248143844181
 21
7.009321682520782
 31
0.0
  0
LINE
  5
4C9
330
2
100
AcDbEntity
  8
image
100
AcDbLine
 10
8.495501938333635
 20
7.057119953185339
 30
0.0
 11
8.495501938333635
 21
7.009321682520782
 31
0.0
  0
LINE
  5
4CA
330
2
100
AcDbEntity
  8
image
100
AcDbLine
 10
8.403091948382169
 20
7.057119953185339
 30
0.0
 11
8.403091948382169
 21
7.009321682520782
 31
0.0
  0
LINE
  5
4CB
330
2
100
AcDbEntity
  8
image
100
AcDbLine
 10
8.810970524719667
 20
7.009321682520782
 30
0.0
 11
8.810970524719667
 21
6.980642720122053
 31
0.0
  0
LINE
  5
4CC
330
2
100
AcDbEntity
  8
image
100
AcDbLine
 10
8.769545356810393
 20
7.057119953185339
 30
0.0
 11
8.769545356810393
 21
7.009321682520782
 31
0.0
  0
LINE
  5
4CD
330
2
100
AcDbEntity
  8
image
100
AcDbLine
 10
8.759667047539712
 20
6.980642720122053
 30
0.0
 11
8.759667047539712
 21
6.994982201321417
 31
0.0
  0
LINE
  5
4CE
330
2
100
AcDbEntity
  8
image
100
AcDbLine
 10
8.759667047539712
 20
6.980642720122053
 30
0.0
 11
8.810970524719667
 21
6.980642720122053
 31
0.0
  0
ARC
  5
4CF
330
2
100
AcDbEntity
  8
image
100
AcDbCircle
 10
4.360194397144976
 20
6.09232030855528
 30
0.0
 40
0.093525282933636
100
AcDbArc
 50
180.0
 51
0.0
  0
LINE
  5
4D0
330
2
100
AcDbEntity
  8
image
100
AcDbLine
 10
4.266669114211338
 20
6.655224609414809
 30
0.0
 11
4.453719680078608
 21
6.655224609414809
 31
0.0
  0
LINE
  5
4D1
330
2
100
AcDbEntity
  8
image
100
AcDbLine
 10
4.431891803141801
 20
6.811365626919006
 30
0.0
 11
4.549794204114362
 21
6.811365626919006
 31
0.0
  0
LINE
  5
4D2
330
2
100
AcDbEntity
  8
image
100
AcDbLine
 10
4.129169422266318
 20
6.749227875055084
 30
0.0
 11
4.591219372023636
 21
6.749227875055084
 31
0.0
  0
LINE
  5
4D3
330
2
100
AcDbEntity
  8
image
100
AcDbLine
 10
4.129169422266318
 20
6.763567356254449
 30
0.0
 11
4.591219372023636
 21
6.763567356254449
 31
0.0
  0
LINE
  5
4D4
330
2
100
AcDbEntity
  8
image
100
AcDbLine
 10
4.266669114211338
 20
6.655224609414809
 30
0.0
 11
4.266669114211338
 21
6.09232030855528
 31
0.0
  0
LINE
  5
4D5
330
2
100
AcDbEntity
  8
image
100
AcDbLine
 10
4.183340795686137
 20
6.811365626919006
 30
0.0
 11
4.183340795686137
 21
6.763567356254449
 31
0.0
  0
LINE
  5
4D6
330
2
100
AcDbEntity
  8
image
100
AcDbLine
 10
4.275750785637604
 20
6.811365626919006
 30
0.0
 11
4.275750785637604
 21
6.763567356254449
 31
0.0
  0
LINE
  5
4D7
330
2
100
AcDbEntity
  8
image
100
AcDbLine
 10
4.288496991148149
 20
6.811365626919006
 30
0.0
 11
4.288496991148149
 21
6.763567356254449
 31
0.0
  0
LINE
  5
4D8
330
2
100
AcDbEntity
  8
image
100
AcDbLine
 10
4.183340795686137
 20
6.811365626919006
 30
0.0
 11
4.288496991148149
 21
6.811365626919006
 31
0.0
  0
LINE
  5
4D9
330
2
100
AcDbEntity
  8
image
100
AcDbLine
 10
4.266669114211338
 20
6.655224609414809
 30
0.0
 11
4.180472899446271
 21
6.73488839385572
 31
0.0
  0
LINE
  5
4DA
330
2
100
AcDbEntity
  8
image
100
AcDbLine
 10
4.180472899446271
 20
6.73488839385572
 30
0.0
 11
4.180472899446271
 21
6.749227875055084
 31
0.0
  0
LINE
  5
4DB
330
2
100
AcDbEntity
  8
image
100
AcDbLine
 10
4.431891803141801
 20
6.811365626919006
 30
0.0
 11
4.431891803141801
 21
6.763567356254449
 31
0.0
  0
LINE
  5
4DC
330
2
100
AcDbEntity
  8
image
100
AcDbLine
 10
4.129169422266318
 20
6.73488839385572
 30
0.0
 11
4.129169422266318
 21
6.763567356254449
 31
0.0
  0
LINE
  5
4DD
330
2
100
AcDbEntity
  8
image
100
AcDbLine
 10
4.129169422266318
 20
6.73488839385572
 30
0.0
 11
4.180472899446271
 21
6.73488839385572
 31
0.0
  0
LINE
  5
4DE
330
2
100
AcDbEntity
  8
image
100
AcDbLine
 10
4.453719680078608
 20
6.655224609414809
 30
0.0
 11
4.453719680078608
 21
6.09232030855528
 31
0.0
  0
LINE
  5
4DF
330
2
100
AcDbEntity
  8
image
100
AcDbLine
 10
4.539915894843679
 20
6.73488839385572
 30
0.0
 11
4.591219372023636
 21
6.73488839385572
 31
0.0
  0
LINE
  5
4E0
330
2
100
AcDbEntity
  8
image
100
AcDbLine
 10
4.539915894843679
 20
6.73488839385572
 30
0.0
 11
4.539915894843679
 21
6.749227875055084
 31
0.0
  0
LINE
  5
4E1
330
2
100
AcDbEntity
  8
image
100
AcDbLine
 10
4.549794204114362
 20
6.811365626919006
 30
0.0
 11
4.549794204114362
 21
6.763567356254449
 31
0.0
  0
LINE
  5
4E2
330
2
100
AcDbEntity
  8
image
100
AcDbLine
 10
4.591219372023636
 20
6.763567356254449
 30
0.0
 11
4.591219372023636
 21
6.73488839385572
 31
0.0
  0
LINE
  5
4E3
330
2
100
AcDbEntity
  8
image
100
AcDbLine
 10
4.44463800865235
 20
6.811365626919006
 30
0.0
 11
4.44463800865235
 21
6.763567356254449
 31
0.0
  0
LINE
  5
4E4
330
2
100
AcDbEntity
  8
image
100
AcDbLine
 10
4.453719680078608
 20
6.655224609414809
 30
0.0
 11
4.539915894843679
 21
6.73488839385572
 31
0.0
  0
ARC
  5
4E5
330
2
100
AcDbEntity
  8
image
100
AcDbCircle
 10
3.603218176607292
 20
6.526456236215918
 30
0.0
 40
0.093525282933636
100
AcDbArc
 50
180.0
 51
0.0
  0
LINE
  5
4E6
330
2
100
AcDbEntity
  8
image
100
AcDbLine
 10
3.509692893673654
 20
7.089360537075447
 30
0.0
 11
3.696743459540924
 21
7.089360537075447
 31
0.0
  0
LINE
  5
4E7
330
2
100
AcDbEntity
  8
image
100
AcDbLine
 10
3.674915582604117
 20
7.245501554579644
 30
0.0
 11
3.792817983576678
 21
7.245501554579644
 31
0.0
  0
LINE
  5
4E8
330
2
100
AcDbEntity
  8
image
100
AcDbLine
 10
3.372193201728634
 20
7.183363802715722
 30
0.0
 11
3.834243151485952
 21
7.183363802715722
 31
0.0
  0
LINE
  5
4E9
330
2
100
AcDbEntity
  8
image
100
AcDbLine
 10
3.372193201728634
 20
7.197703283915086
 30
0.0
 11
3.834243151485952
 21
7.197703283915086
 31
0.0
  0
LINE
  5
4EA
330
2
100
AcDbEntity
  8
image
100
AcDbLine
 10
3.509692893673654
 20
7.089360537075447
 30
0.0
 11
3.509692893673654
 21
6.526456236215918
 31
0.0
  0
LINE
  5
4EB
330
2
100
AcDbEntity
  8
image
100
AcDbLine
 10
3.426364575148453
 20
7.245501554579644
 30
0.0
 11
3.426364575148453
 21
7.197703283915086
 31
0.0
  0
LINE
  5
4EC
330
2
100
AcDbEntity
  8
image
100
AcDbLine
 10
3.51877456509992
 20
7.245501554579644
 30
0.0
 11
3.51877456509992
 21
7.197703283915086
 31
0.0
  0
LINE
  5
4ED
330
2
100
AcDbEntity
  8
image
100
AcDbLine
 10
3.531520770610465
 20
7.245501554579644
 30
0.0
 11
3.531520770610465
 21
7.197703283915086
 31
0.0
  0
LINE
  5
4EE
330
2
100
AcDbEntity
  8
image
100
AcDbLine
 10
3.426364575148453
 20
7.245501554579644
 30
0.0
 11
3.531520770610465
 21
7.245501554579644
 31
0.0
  0
LINE
  5
4EF
330
2
100
AcDbEntity
  8
image
100
AcDbLine
 10
3.509692893673654
 20
7.089360537075447
 30
0.0
 11
3.423496678908587
 21
7.169024321516357
 31
0.0
  0
LINE
  5
4F0
330
2
100
AcDbEntity
  8
image
100
AcDbLine
 10
3.423496678908587
 20
7.169024321516357
 30
0.0
 11
3.423496678908587
 21
7.183363802715722
 31
0.0
  0
LINE
  5
4F1
330
2
100
AcDbEntity
  8
image
100
AcDbLine
 10
3.674915582604117
 20
7.245501554579644
 30
0.0
 11
3.674915582604117
 21
7.197703283915086
 31
0.0
  0
LINE
  5
4F2
330
2
100
AcDbEntity
  8
image
100
AcDbLine
 10
3.372193201728634
 20
7.169024321516357
 30
0.0
 11
3.372193201728634
 21
7.197703283915086
 31
0.0
  0
LINE
  5
4F3
330
2
100
AcDbEntity
  8
image
100
AcDbLine
 10
3.372193201728634
 20
7.169024321516357
 30
0.0
 11
3.423496678908587
 21
7.169024321516357
 31
0.0
  0
LINE
  5
4F4
330
2
100
AcDbEntity
  8
image
100
AcDbLine
 10
3.696743459540924
 20
7.089360537075447
 30
0.0
 11
3.696743459540924
 21
6.526456236215918
 31
0.0
  0
LINE
  5
4F5
330
2
100
AcDbEntity
  8
image
100
AcDbLine
 10
3.782939674305995
 20
7.169024321516357
 30
0.0
 11
3.834243151485952
 21
7.169024321516357
 31
0.0
  0
LINE
  5
4F6
330
2
100
AcDbEntity
  8
image
100
AcDbLine
 10
3.782939674305995
 20
7.169024321516357
 30
0.0
 11
3.782939674305995
 21
7.183363802715722
 31
0.0
  0
LINE
  5
4F7
330
2
100
AcDbEntity
  8
image
100
AcDbLine
 10
3.792817983576678
 20
7.245501554579644
 30
0.0
 11
3.792817983576678
 21
7.197703283915086
 31
0.0
  0
LINE
  5
4F8
330
2
100
AcDbEntity
  8
image
100
AcDbLine
 10
3.834243151485952
 20
7.197703283915086
 30
0.0
 11
3.834243151485952
 21
7.169024321516357
 31
0.0
  0
LINE
  5
4F9
330
2
100
AcDbEntity
  8
image
100
AcDbLine
 10
3.687661788114666
 20
7.245501554579644
 30
0.0
 11
3.687661788114666
 21
7.197703283915086
 31
0.0
  0
LINE
  5
4FA
330
2
100
AcDbEntity
  8
image
100
AcDbLine
 10
3.696743459540924
 20
7.089360537075447
 30
0.0
 11
3.782939674305995
 21
7.169024321516357
 31
0.0
  0
POLYLINE
  5
4FB
330
2
100
AcDbEntity
  8
image
100
AcDb2dPolyline
 66
     1
 10
0.0
 20
0.0
 30
0.0
 70
     4
 75
     6
  0
VERTEX
  5
4FC
330
4FB
100
AcDbEntity
  8
image
100
AcDbVertex
100
AcDb2dVertex
 10
6.922437933426825
 20
5.066581493805316
 30
0.0
 70
    16
  0
VERTEX
  5
4FD
330
4FB
100
AcDbEntity
  8
image
100
AcDbVertex
100
AcDb2dVertex
 10
6.922437933426825
 20
5.066581493805316
 30
0.0
 70
     8
  0
VERTEX
  5
4FE
330
4FB
100
AcDbEntity
  8
image
100
AcDbVertex
100
AcDb2dVertex
 10
6.94293773570326
 20
5.212913910640847
 30
0.0
 70
     8
  0
VERTEX
  5
4FF
330
4FB
100
AcDbEntity
  8
image
100
AcDbVertex
100
AcDb2dVertex
 10
6.960304241429195
 20
5.335810536311869
 30
0.0
 70
     8
  0
VERTEX
  5
500
330
4FB
100
AcDbEntity
  8
image
100
AcDbVertex
100
AcDb2dVertex
 10
6.975225059550552
 20
5.438473322462603
 30
0.0
 70
     8
  0
VERTEX
  5
501
330
4FB
100
AcDbEntity
  8
image
100
AcDbVertex
100
AcDb2dVertex
 10
6.988387799013253
 20
5.524104220737268
 30
0.0
 70
     8
  0
VERTEX
  5
502
330
4FB
100
AcDbEntity
  8
image
100
AcDbVertex
100
AcDb2dVertex
 10
7.000480068763222
 20
5.595905182780083
 30
0.0
 70
     8
  0
VERTEX
  5
503
330
4FB
100
AcDbEntity
  8
image
100
AcDbVertex
100
AcDb2dVertex
 10
7.012189477746384
 20
5.657078160235266
 30
0.0
 70
     8
  0
VERTEX
  5
504
330
4FB
100
AcDbEntity
  8
image
100
AcDbVertex
100
AcDb2dVertex
 10
7.024203634908658
 20
5.710825104747034
 30
0.0
 70
     8
  0
VERTEX
  5
505
330
4FB
100
AcDbEntity
  8
image
100
AcDbVertex
100
AcDb2dVertex
 10
7.037210149195971
 20
5.760347967959604
 30
0.0
 70
     8
  0
VERTEX
  5
506
330
4FB
100
AcDbEntity
  8
image
100
AcDbVertex
100
AcDb2dVertex
 10
7.051795723433641
 20
5.808356110628182
 30
0.0
 70
     8
  0
VERTEX
  5
507
330
4FB
100
AcDbEntity
  8
image
100
AcDbVertex
100
AcDb2dVertex
 10
7.068143435964566
 20
5.855588529951909
 30
0.0
 70
     8
  0
VERTEX
  5
508
330
4FB
100
AcDbEntity
  8
image
100
AcDbVertex
100
AcDb2dVertex
 10
7.086335459011042
 20
5.902291632240904
 30
0.0
 70
     8
  0
VERTEX
  5
509
330
4FB
100
AcDbEntity
  8
image
100
AcDbVertex
100
AcDb2dVertex
 10
7.106453964795363
 20
5.948711823805287
 30
0.0
 70
     8
  0
VERTEX
  5
50A
330
4FB
100
AcDbEntity
  8
image
100
AcDbVertex
100
AcDb2dVertex
 10
7.128581125539827
 20
5.995095510955185
 30
0.0
 70
     8
  0
VERTEX
  5
50B
330
4FB
100
AcDbEntity
  8
image
100
AcDbVertex
100
AcDb2dVertex
 10
7.152799113466725
 20
6.041689100000721
 30
0.0
 70
     8
  0
VERTEX
  5
50C
330
4FB
100
AcDbEntity
  8
image
100
AcDbVertex
100
AcDb2dVertex
 10
7.179190100798354
 20
6.088738997252012
 30
0.0
 70
     8
  0
VERTEX
  5
50D
330
4FB
100
AcDbEntity
  8
image
100
AcDbVertex
100
AcDb2dVertex
 10
7.20783625975701
 20
6.136491609019189
 30
0.0
 70
     8
  0
VERTEX
  5
50E
330
4FB
100
AcDbEntity
  8
image
100
AcDbVertex
100
AcDb2dVertex
 10
7.238711212383551
 20
6.185035791144774
 30
0.0
 70
     8
  0
VERTEX
  5
50F
330
4FB
100
AcDbEntity
  8
image
100
AcDbVertex
100
AcDb2dVertex
 10
7.271354379993084
 20
6.233830197600913
 30
0.0
 70
     8
  0
VERTEX
  5
510
330
4FB
100
AcDbEntity
  8
image
100
AcDbVertex
100
AcDb2dVertex
 10
7.305196633719284
 20
6.282175931892155
 30
0.0
 70
     8
  0
VERTEX
  5
511
330
4FB
100
AcDbEntity
  8
image
100
AcDbVertex
100
AcDb2dVertex
 10
7.339668844695824
 20
6.329374097523055
 30
0.0
 70
     8
  0
VERTEX
  5
512
330
4FB
100
AcDbEntity
  8
image
100
AcDbVertex
100
AcDb2dVertex
 10
7.374201884056378
 20
6.374725797998153
 30
0.0
 70
     8
  0
VERTEX
  5
513
330
4FB
100
AcDbEntity
  8
image
100
AcDbVertex
100
AcDb2dVertex
 10
7.408226622934616
 20
6.417532136822008
 30
0.0
 70
     8
  0
VERTEX
  5
514
330
4FB
100
AcDbEntity
  8
image
100
AcDbVertex
100
AcDb2dVertex
 10
7.441173932464214
 20
6.457094217499165
 30
0.0
 70
     8
  0
VERTEX
  5
515
330
4FB
100
AcDbEntity
  8
image
100
AcDbVertex
100
AcDb2dVertex
 10
7.472474683778842
 20
6.492713143534175
 30
0.0
 70
     8
  0
VERTEX
  5
516
330
4FB
100
AcDbEntity
  8
image
100
AcDbVertex
100
AcDb2dVertex
 10
7.501706305103248
 20
6.523894577537757
 30
0.0
 70
     8
  0
VERTEX
  5
517
330
4FB
100
AcDbEntity
  8
image
100
AcDbVertex
100
AcDb2dVertex
 10
7.529032453026475
 20
6.550962418545286
 30
0.0
 70
     8
  0
VERTEX
  5
518
330
4FB
100
AcDbEntity
  8
image
100
AcDbVertex
100
AcDb2dVertex
 10
7.554763341228637
 20
6.574445124698315
 30
0.0
 70
     8
  0
VERTEX
  5
519
330
4FB
100
AcDbEntity
  8
image
100
AcDbVertex
100
AcDb2dVertex
 10
7.57920918338985
 20
6.594871154138393
 30
0.0
 70
     8
  0
VERTEX
  5
51A
330
4FB
100
AcDbEntity
  8
image
100
AcDbVertex
100
AcDb2dVertex
 10
7.602680193190228
 20
6.61276896500706
 30
0.0
 70
     8
  0
VERTEX
  5
51B
330
4FB
100
AcDbEntity
  8
image
100
AcDbVertex
100
AcDb2dVertex
 10
7.625486584309888
 20
6.628667015445871
 30
0.0
 70
     8
  0
VERTEX
  5
51C
330
4FB
100
AcDbEntity
  8
image
100
AcDbVertex
100
AcDb2dVertex
 10
7.647938570428945
 20
6.643093763596373
 30
0.0
 70
     8
  0
VERTEX
  5
51D
330
4FB
100
AcDbEntity
  8
image
100
AcDbVertex
100
AcDb2dVertex
 10
7.670346365227516
 20
6.656577667600111
 30
0.0
 70
     8
  0
VERTEX
  5
51E
330
4FB
100
AcDbEntity
  8
image
100
AcDbVertex
100
AcDb2dVertex
 10
7.692942909748659
 20
6.669541467002184
 30
0.0
 70
     8
  0
VERTEX
  5
51F
330
4FB
100
AcDbEntity
  8
image
100
AcDbVertex
100
AcDb2dVertex
 10
7.715652054487225
 20
6.681985026961915
 30
0.0
 70
     8
  0
VERTEX
  5
520
330
4FB
100
AcDbEntity
  8
image
100
AcDbVertex
100
AcDb2dVertex
 10
7.73832037730101
 20
6.693802494042167
 30
0.0
 70
     8
  0
VERTEX
  5
521
330
4FB
100
AcDbEntity
  8
image
100
AcDbVertex
100
AcDb2dVertex
 10
7.760794456047807
 20
6.704888014805811
 30
0.0
 70
     8
  0
VERTEX
  5
522
330
4FB
100
AcDbEntity
  8
image
100
AcDbVertex
100
AcDb2dVertex
 10
7.782920868585411
 20
6.715135735815715
 30
0.0
 70
     8
  0
VERTEX
  5
523
330
4FB
100
AcDbEntity
  8
image
100
AcDbVertex
100
AcDb2dVertex
 10
7.804546192771618
 20
6.724439803634745
 30
0.0
 70
     8
  0
VERTEX
  5
524
330
4FB
100
AcDbEntity
  8
image
100
AcDbVertex
100
AcDb2dVertex
 10
7.825517006464223
 20
6.732694364825779
 30
0.0
 70
     8
  0
VERTEX
  5
525
330
4FB
100
AcDbEntity
  8
image
100
AcDbVertex
100
AcDb2dVertex
 10
7.845679887521019
 20
6.739793565951676
 30
0.0
 70
     8
  0
VERTEX
  5
526
330
4FB
100
AcDbEntity
  8
image
100
AcDbVertex
100
AcDb2dVertex
 10
7.864894888635905
 20
6.745667963895059
 30
0.0
 70
     8
  0
VERTEX
  5
527
330
4FB
100
AcDbEntity
  8
image
100
AcDbVertex
100
AcDb2dVertex
 10
7.883075961847179
 20
6.750393756817552
 30
0.0
 70
     8
  0
VERTEX
  5
528
330
4FB
100
AcDbEntity
  8
image
100
AcDbVertex
100
AcDb2dVertex
 10
7.900150534029243
 20
6.754083553200517
 30
0.0
 70
     8
  0
VERTEX
  5
529
330
4FB
100
AcDbEntity
  8
image
100
AcDbVertex
100
AcDb2dVertex
 10
7.916046032056499
 20
6.756849961525326
 30
0.0
 70
     8
  0
VERTEX
  5
52A
330
4FB
100
AcDbEntity
  8
image
100
AcDbVertex
100
AcDb2dVertex
 10
7.930689882803347
 20
6.758805590273351
 30
0.0
 70
     8
  0
VERTEX
  5
52B
330
4FB
100
AcDbEntity
  8
image
100
AcDbVertex
100
AcDb2dVertex
 10
7.944009513144189
 20
6.760063047925958
 30
0.0
 70
     8
  0
VERTEX
  5
52C
330
4FB
100
AcDbEntity
  8
image
100
AcDbVertex
100
AcDb2dVertex
 10
7.955932349953426
 20
6.760734942964519
 30
0.0
 70
     8
  0
VERTEX
  5
52D
330
4FB
100
AcDbEntity
  8
image
100
AcDbVertex
100
AcDb2dVertex
 10
7.966385820105459
 20
6.760933883870401
 30
0.0
 70
     8
  0
VERTEX
  5
52E
330
4FB
100
AcDbEntity
  8
image
100
AcDbVertex
100
AcDb2dVertex
 10
6.981893009516586
 20
5.490895172825379
 30
0.0
 70
    16
  0
VERTEX
  5
52F
330
4FB
100
AcDbEntity
  8
image
100
AcDbVertex
100
AcDb2dVertex
 10
7.019290511105723
 20
5.771250684279359
 30
0.0
 70
    16
  0
VERTEX
  5
530
330
4FB
100
AcDbEntity
  8
image
100
AcDbVertex
100
AcDb2dVertex
 10
7.18290459203092
 20
6.12636765354181
 30
0.0
 70
    16
  0
VERTEX
  5
531
330
4FB
100
AcDbEntity
  8
image
100
AcDbVertex
100
AcDb2dVertex
 10
7.496108679312662
 20
6.542228355668545
 30
0.0
 70
    16
  0
VERTEX
  5
532
330
4FB
100
AcDbEntity
  8
image
100
AcDbVertex
100
AcDb2dVertex
 10
7.667508793391485
 20
6.660997784989072
 30
0.0
 70
    16
  0
VERTEX
  5
533
330
4FB
100
AcDbEntity
  8
image
100
AcDbVertex
100
AcDb2dVertex
 10
7.855934338486487
 20
6.753246509975824
 30
0.0
 70
    16
  0
VERTEX
  5
534
330
4FB
100
AcDbEntity
  8
image
100
AcDbVertex
100
AcDb2dVertex
 10
7.940533564687952
 20
6.760933883870401
 30
0.0
 70
    16
  0
VERTEX
  5
535
330
4FB
100
AcDbEntity
  8
image
100
AcDbVertex
100
AcDb2dVertex
 10
7.966385820105459
 20
6.760933883870401
 30
0.0
 70
    16
  0
SEQEND
  5
536
330
4FB
100
AcDbEntity
  8
image
  0
POLYLINE
  5
537
330
2
100
AcDbEntity
  8
image
100
AcDb2dPolyline
 66
     1
 10
0.0
 20
0.0
 30
0.0
 70
     4
 75
     6
  0
VERTEX
  5
538
330
537
100
AcDbEntity
  8
image
100
AcDbVertex
100
AcDb2dVertex
 10
6.885781228800949
 20
5.071717852283705
 30
0.0
 70
    16
  0
VERTEX
  5
539
330
537
100
AcDbEntity
  8
image
100
AcDbVertex
100
AcDb2dVertex
 10
6.885781228800949
 20
5.071717852283705
 30
0.0
 70
     8
  0
VERTEX
  5
53A
330
537
100
AcDbEntity
  8
image
100
AcDbVertex
100
AcDb2dVertex
 10
6.906292583705993
 20
5.218131961819062
 30
0.0
 70
     8
  0
VERTEX
  5
53B
330
537
100
AcDbEntity
  8
image
100
AcDbVertex
100
AcDb2dVertex
 10
6.923707311242164
 20
5.341343106451273
 30
0.0
 70
     8
  0
VERTEX
  5
53C
330
537
100
AcDbEntity
  8
image
100
AcDbVertex
100
AcDb2dVertex
 10
6.938714286165643
 20
5.444521230131571
 30
0.0
 70
     8
  0
VERTEX
  5
53D
330
537
100
AcDbEntity
  8
image
100
AcDbVertex
100
AcDb2dVertex
 10
6.952002383232607
 20
5.530836276811176
 30
0.0
 70
     8
  0
VERTEX
  5
53E
330
537
100
AcDbEntity
  8
image
100
AcDbVertex
100
AcDb2dVertex
 10
6.964260477199236
 20
5.603458190441306
 30
0.0
 70
     8
  0
VERTEX
  5
53F
330
537
100
AcDbEntity
  8
image
100
AcDbVertex
100
AcDb2dVertex
 10
6.97617744282171
 20
5.665556914973188
 30
0.0
 70
     8
  0
VERTEX
  5
540
330
537
100
AcDbEntity
  8
image
100
AcDbVertex
100
AcDb2dVertex
 10
6.988442154856207
 20
5.720302394358047
 30
0.0
 70
     8
  0
VERTEX
  5
541
330
537
100
AcDbEntity
  8
image
100
AcDbVertex
100
AcDb2dVertex
 10
7.001743488058906
 20
5.770864572547101
 30
0.0
 70
     8
  0
VERTEX
  5
542
330
537
100
AcDbEntity
  8
image
100
AcDbVertex
100
AcDb2dVertex
 10
7.016668895808631
 20
5.819925713729756
 30
0.0
 70
     8
  0
VERTEX
  5
543
330
537
100
AcDbEntity
  8
image
100
AcDbVertex
100
AcDb2dVertex
 10
7.033400145974789
 20
5.868217363048146
 30
0.0
 70
     8
  0
VERTEX
  5
544
330
537
100
AcDbEntity
  8
image
100
AcDbVertex
100
AcDb2dVertex
 10
7.052017585049433
 20
5.91598338588258
 30
0.0
 70
     8
  0
VERTEX
  5
545
330
537
100
AcDbEntity
  8
image
100
AcDbVertex
100
AcDb2dVertex
 10
7.072601559524612
 20
5.963467647613367
 30
0.0
 70
     8
  0
VERTEX
  5
546
330
537
100
AcDbEntity
  8
image
100
AcDbVertex
100
AcDb2dVertex
 10
7.09523241589238
 20
6.010914013620824
 30
0.0
 70
     8
  0
VERTEX
  5
547
330
537
100
AcDbEntity
  8
image
100
AcDbVertex
100
AcDb2dVertex
 10
7.119990500644788
 20
6.058566349285261
 30
0.0
 70
     8
  0
VERTEX
  5
548
330
537
100
AcDbEntity
  8
image
100
AcDbVertex
100
AcDb2dVertex
 10
7.146956160273887
 20
6.10666851998699
 30
0.0
 70
     8
  0
VERTEX
  5
549
330
537
100
AcDbEntity
  8
image
100
AcDbVertex
100
AcDb2dVertex
 10
7.176209741271731
 20
6.155464391106321
 30
0.0
 70
     8
  0
VERTEX
  5
54A
330
537
100
AcDbEntity
  8
image
100
AcDbVertex
100
AcDb2dVertex
 10
7.207723097397626
 20
6.20503998241059
 30
0.0
 70
     8
  0
VERTEX
  5
54B
330
537
100
AcDbEntity
  8
image
100
AcDbVertex
100
AcDb2dVertex
 10
7.241034111479913
 20
6.254849931215233
 30
0.0
 70
     8
  0
VERTEX
  5
54C
330
537
100
AcDbEntity
  8
image
100
AcDbVertex
100
AcDb2dVertex
 10
7.275572173614185
 20
6.304191029222701
 30
0.0
 70
     8
  0
VERTEX
  5
54D
330
537
100
AcDbEntity
  8
image
100
AcDbVertex
100
AcDb2dVertex
 10
7.310766673896039
 20
6.352360068135451
 30
0.0
 70
     8
  0
VERTEX
  5
54E
330
537
100
AcDbEntity
  8
image
100
AcDbVertex
100
AcDb2dVertex
 10
7.34604700242107
 20
6.398653839655936
 30
0.0
 70
     8
  0
VERTEX
  5
54F
330
537
100
AcDbEntity
  8
image
100
AcDbVertex
100
AcDb2dVertex
 10
7.380842549284873
 20
6.442369135486612
 30
0.0
 70
     8
  0
VERTEX
  5
550
330
537
100
AcDbEntity
  8
image
100
AcDbVertex
100
AcDb2dVertex
 10
7.414582704583043
 20
6.482802747329935
 30
0.0
 70
     8
  0
VERTEX
  5
551
330
537
100
AcDbEntity
  8
image
100
AcDbVertex
100
AcDb2dVertex
 10
7.446696858411177
 20
6.519251466888364
 30
0.0
 70
     8
  0
VERTEX
  5
552
330
537
100
AcDbEntity
  8
image
100
AcDbVertex
100
AcDb2dVertex
 10
7.476761277172763
 20
6.551218076609338
 30
0.0
 70
     8
  0
VERTEX
  5
553
330
537
100
AcDbEntity
  8
image
100
AcDbVertex
100
AcDb2dVertex
 10
7.504939732502872
 20
6.579029321920299
 30
0.0
 70
     8
  0
VERTEX
  5
554
330
537
100
AcDbEntity
  8
image
100
AcDbVertex
100
AcDb2dVertex
 10
7.531542872344471
 20
6.60321793899367
 30
0.0
 70
     8
  0
VERTEX
  5
555
330
537
100
AcDbEntity
  8
image
100
AcDbVertex
100
AcDb2dVertex
 10
7.556881344640522
 20
6.624316664001871
 30
0.0
 70
     8
  0
VERTEX
  5
556
330
537
100
AcDbEntity
  8
image
100
AcDbVertex
100
AcDb2dVertex
 10
7.58126579733399
 20
6.642858233117338
 30
0.0
 70
     8
  0
VERTEX
  5
557
330
537
100
AcDbEntity
  8
image
100
AcDbVertex
100
AcDb2dVertex
 10
7.605006878367842
 20
6.659375382512487
 30
0.0
 70
     8
  0
VERTEX
  5
558
330
537
100
AcDbEntity
  8
image
100
AcDbVertex
100
AcDb2dVertex
 10
7.628415235685041
 20
6.674400848359749
 30
0.0
 70
     8
  0
VERTEX
  5
559
330
537
100
AcDbEntity
  8
image
100
AcDbVertex
100
AcDb2dVertex
 10
7.651801517228554
 20
6.688467366831553
 30
0.0
 70
     8
  0
VERTEX
  5
55A
330
537
100
AcDbEntity
  8
image
100
AcDbVertex
100
AcDb2dVertex
 10
7.675399878693014
 20
6.70200048778338
 30
0.0
 70
     8
  0
VERTEX
  5
55B
330
537
100
AcDbEntity
  8
image
100
AcDbVertex
100
AcDb2dVertex
 10
7.699138506779742
 20
6.714997015802969
 30
0.0
 70
     8
  0
VERTEX
  5
55C
330
537
100
AcDbEntity
  8
image
100
AcDbVertex
100
AcDb2dVertex
 10
7.722869095941724
 20
6.727346569161118
 30
0.0
 70
     8
  0
VERTEX
  5
55D
330
537
100
AcDbEntity
  8
image
100
AcDbVertex
100
AcDb2dVertex
 10
7.746443340631951
 20
6.73893876612862
 30
0.0
 70
     8
  0
VERTEX
  5
55E
330
537
100
AcDbEntity
  8
image
100
AcDbVertex
100
AcDb2dVertex
 10
7.76971293530341
 20
6.749663224976278
 30
0.0
 70
     8
  0
VERTEX
  5
55F
330
537
100
AcDbEntity
  8
image
100
AcDbVertex
100
AcDb2dVertex
 10
7.792529574409091
 20
6.759409563974888
 30
0.0
 70
     8
  0
VERTEX
  5
560
330
537
100
AcDbEntity
  8
image
100
AcDbVertex
100
AcDb2dVertex
 10
7.814744952401983
 20
6.768067401395247
 30
0.0
 70
     8
  0
VERTEX
  5
561
330
537
100
AcDbEntity
  8
image
100
AcDbVertex
100
AcDb2dVertex
 10
7.836210763735072
 20
6.775526355508149
 30
0.0
 70
     8
  0
VERTEX
  5
562
330
537
100
AcDbEntity
  8
image
100
AcDbVertex
100
AcDb2dVertex
 10
7.856785010734593
 20
6.781713459256679
 30
0.0
 70
     8
  0
VERTEX
  5
563
330
537
100
AcDbEntity
  8
image
100
AcDbVertex
100
AcDb2dVertex
 10
7.876350927219741
 20
6.786705404273047
 30
0.0
 70
     8
  0
VERTEX
  5
564
330
537
100
AcDbEntity
  8
image
100
AcDbVertex
100
AcDb2dVertex
 10
7.894798054882956
 20
6.790616296861746
 30
0.0
 70
     8
  0
VERTEX
  5
565
330
537
100
AcDbEntity
  8
image
100
AcDbVertex
100
AcDb2dVertex
 10
7.912015935416681
 20
6.793560243327271
 30
0.0
 70
     8
  0
VERTEX
  5
566
330
537
100
AcDbEntity
  8
image
100
AcDbVertex
100
AcDb2dVertex
 10
7.927894110513353
 20
6.795651349974115
 30
0.0
 70
     8
  0
VERTEX
  5
567
330
537
100
AcDbEntity
  8
image
100
AcDbVertex
100
AcDb2dVertex
 10
7.942322121865413
 20
6.797003723106773
 30
0.0
 70
     8
  0
VERTEX
  5
568
330
537
100
AcDbEntity
  8
image
100
AcDbVertex
100
AcDb2dVertex
 10
7.955189511165302
 20
6.797731469029739
 30
0.0
 70
     8
  0
VERTEX
  5
569
330
537
100
AcDbEntity
  8
image
100
AcDbVertex
100
AcDb2dVertex
 10
7.966385820105459
 20
6.797948694047506
 30
0.0
 70
     8
  0
VERTEX
  5
56A
330
537
100
AcDbEntity
  8
image
100
AcDbVertex
100
AcDb2dVertex
 10
6.945219344822831
 20
5.495910492205479
 30
0.0
 70
    16
  0
VERTEX
  5
56B
330
537
100
AcDbEntity
  8
image
100
AcDbVertex
100
AcDb2dVertex
 10
6.983338198198841
 20
5.781673716489284
 30
0.0
 70
    16
  0
VERTEX
  5
56C
330
537
100
AcDbEntity
  8
image
100
AcDbVertex
100
AcDb2dVertex
 10
7.150948217423247
 20
6.145463689261888
 30
0.0
 70
    16
  0
VERTEX
  5
56D
330
537
100
AcDbEntity
  8
image
100
AcDbVertex
100
AcDb2dVertex
 10
7.470127379738555
 20
6.569257873101087
 30
0.0
 70
    16
  0
VERTEX
  5
56E
330
537
100
AcDbEntity
  8
image
100
AcDbVertex
100
AcDb2dVertex
 10
7.648723414089591
 20
6.693013619663934
 30
0.0
 70
    16
  0
VERTEX
  5
56F
330
537
100
AcDbEntity
  8
image
100
AcDbVertex
100
AcDb2dVertex
 10
7.845788067274402
 20
6.789491849232487
 30
0.0
 70
    16
  0
VERTEX
  5
570
330
537
100
AcDbEntity
  8
image
100
AcDbVertex
100
AcDb2dVertex
 10
7.938855288573623
 20
6.797948694047506
 30
0.0
 70
    16
  0
VERTEX
  5
571
330
537
100
AcDbEntity
  8
image
100
AcDbVertex
100
AcDb2dVertex
 10
7.966385820105459
 20
6.797948694047506
 30
0.0
 70
    16
  0
SEQEND
  5
572
330
537
100
AcDbEntity
  8
image
  0
POLYLINE
  5
573
330
2
100
AcDbEntity
  8
image
100
AcDb2dPolyline
 66
     1
 10
0.0
 20
0.0
 30
0.0
 70
     4
 75
     6
  0
VERTEX
  5
574
330
573
100
AcDbEntity
  8
image
100
AcDbVertex
100
AcDb2dVertex
 10
8.332839228533684
 20
6.760646373477887
 30
0.0
 70
    16
  0
VERTEX
  5
575
330
573
100
AcDbEntity
  8
image
100
AcDbVertex
100
AcDb2dVertex
 10
8.332839228533684
 20
6.760646373477887
 30
0.0
 70
     8
  0
VERTEX
  5
576
330
573
100
AcDbEntity
  8
image
100
AcDbVertex
100
AcDb2dVertex
 10
8.355028422106384
 20
6.760668057060152
 30
0.0
 70
     8
  0
VERTEX
  5
577
330
573
100
AcDbEntity
  8
image
100
AcDbVertex
100
AcDb2dVertex
 10
8.37992840809132
 20
6.760692654748443
 30
0.0
 70
     8
  0
VERTEX
  5
578
330
573
100
AcDbEntity
  8
image
100
AcDbVertex
100
AcDb2dVertex
 10
8.407676748356925
 20
6.760659486955014
 30
0.0
 70
     8
  0
VERTEX
  5
579
330
573
100
AcDbEntity
  8
image
100
AcDbVertex
100
AcDb2dVertex
 10
8.43841100477163
 20
6.76050787409212
 30
0.0
 70
     8
  0
VERTEX
  5
57A
330
573
100
AcDbEntity
  8
image
100
AcDbVertex
100
AcDb2dVertex
 10
8.472268739203872
 20
6.760177136572012
 30
0.0
 70
     8
  0
VERTEX
  5
57B
330
573
100
AcDbEntity
  8
image
100
AcDbVertex
100
AcDb2dVertex
 10
8.509387513522082
 20
6.75960659480694
 30
0.0
 70
     8
  0
VERTEX
  5
57C
330
573
100
AcDbEntity
  8
image
100
AcDbVertex
100
AcDb2dVertex
 10
8.549904889594692
 20
6.758735569209155
 30
0.0
 70
     8
  0
VERTEX
  5
57D
330
573
100
AcDbEntity
  8
image
100
AcDbVertex
100
AcDb2dVertex
 10
8.593958429290136
 20
6.757503380190912
 30
0.0
 70
     8
  0
VERTEX
  5
57E
330
573
100
AcDbEntity
  8
image
100
AcDbVertex
100
AcDb2dVertex
 10
8.641578101930829
 20
6.755861749028594
 30
0.0
 70
     8
  0
VERTEX
  5
57F
330
573
100
AcDbEntity
  8
image
100
AcDbVertex
100
AcDb2dVertex
 10
8.692363506655107
 20
6.753812000455096
 30
0.0
 70
     8
  0
VERTEX
  5
580
330
573
100
AcDbEntity
  8
image
100
AcDbVertex
100
AcDb2dVertex
 10
8.745806650055294
 20
6.751367860067444
 30
0.0
 70
     8
  0
VERTEX
  5
581
330
573
100
AcDbEntity
  8
image
100
AcDbVertex
100
AcDb2dVertex
 10
8.80139953872371
 20
6.748543053462666
 30
0.0
 70
     8
  0
VERTEX
  5
582
330
573
100
AcDbEntity
  8
image
100
AcDbVertex
100
AcDb2dVertex
 10
8.858634179252678
 20
6.745351306237787
 30
0.0
 70
     8
  0
VERTEX
  5
583
330
573
100
AcDbEntity
  8
image
100
AcDbVertex
100
AcDb2dVertex
 10
8.917002578234516
 20
6.741806343989833
 30
0.0
 70
     8
  0
VERTEX
  5
584
330
573
100
AcDbEntity
  8
image
100
AcDbVertex
100
AcDb2dVertex
 10
8.975996742261546
 20
6.737921892315836
 30
0.0
 70
     8
  0
VERTEX
  5
585
330
573
100
AcDbEntity
  8
image
100
AcDbVertex
100
AcDb2dVertex
 10
9.035108677926086
 20
6.733711676812814
 30
0.0
 70
     8
  0
VERTEX
  5
586
330
573
100
AcDbEntity
  8
image
100
AcDbVertex
100
AcDb2dVertex
 10
9.093931316628832
 20
6.729180634739962
 30
0.0
 70
     8
  0
VERTEX
  5
587
330
573
100
AcDbEntity
  8
image
100
AcDbVertex
100
AcDb2dVertex
 10
9.152461289003952
 20
6.724298550005117
 30
0.0
 70
     8
  0
VERTEX
  5
588
330
573
100
AcDbEntity
  8
image
100
AcDbVertex
100
AcDb2dVertex
 10
9.210796150493987
 20
6.719026418178285
 30
0.0
 70
     8
  0
VERTEX
  5
589
330
573
100
AcDbEntity
  8
image
100
AcDbVertex
100
AcDb2dVertex
 10
9.269033456541482
 20
6.713325234829466
 30
0.0
 70
     8
  0
VERTEX
  5
58A
330
573
100
AcDbEntity
  8
image
100
AcDbVertex
100
AcDb2dVertex
 10
9.327270762588979
 20
6.707155995528659
 30
0.0
 70
     8
  0
VERTEX
  5
58B
330
573
100
AcDbEntity
  8
image
100
AcDbVertex
100
AcDb2dVertex
 10
9.385605624079014
 20
6.700479695845875
 30
0.0
 70
     8
  0
VERTEX
  5
58C
330
573
100
AcDbEntity
  8
image
100
AcDbVertex
100
AcDb2dVertex
 10
9.444135596454135
 20
6.69325733135111
 30
0.0
 70
     8
  0
VERTEX
  5
58D
330
573
100
AcDbEntity
  8
image
100
AcDbVertex
100
AcDb2dVertex
 10
9.50295823515688
 20
6.685449897614366
 30
0.0
 70
     8
  0
VERTEX
  5
58E
330
573
100
AcDbEntity
  8
image
100
AcDbVertex
100
AcDb2dVertex
 10
9.562093051317585
 20
6.677039517663396
 30
0.0
 70
     8
  0
VERTEX
  5
58F
330
573
100
AcDbEntity
  8
image
100
AcDbVertex
100
AcDb2dVertex
 10
9.621247378817766
 20
6.668092824356947
 30
0.0
 70
     8
  0
VERTEX
  5
590
330
573
100
AcDbEntity
  8
image
100
AcDbVertex
100
AcDb2dVertex
 10
9.680050507226727
 20
6.65869757801152
 30
0.0
 70
     8
  0
VERTEX
  5
591
330
573
100
AcDbEntity
  8
image
100
AcDbVertex
100
AcDb2dVertex
 10
9.738131726113778
 20
6.648941538943604
 30
0.0
 70
     8
  0
VERTEX
  5
592
330
573
100
AcDbEntity
  8
image
100
AcDbVertex
100
AcDb2dVertex
 10
9.795120325048225
 20
6.638912467469698
 30
0.0
 70
     8
  0
VERTEX
  5
593
330
573
100
AcDbEntity
  8
image
100
AcDbVertex
100
AcDb2dVertex
 10
9.850645593599377
 20
6.628698123906297
 30
0.0
 70
     8
  0
VERTEX
  5
594
330
573
100
AcDbEntity
  8
image
100
AcDbVertex
100
AcDb2dVertex
 10
9.904336821336539
 20
6.6183862685699
 30
0.0
 70
     8
  0
VERTEX
  5
595
330
573
100
AcDbEntity
  8
image
100
AcDbVertex
100
AcDb2dVertex
 10
9.95582329782902
 20
6.608064661777
 30
0.0
 70
     8
  0
VERTEX
  5
596
330
573
100
AcDbEntity
  8
image
100
AcDbVertex
100
AcDb2dVertex
 10
10.00482048654867
 20
6.597796685978406
 30
0.0
 70
     8
  0
VERTEX
  5
597
330
573
100
AcDbEntity
  8
image
100
AcDbVertex
100
AcDb2dVertex
 10
10.05138854657749
 20
6.587548212162141
 30
0.0
 70
     8
  0
VERTEX
  5
598
330
573
100
AcDbEntity
  8
image
100
AcDbVertex
100
AcDb2dVertex
 10
10.09567381090005
 20
6.577260733450541
 30
0.0
 70
     8
  0
VERTEX
  5
599
330
573
100
AcDbEntity
  8
image
100
AcDbVertex
100
AcDb2dVertex
 10
10.13782261250088
 20
6.566875742965945
 30
0.0
 70
     8
  0
VERTEX
  5
59A
330
573
100
AcDbEntity
  8
image
100
AcDbVertex
100
AcDb2dVertex
 10
10.17798128436455
 20
6.556334733830689
 30
0.0
 70
     8
  0
VERTEX
  5
59B
330
573
100
AcDbEntity
  8
image
100
AcDbVertex
100
AcDb2dVertex
 10
10.21629615947559
 20
6.545579199167105
 30
0.0
 70
     8
  0
VERTEX
  5
59C
330
573
100
AcDbEntity
  8
image
100
AcDbVertex
100
AcDb2dVertex
 10
10.25291357081858
 20
6.534550632097531
 30
0.0
 70
     8
  0
VERTEX
  5
59D
330
573
100
AcDbEntity
  8
image
100
AcDbVertex
100
AcDb2dVertex
 10
10.28797985137804
 20
6.523190525744305
 30
0.0
 70
     8
  0
VERTEX
  5
59E
330
573
100
AcDbEntity
  8
image
100
AcDbVertex
100
AcDb2dVertex
 10
10.32160312497732
 20
6.511446061385496
 30
0.0
 70
     8
  0
VERTEX
  5
59F
330
573
100
AcDbEntity
  8
image
100
AcDbVertex
100
AcDb2dVertex
 10
10.35373867879489
 20
6.49928717292212
 30
0.0
 70
     8
  0
VERTEX
  5
5A0
330
573
100
AcDbEntity
  8
image
100
AcDbVertex
100
AcDb2dVertex
 10
10.384303590848
 20
6.486689482410928
 30
0.0
 70
     8
  0
VERTEX
  5
5A1
330
573
100
AcDbEntity
  8
image
100
AcDbVertex
100
AcDb2dVertex
 10
10.41321493915388
 20
6.473628611908666
 30
0.0
 70
     8
  0
VERTEX
  5
5A2
330
573
100
AcDbEntity
  8
image
100
AcDbVertex
100
AcDb2dVertex
 10
10.44038980172979
 20
6.460080183472091
 30
0.0
 70
     8
  0
VERTEX
  5
5A3
330
573
100
AcDbEntity
  8
image
100
AcDbVertex
100
AcDb2dVertex
 10
10.46574525659299
 20
6.446019819157954
 30
0.0
 70
     8
  0
VERTEX
  5
5A4
330
573
100
AcDbEntity
  8
image
100
AcDbVertex
100
AcDb2dVertex
 10
10.48919838176071
 20
6.431423141022997
 30
0.0
 70
     8
  0
VERTEX
  5
5A5
330
573
100
AcDbEntity
  8
image
100
AcDbVertex
100
AcDb2dVertex
 10
10.51066625525021
 20
6.416265771123982
 30
0.0
 70
     8
  0
VERTEX
  5
5A6
330
573
100
AcDbEntity
  8
image
100
AcDbVertex
100
AcDb2dVertex
 10
10.53005945135866
 20
6.400581282660628
 30
0.0
 70
     8
  0
VERTEX
  5
5A7
330
573
100
AcDbEntity
  8
image
100
AcDbVertex
100
AcDb2dVertex
 10
10.54726252950296
 20
6.384635053404584
 30
0.0
 70
     8
  0
VERTEX
  5
5A8
330
573
100
AcDbEntity
  8
image
100
AcDbVertex
100
AcDb2dVertex
 10
10.56215354537993
 20
6.368750412270469
 30
0.0
 70
     8
  0
VERTEX
  5
5A9
330
573
100
AcDbEntity
  8
image
100
AcDbVertex
100
AcDb2dVertex
 10
10.57461055468639
 20
6.353250688172907
 30
0.0
 70
     8
  0
VERTEX
  5
5AA
330
573
100
AcDbEntity
  8
image
100
AcDbVertex
100
AcDb2dVertex
 10
10.58451161311917
 20
6.338459210026514
 30
0.0
 70
     8
  0
VERTEX
  5
5AB
330
573
100
AcDbEntity
  8
image
100
AcDbVertex
100
AcDb2dVertex
 10
10.59173477637509
 20
6.324699306745913
 30
0.0
 70
     8
  0
VERTEX
  5
5AC
330
573
100
AcDbEntity
  8
image
100
AcDbVertex
100
AcDb2dVertex
 10
10.59615810015097
 20
6.312294307245726
 30
0.0
 70
     8
  0
VERTEX
  5
5AD
330
573
100
AcDbEntity
  8
image
100
AcDbVertex
100
AcDb2dVertex
 10
10.59765964014364
 20
6.301567540440573
 30
0.0
 70
     8
  0
VERTEX
  5
5AE
330
573
100
AcDbEntity
  8
image
100
AcDbVertex
100
AcDb2dVertex
 10
8.388518298727621
 20
6.760646373477887
 30
0.0
 70
    16
  0
VERTEX
  5
5AF
330
573
100
AcDbEntity
  8
image
100
AcDbVertex
100
AcDb2dVertex
 10
8.554772024049958
 20
6.762003038945114
 30
0.0
 70
    16
  0
VERTEX
  5
5B0
330
573
100
AcDbEntity
  8
image
100
AcDbVertex
100
AcDb2dVertex
 10
9.039271043474531
 20
6.737040084620752
 30
0.0
 70
    16
  0
VERTEX
  5
5B1
330
573
100
AcDbEntity
  8
image
100
AcDbVertex
100
AcDb2dVertex
 10
9.498795869608434
 20
6.692106683448764
 30
0.0
 70
    16
  0
VERTEX
  5
5B2
330
573
100
AcDbEntity
  8
image
100
AcDbVertex
100
AcDb2dVertex
 10
9.983294889033007
 20
6.607232567270387
 30
0.0
 70
    16
  0
VERTEX
  5
5B3
330
573
100
AcDbEntity
  8
image
100
AcDbVertex
100
AcDb2dVertex
 10
10.30296436123366
 20
6.5273510181317
 30
0.0
 70
    16
  0
VERTEX
  5
5B4
330
573
100
AcDbEntity
  8
image
100
AcDbVertex
100
AcDb2dVertex
 10
10.53272677430061
 20
6.422506514668651
 30
0.0
 70
    16
  0
VERTEX
  5
5B5
330
573
100
AcDbEntity
  8
image
100
AcDbVertex
100
AcDb2dVertex
 10
10.59765964014364
 20
6.327647204847939
 30
0.0
 70
    16
  0
VERTEX
  5
5B6
330
573
100
AcDbEntity
  8
image
100
AcDbVertex
100
AcDb2dVertex
 10
10.59765964014364
 20
6.301567540440573
 30
0.0
 70
    16
  0
SEQEND
  5
5B7
330
573
100
AcDbEntity
  8
image
  0
POLYLINE
  5
5B8
330
2
100
AcDbEntity
  8
image
100
AcDb2dPolyline
 66
     1
 10
0.0
 20
0.0
 30
0.0
 70
     4
 75
     6
  0
VERTEX
  5
5B9
330
5B8
100
AcDbEntity
  8
image
100
AcDbVertex
100
AcDb2dVertex
 10
8.332839228533684
 20
6.797661183654992
 30
0.0
 70
    16
  0
VERTEX
  5
5BA
330
5B8
100
AcDbEntity
  8
image
100
AcDbVertex
100
AcDb2dVertex
 10
8.332839228533684
 20
6.797661183654992
 30
0.0
 70
     8
  0
VERTEX
  5
5BB
330
5B8
100
AcDbEntity
  8
image
100
AcDbVertex
100
AcDb2dVertex
 10
8.355000149047118
 20
6.797683005360707
 30
0.0
 70
     8
  0
VERTEX
  5
5BC
330
5B8
100
AcDbEntity
  8
image
100
AcDbVertex
100
AcDb2dVertex
 10
8.379924361093795
 20
6.797707840838982
 30
0.0
 70
     8
  0
VERTEX
  5
5BD
330
5B8
100
AcDbEntity
  8
image
100
AcDbVertex
100
AcDb2dVertex
 10
8.40774309485905
 20
6.797674745631494
 30
0.0
 70
     8
  0
VERTEX
  5
5BE
330
5B8
100
AcDbEntity
  8
image
100
AcDbVertex
100
AcDb2dVertex
 10
8.438587580528212
 20
6.797522775279927
 30
0.0
 70
     8
  0
VERTEX
  5
5BF
330
5B8
100
AcDbEntity
  8
image
100
AcDbVertex
100
AcDb2dVertex
 10
8.472589048286611
 20
6.797190985325969
 30
0.0
 70
     8
  0
VERTEX
  5
5C0
330
5B8
100
AcDbEntity
  8
image
100
AcDbVertex
100
AcDb2dVertex
 10
8.509878728319577
 20
6.796618431311306
 30
0.0
 70
     8
  0
VERTEX
  5
5C1
330
5B8
100
AcDbEntity
  8
image
100
AcDbVertex
100
AcDb2dVertex
 10
8.550587850812444
 20
6.795744168777614
 30
0.0
 70
     8
  0
VERTEX
  5
5C2
330
5B8
100
AcDbEntity
  8
image
100
AcDbVertex
100
AcDb2dVertex
 10
8.59484764595054
 20
6.794507253266581
 30
0.0
 70
     8
  0
VERTEX
  5
5C3
330
5B8
100
AcDbEntity
  8
image
100
AcDbVertex
100
AcDb2dVertex
 10
8.642682732016826
 20
6.79285918311264
 30
0.0
 70
     8
  0
VERTEX
  5
5C4
330
5B8
100
AcDbEntity
  8
image
100
AcDbVertex
100
AcDb2dVertex
 10
8.693691279684763
 20
6.790801227821238
 30
0.0
 70
     8
  0
VERTEX
  5
5C5
330
5B8
100
AcDbEntity
  8
image
100
AcDbVertex
100
AcDb2dVertex
 10
8.747364847725444
 20
6.788347099690565
 30
0.0
 70
     8
  0
VERTEX
  5
5C6
330
5B8
100
AcDbEntity
  8
image
100
AcDbVertex
100
AcDb2dVertex
 10
8.803194994909961
 20
6.785510511018814
 30
0.0
 70
     8
  0
VERTEX
  5
5C7
330
5B8
100
AcDbEntity
  8
image
100
AcDbVertex
100
AcDb2dVertex
 10
8.860673280009404
 20
6.782305174104178
 30
0.0
 70
     8
  0
VERTEX
  5
5C8
330
5B8
100
AcDbEntity
  8
image
100
AcDbVertex
100
AcDb2dVertex
 10
8.919291261794867
 20
6.778744801244848
 30
0.0
 70
     8
  0
VERTEX
  5
5C9
330
5B8
100
AcDbEntity
  8
image
100
AcDbVertex
100
AcDb2dVertex
 10
8.978540499037439
 20
6.774843104739024
 30
0.0
 70
     8
  0
VERTEX
  5
5CA
330
5B8
100
AcDbEntity
  8
image
100
AcDbVertex
100
AcDb2dVertex
 10
9.037912550508213
 20
6.770613796884895
 30
0.0
 70
     8
  0
VERTEX
  5
5CB
330
5B8
100
AcDbEntity
  8
image
100
AcDbVertex
100
AcDb2dVertex
 10
9.097000022374896
 20
6.766061760847436
 30
0.0
 70
     8
  0
VERTEX
  5
5CC
330
5B8
100
AcDbEntity
  8
image
100
AcDbVertex
100
AcDb2dVertex
 10
9.155799710391669
 20
6.761156563258755
 30
0.0
 70
     8
  0
VERTEX
  5
5CD
330
5B8
100
AcDbEntity
  8
image
100
AcDbVertex
100
AcDb2dVertex
 10
9.214409457709319
 20
6.755858941617739
 30
0.0
 70
     8
  0
VERTEX
  5
5CE
330
5B8
100
AcDbEntity
  8
image
100
AcDbVertex
100
AcDb2dVertex
 10
9.272927107478643
 20
6.750129633423282
 30
0.0
 70
     8
  0
VERTEX
  5
5CF
330
5B8
100
AcDbEntity
  8
image
100
AcDbVertex
100
AcDb2dVertex
 10
9.33145050285044
 20
6.743929376174269
 30
0.0
 70
     8
  0
VERTEX
  5
5D0
330
5B8
100
AcDbEntity
  8
image
100
AcDbVertex
100
AcDb2dVertex
 10
9.390077486975496
 20
6.737218907369592
 30
0.0
 70
     8
  0
VERTEX
  5
5D1
330
5B8
100
AcDbEntity
  8
image
100
AcDbVertex
100
AcDb2dVertex
 10
9.448905903004607
 20
6.729958964508136
 30
0.0
 70
     8
  0
VERTEX
  5
5D2
330
5B8
100
AcDbEntity
  8
image
100
AcDbVertex
100
AcDb2dVertex
 10
9.508033594088569
 20
6.722110285088796
 30
0.0
 70
     8
  0
VERTEX
  5
5D3
330
5B8
100
AcDbEntity
  8
image
100
AcDbVertex
100
AcDb2dVertex
 10
9.567480784054279
 20
6.713654639396502
 30
0.0
 70
     8
  0
VERTEX
  5
5D4
330
5B8
100
AcDbEntity
  8
image
100
AcDbVertex
100
AcDb2dVertex
 10
9.626957219433046
 20
6.704657928860375
 30
0.0
 70
     8
  0
VERTEX
  5
5D5
330
5B8
100
AcDbEntity
  8
image
100
AcDbVertex
100
AcDb2dVertex
 10
9.686095027432291
 20
6.695207087695576
 30
0.0
 70
     8
  0
VERTEX
  5
5D6
330
5B8
100
AcDbEntity
  8
image
100
AcDbVertex
100
AcDb2dVertex
 10
9.744526335259426
 20
6.685389050117273
 30
0.0
 70
     8
  0
VERTEX
  5
5D7
330
5B8
100
AcDbEntity
  8
image
100
AcDbVertex
100
AcDb2dVertex
 10
9.801883270121869
 20
6.675290750340622
 30
0.0
 70
     8
  0
VERTEX
  5
5D8
330
5B8
100
AcDbEntity
  8
image
100
AcDbVertex
100
AcDb2dVertex
 10
9.857797959227035
 20
6.664999122580796
 30
0.0
 70
     8
  0
VERTEX
  5
5D9
330
5B8
100
AcDbEntity
  8
image
100
AcDbVertex
100
AcDb2dVertex
 10
9.911902529782341
 20
6.654601101052951
 30
0.0
 70
     8
  0
VERTEX
  5
5DA
330
5B8
100
AcDbEntity
  8
image
100
AcDbVertex
100
AcDb2dVertex
 10
9.963829108995206
 20
6.644183619972257
 30
0.0
 70
     8
  0
VERTEX
  5
5DB
330
5B8
100
AcDbEntity
  8
image
100
AcDbVertex
100
AcDb2dVertex
 10
10.01329747191192
 20
6.633808115135914
 30
0.0
 70
     8
  0
VERTEX
  5
5DC
330
5B8
100
AcDbEntity
  8
image
100
AcDbVertex
100
AcDb2dVertex
 10
10.06037798493434
 20
6.623434028669309
 30
0.0
 70
     8
  0
VERTEX
  5
5DD
330
5B8
100
AcDbEntity
  8
image
100
AcDbVertex
100
AcDb2dVertex
 10
10.1052286623032
 20
6.612995304279867
 30
0.0
 70
     8
  0
VERTEX
  5
5DE
330
5B8
100
AcDbEntity
  8
image
100
AcDbVertex
100
AcDb2dVertex
 10
10.14800751825921
 20
6.602425885675011
 30
0.0
 70
     8
  0
VERTEX
  5
5DF
330
5B8
100
AcDbEntity
  8
image
100
AcDbVertex
100
AcDb2dVertex
 10
10.18887256704311
 20
6.59165971656217
 30
0.0
 70
     8
  0
VERTEX
  5
5E0
330
5B8
100
AcDbEntity
  8
image
100
AcDbVertex
100
AcDb2dVertex
 10
10.22798182289563
 20
6.580630740648765
 30
0.0
 70
     8
  0
VERTEX
  5
5E1
330
5B8
100
AcDbEntity
  8
image
100
AcDbVertex
100
AcDb2dVertex
 10
10.26549330005751
 20
6.569272901642226
 30
0.0
 70
     8
  0
VERTEX
  5
5E2
330
5B8
100
AcDbEntity
  8
image
100
AcDbVertex
100
AcDb2dVertex
 10
10.30156501276946
 20
6.557520143249974
 30
0.0
 70
     8
  0
VERTEX
  5
5E3
330
5B8
100
AcDbEntity
  8
image
100
AcDbVertex
100
AcDb2dVertex
 10
10.33631419885744
 20
6.5453079208853
 30
0.0
 70
     8
  0
VERTEX
  5
5E4
330
5B8
100
AcDbEntity
  8
image
100
AcDbVertex
100
AcDb2dVertex
 10
10.36969499048837
 20
6.532577736784934
 30
0.0
 70
     8
  0
VERTEX
  5
5E5
330
5B8
100
AcDbEntity
  8
image
100
AcDbVertex
100
AcDb2dVertex
 10
10.40162074341438
 20
6.519272604891466
 30
0.0
 70
     8
  0
VERTEX
  5
5E6
330
5B8
100
AcDbEntity
  8
image
100
AcDbVertex
100
AcDb2dVertex
 10
10.43200481338759
 20
6.505335539147492
 30
0.0
 70
     8
  0
VERTEX
  5
5E7
330
5B8
100
AcDbEntity
  8
image
100
AcDbVertex
100
AcDb2dVertex
 10
10.46076055616015
 20
6.490709553495606
 30
0.0
 70
     8
  0
VERTEX
  5
5E8
330
5B8
100
AcDbEntity
  8
image
100
AcDbVertex
100
AcDb2dVertex
 10
10.48780132748417
 20
6.475337661878399
 30
0.0
 70
     8
  0
VERTEX
  5
5E9
330
5B8
100
AcDbEntity
  8
image
100
AcDbVertex
100
AcDb2dVertex
 10
10.51304048311181
 20
6.459162878238463
 30
0.0
 70
     8
  0
VERTEX
  5
5EA
330
5B8
100
AcDbEntity
  8
image
100
AcDbVertex
100
AcDb2dVertex
 10
10.53639137879519
 20
6.442128216518391
 30
0.0
 70
     8
  0
VERTEX
  5
5EB
330
5B8
100
AcDbEntity
  8
image
100
AcDbVertex
100
AcDb2dVertex
 10
10.55774754718838
 20
6.424242140964403
 30
0.0
 70
     8
  0
VERTEX
  5
5EC
330
5B8
100
AcDbEntity
  8
image
100
AcDbVertex
100
AcDb2dVertex
 10
10.57692322855326
 20
6.405774917037221
 30
0.0
 70
     8
  0
VERTEX
  5
5ED
330
5B8
100
AcDbEntity
  8
image
100
AcDbVertex
100
AcDb2dVertex
 10
10.59371284005361
 20
6.387062260501193
 30
0.0
 70
     8
  0
VERTEX
  5
5EE
330
5B8
100
AcDbEntity
  8
image
100
AcDbVertex
100
AcDb2dVertex
 10
10.60791079885326
 20
6.368439887120669
 30
0.0
 70
     8
  0
VERTEX
  5
5EF
330
5B8
100
AcDbEntity
  8
image
100
AcDbVertex
100
AcDb2dVertex
 10
10.61931152211599
 20
6.350243512659994
 30
0.0
 70
     8
  0
VERTEX
  5
5F0
330
5B8
100
AcDbEntity
  8
image
100
AcDbVertex
100
AcDb2dVertex
 10
10.62770942700561
 20
6.332808852883521
 30
0.0
 70
     8
  0
VERTEX
  5
5F1
330
5B8
100
AcDbEntity
  8
image
100
AcDbVertex
100
AcDb2dVertex
 10
10.63289893068593
 20
6.316471623555597
 30
0.0
 70
     8
  0
VERTEX
  5
5F2
330
5B8
100
AcDbEntity
  8
image
100
AcDbVertex
100
AcDb2dVertex
 10
10.63467445032074
 20
6.301567540440573
 30
0.0
 70
     8
  0
VERTEX
  5
5F3
330
5B8
100
AcDbEntity
  8
image
100
AcDbVertex
100
AcDb2dVertex
 10
8.38836727691214
 20
6.797661183654992
 30
0.0
 70
    16
  0
VERTEX
  5
5F4
330
5B8
100
AcDbEntity
  8
image
100
AcDbVertex
100
AcDb2dVertex
 10
8.555574015757891
 20
6.799025625913594
 30
0.0
 70
    16
  0
VERTEX
  5
5F5
330
5B8
100
AcDbEntity
  8
image
100
AcDbVertex
100
AcDb2dVertex
 10
9.04202590518242
 20
6.773962053419418
 30
0.0
 70
    16
  0
VERTEX
  5
5F6
330
5B8
100
AcDbEntity
  8
image
100
AcDbVertex
100
AcDb2dVertex
 10
9.503797666561707
 20
6.728808941718104
 30
0.0
 70
    16
  0
VERTEX
  5
5F7
330
5B8
100
AcDbEntity
  8
image
100
AcDbVertex
100
AcDb2dVertex
 10
9.99098499310217
 20
6.643463890240938
 30
0.0
 70
    16
  0
VERTEX
  5
5F8
330
5B8
100
AcDbEntity
  8
image
100
AcDbVertex
100
AcDb2dVertex
 10
10.31523701500084
 20
6.562437217151679
 30
0.0
 70
    16
  0
VERTEX
  5
5F9
330
5B8
100
AcDbEntity
  8
image
100
AcDbVertex
100
AcDb2dVertex
 10
10.55745702351119
 20
6.45190810065218
 30
0.0
 70
    16
  0
VERTEX
  5
5FA
330
5B8
100
AcDbEntity
  8
image
100
AcDbVertex
100
AcDb2dVertex
 10
10.63467445032074
 20
6.339102486450692
 30
0.0
 70
    16
  0
VERTEX
  5
5FB
330
5B8
100
AcDbEntity
  8
image
100
AcDbVertex
100
AcDb2dVertex
 10
10.63467445032074
 20
6.301567540440573
 30
0.0
 70
    16
  0
SEQEND
  5
5FC
330
5B8
100
AcDbEntity
  8
image
  0
POLYLINE
  5
5FD
330
2
100
AcDbEntity
  8
image
100
AcDb2dPolyline
 66
     1
 10
0.0
 20
0.0
 30
0.0
 70
     4
 75
     6
  0
VERTEX
  5
5FE
330
5FD
100
AcDbEntity
  8
image
100
AcDbVertex
100
AcDb2dVertex
 10
6.863292430207697
 20
5.066581493805316
 30
0.0
 70
    16
  0
VERTEX
  5
5FF
330
5FD
100
AcDbEntity
  8
image
100
AcDbVertex
100
AcDb2dVertex
 10
6.863292430207697
 20
5.066581493805316
 30
0.0
 70
     8
  0
VERTEX
  5
600
330
5FD
100
AcDbEntity
  8
image
100
AcDbVertex
100
AcDb2dVertex
 10
6.878966147771889
 20
5.166869312379376
 30
0.0
 70
     8
  0
VERTEX
  5
601
330
5FD
100
AcDbEntity
  8
image
100
AcDbVertex
100
AcDb2dVertex
 10
6.893390694528128
 20
5.259831231099266
 30
0.0
 70
     8
  0
VERTEX
  5
602
330
5FD
100
AcDbEntity
  8
image
100
AcDbVertex
100
AcDb2dVertex
 10
6.906800753831439
 20
5.345901465323231
 30
0.0
 70
     8
  0
VERTEX
  5
603
330
5FD
100
AcDbEntity
  8
image
100
AcDbVertex
100
AcDb2dVertex
 10
6.919431009036848
 20
5.425514230409519
 30
0.0
 70
     8
  0
VERTEX
  5
604
330
5FD
100
AcDbEntity
  8
image
100
AcDbVertex
100
AcDb2dVertex
 10
6.93151614349938
 20
5.499103741716372
 30
0.0
 70
     8
  0
VERTEX
  5
605
330
5FD
100
AcDbEntity
  8
image
100
AcDbVertex
100
AcDb2dVertex
 10
6.943290840574065
 20
5.567104214602037
 30
0.0
 70
     8
  0
VERTEX
  5
606
330
5FD
100
AcDbEntity
  8
image
100
AcDbVertex
100
AcDb2dVertex
 10
6.954989783615927
 20
5.629949864424756
 30
0.0
 70
     8
  0
VERTEX
  5
607
330
5FD
100
AcDbEntity
  8
image
100
AcDbVertex
100
AcDb2dVertex
 10
6.966847655979991
 20
5.688074906542781
 30
0.0
 70
     8
  0
VERTEX
  5
608
330
5FD
100
AcDbEntity
  8
image
100
AcDbVertex
100
AcDb2dVertex
 10
6.979120043772739
 20
5.74198877447801
 30
0.0
 70
     8
  0
VERTEX
  5
609
330
5FD
100
AcDbEntity
  8
image
100
AcDbVertex
100
AcDb2dVertex
 10
6.992146144106452
 20
5.792501774407004
 30
0.0
 70
     8
  0
VERTEX
  5
60A
330
5FD
100
AcDbEntity
  8
image
100
AcDbVertex
100
AcDb2dVertex
 10
7.006286056844871
 20
5.840499430669976
 30
0.0
 70
     8
  0
VERTEX
  5
60B
330
5FD
100
AcDbEntity
  8
image
100
AcDbVertex
100
AcDb2dVertex
 10
7.02189988185173
 20
5.886867267607137
 30
0.0
 70
     8
  0
VERTEX
  5
60C
330
5FD
100
AcDbEntity
  8
image
100
AcDbVertex
100
AcDb2dVertex
 10
7.039347718990767
 20
5.932490809558705
 30
0.0
 70
     8
  0
VERTEX
  5
60D
330
5FD
100
AcDbEntity
  8
image
100
AcDbVertex
100
AcDb2dVertex
 10
7.058989668125719
 20
5.978255580864893
 30
0.0
 70
     8
  0
VERTEX
  5
60E
330
5FD
100
AcDbEntity
  8
image
100
AcDbVertex
100
AcDb2dVertex
 10
7.081185829120324
 20
6.025047105865913
 30
0.0
 70
     8
  0
VERTEX
  5
60F
330
5FD
100
AcDbEntity
  8
image
100
AcDbVertex
100
AcDb2dVertex
 10
7.106296301838317
 20
6.073750908901986
 30
0.0
 70
     8
  0
VERTEX
  5
610
330
5FD
100
AcDbEntity
  8
image
100
AcDbVertex
100
AcDb2dVertex
 10
7.134552064351591
 20
6.124972821403777
 30
0.0
 70
     8
  0
VERTEX
  5
611
330
5FD
100
AcDbEntity
  8
image
100
AcDbVertex
100
AcDb2dVertex
 10
7.16566760756466
 20
6.178199903163773
 30
0.0
 70
     8
  0
VERTEX
  5
612
330
5FD
100
AcDbEntity
  8
image
100
AcDbVertex
100
AcDb2dVertex
 10
7.199228300590194
 20
6.232639521064915
 30
0.0
 70
     8
  0
VERTEX
  5
613
330
5FD
100
AcDbEntity
  8
image
100
AcDbVertex
100
AcDb2dVertex
 10
7.234819512540861
 20
6.287499041990149
 30
0.0
 70
     8
  0
VERTEX
  5
614
330
5FD
100
AcDbEntity
  8
image
100
AcDbVertex
100
AcDb2dVertex
 10
7.272026612529329
 20
6.341985832822413
 30
0.0
 70
     8
  0
VERTEX
  5
615
330
5FD
100
AcDbEntity
  8
image
100
AcDbVertex
100
AcDb2dVertex
 10
7.310434969668269
 20
6.39530726044465
 30
0.0
 70
     8
  0
VERTEX
  5
616
330
5FD
100
AcDbEntity
  8
image
100
AcDbVertex
100
AcDb2dVertex
 10
7.34962995307035
 20
6.446670691739805
 30
0.0
 70
     8
  0
VERTEX
  5
617
330
5FD
100
AcDbEntity
  8
image
100
AcDbVertex
100
AcDb2dVertex
 10
7.38919693184824
 20
6.495283493590812
 30
0.0
 70
     8
  0
VERTEX
  5
618
330
5FD
100
AcDbEntity
  8
image
100
AcDbVertex
100
AcDb2dVertex
 10
7.428752425054812
 20
6.540519267547826
 30
0.0
 70
     8
  0
VERTEX
  5
619
330
5FD
100
AcDbEntity
  8
image
100
AcDbVertex
100
AcDb2dVertex
 10
7.46803755150375
 20
6.582416553829799
 30
0.0
 70
     8
  0
VERTEX
  5
61A
330
5FD
100
AcDbEntity
  8
image
100
AcDbVertex
100
AcDb2dVertex
 10
7.506824579948941
 20
6.621180127322898
 30
0.0
 70
     8
  0
VERTEX
  5
61B
330
5FD
100
AcDbEntity
  8
image
100
AcDbVertex
100
AcDb2dVertex
 10
7.544885779144275
 20
6.657014762913278
 30
0.0
 70
     8
  0
VERTEX
  5
61C
330
5FD
100
AcDbEntity
  8
image
100
AcDbVertex
100
AcDb2dVertex
 10
7.581993417843639
 20
6.690125235487106
 30
0.0
 70
     8
  0
VERTEX
  5
61D
330
5FD
100
AcDbEntity
  8
image
100
AcDbVertex
100
AcDb2dVertex
 10
7.61791976480092
 20
6.720716319930542
 30
0.0
 70
     8
  0
VERTEX
  5
61E
330
5FD
100
AcDbEntity
  8
image
100
AcDbVertex
100
AcDb2dVertex
 10
7.652437088770007
 20
6.748992791129752
 30
0.0
 70
     8
  0
VERTEX
  5
61F
330
5FD
100
AcDbEntity
  8
image
100
AcDbVertex
100
AcDb2dVertex
 10
7.685317658504787
 20
6.775159423970891
 30
0.0
 70
     8
  0
VERTEX
  5
620
330
5FD
100
AcDbEntity
  8
image
100
AcDbVertex
100
AcDb2dVertex
 10
7.716481322775048
 20
6.799419650585169
 30
0.0
 70
     8
  0
VERTEX
  5
621
330
5FD
100
AcDbEntity
  8
image
100
AcDbVertex
100
AcDb2dVertex
 10
7.746438250414175
 20
6.821971532083957
 30
0.0
 70
     8
  0
VERTEX
  5
622
330
5FD
100
AcDbEntity
  8
image
100
AcDbVertex
100
AcDb2dVertex
 10
7.775846190271455
 20
6.84301178682367
 30
0.0
 70
     8
  0
VERTEX
  5
623
330
5FD
100
AcDbEntity
  8
image
100
AcDbVertex
100
AcDb2dVertex
 10
7.805362891196172
 20
6.862737133160732
 30
0.0
 70
     8
  0
VERTEX
  5
624
330
5FD
100
AcDbEntity
  8
image
100
AcDbVertex
100
AcDb2dVertex
 10
7.835646102037611
 20
6.881344289451555
 30
0.0
 70
     8
  0
VERTEX
  5
625
330
5FD
100
AcDbEntity
  8
image
100
AcDbVertex
100
AcDb2dVertex
 10
7.86735357164506
 20
6.89902997405256
 30
0.0
 70
     8
  0
VERTEX
  5
626
330
5FD
100
AcDbEntity
  8
image
100
AcDbVertex
100
AcDb2dVertex
 10
7.901143048867802
 20
6.915990905320158
 30
0.0
 70
     8
  0
VERTEX
  5
627
330
5FD
100
AcDbEntity
  8
image
100
AcDbVertex
100
AcDb2dVertex
 10
7.937672282555124
 20
6.932423801610771
 30
0.0
 70
     8
  0
VERTEX
  5
628
330
5FD
100
AcDbEntity
  8
image
100
AcDbVertex
100
AcDb2dVertex
 10
7.977590476051797
 20
6.948421845311917
 30
0.0
 70
     8
  0
VERTEX
  5
629
330
5FD
100
AcDbEntity
  8
image
100
AcDbVertex
100
AcDb2dVertex
 10
8.021512650684542
 20
6.963664074935523
 30
0.0
 70
     8
  0
VERTEX
  5
62A
330
5FD
100
AcDbEntity
  8
image
100
AcDbVertex
100
AcDb2dVertex
 10
8.070045282275568
 20
6.977725993024621
 30
0.0
 70
     8
  0
VERTEX
  5
62B
330
5FD
100
AcDbEntity
  8
image
100
AcDbVertex
100
AcDb2dVertex
 10
8.123794846647079
 20
6.990183102122238
 30
0.0
 70
     8
  0
VERTEX
  5
62C
330
5FD
100
AcDbEntity
  8
image
100
AcDbVertex
100
AcDb2dVertex
 10
8.183367819621288
 20
7.000610904771407
 30
0.0
 70
     8
  0
VERTEX
  5
62D
330
5FD
100
AcDbEntity
  8
image
100
AcDbVertex
100
AcDb2dVertex
 10
8.249370677020401
 20
7.008584903515157
 30
0.0
 70
     8
  0
VERTEX
  5
62E
330
5FD
100
AcDbEntity
  8
image
100
AcDbVertex
100
AcDb2dVertex
 10
8.322409894666627
 20
7.013680600896521
 30
0.0
 70
     8
  0
VERTEX
  5
62F
330
5FD
100
AcDbEntity
  8
image
100
AcDbVertex
100
AcDb2dVertex
 10
8.403091948382169
 20
7.015473499458523
 30
0.0
 70
     8
  0
VERTEX
  5
630
330
5FD
100
AcDbEntity
  8
image
100
AcDbVertex
100
AcDb2dVertex
 10
6.906963178882841
 20
5.344169512349034
 30
0.0
 70
    16
  0
VERTEX
  5
631
330
5FD
100
AcDbEntity
  8
image
100
AcDbVertex
100
AcDb2dVertex
 10
6.962649120756204
 20
5.733796424904942
 30
0.0
 70
    16
  0
VERTEX
  5
632
330
5FD
100
AcDbEntity
  8
image
100
AcDbVertex
100
AcDb2dVertex
 10
7.071369244908973
 20
6.043907683565838
 30
0.0
 70
    16
  0
VERTEX
  5
633
330
5FD
100
AcDbEntity
  8
image
100
AcDbVertex
100
AcDb2dVertex
 10
7.389651710637803
 20
6.533078294243623
 30
0.0
 70
    16
  0
VERTEX
  5
634
330
5FD
100
AcDbEntity
  8
image
100
AcDbVertex
100
AcDb2dVertex
 10
7.705205503629255
 20
6.795480101004554
 30
0.0
 70
    16
  0
VERTEX
  5
635
330
5FD
100
AcDbEntity
  8
image
100
AcDbVertex
100
AcDb2dVertex
 10
7.901432225873901
 20
6.935957845563511
 30
0.0
 70
    16
  0
VERTEX
  5
636
330
5FD
100
AcDbEntity
  8
image
100
AcDbVertex
100
AcDb2dVertex
 10
8.177210267428556
 20
7.015473499458523
 30
0.0
 70
    16
  0
VERTEX
  5
637
330
5FD
100
AcDbEntity
  8
image
100
AcDbVertex
100
AcDb2dVertex
 10
8.403091948382169
 20
7.015473499458523
 30
0.0
 70
    16
  0
SEQEND
  5
638
330
5FD
100
AcDbEntity
  8
image
  0
POLYLINE
  5
639
330
2
100
AcDbEntity
  8
image
100
AcDb2dPolyline
 66
     1
 10
0.0
 20
0.0
 30
0.0
 70
     4
 75
     6
  0
VERTEX
  5
63A
330
639
100
AcDbEntity
  8
image
100
AcDbVertex
100
AcDb2dVertex
 10
6.826727351968431
 20
5.072333991158953
 30
0.0
 70
    16
  0
VERTEX
  5
63B
330
639
100
AcDbEntity
  8
image
100
AcDbVertex
100
AcDb2dVertex
 10
6.826727351968431
 20
5.072333991158953
 30
0.0
 70
     8
  0
VERTEX
  5
63C
330
639
100
AcDbEntity
  8
image
100
AcDbVertex
100
AcDb2dVertex
 10
6.842399027502522
 20
5.172612478599526
 30
0.0
 70
     8
  0
VERTEX
  5
63D
330
639
100
AcDbEntity
  8
image
100
AcDbVertex
100
AcDb2dVertex
 10
6.856848205032705
 20
5.265727921619817
 30
0.0
 70
     8
  0
VERTEX
  5
63E
330
639
100
AcDbEntity
  8
image
100
AcDbVertex
100
AcDb2dVertex
 10
6.870310131787803
 20
5.352097142698934
 30
0.0
 70
     8
  0
VERTEX
  5
63F
330
639
100
AcDbEntity
  8
image
100
AcDbVertex
100
AcDb2dVertex
 10
6.883020054996638
 20
5.43213696431598
 30
0.0
 70
     8
  0
VERTEX
  5
640
330
639
100
AcDbEntity
  8
image
100
AcDbVertex
100
AcDb2dVertex
 10
6.895213221888033
 20
5.506264208950054
 30
0.0
 70
     8
  0
VERTEX
  5
641
330
639
100
AcDbEntity
  8
image
100
AcDbVertex
100
AcDb2dVertex
 10
6.90712487969081
 20
5.574895699080259
 30
0.0
 70
     8
  0
VERTEX
  5
642
330
639
100
AcDbEntity
  8
image
100
AcDbVertex
100
AcDb2dVertex
 10
6.918990275633792
 20
5.638448257185701
 30
0.0
 70
     8
  0
VERTEX
  5
643
330
639
100
AcDbEntity
  8
image
100
AcDbVertex
100
AcDb2dVertex
 10
6.931044656945801
 20
5.697338705745484
 30
0.0
 70
     8
  0
VERTEX
  5
644
330
639
100
AcDbEntity
  8
image
100
AcDbVertex
100
AcDb2dVertex
 10
6.94354435661041
 20
5.752061389078332
 30
0.0
 70
     8
  0
VERTEX
  5
645
330
639
100
AcDbEntity
  8
image
100
AcDbVertex
100
AcDb2dVertex
 10
6.956830050630186
 20
5.803420738861462
 30
0.0
 70
     8
  0
VERTEX
  5
646
330
639
100
AcDbEntity
  8
image
100
AcDbVertex
100
AcDb2dVertex
 10
6.971263500762441
 20
5.852298708611709
 30
0.0
 70
     8
  0
VERTEX
  5
647
330
639
100
AcDbEntity
  8
image
100
AcDbVertex
100
AcDb2dVertex
 10
6.987206468764494
 20
5.899577251845916
 30
0.0
 70
     8
  0
VERTEX
  5
648
330
639
100
AcDbEntity
  8
image
100
AcDbVertex
100
AcDb2dVertex
 10
7.005020716393659
 20
5.946138322080916
 30
0.0
 70
     8
  0
VERTEX
  5
649
330
639
100
AcDbEntity
  8
image
100
AcDbVertex
100
AcDb2dVertex
 10
7.02506800540725
 20
5.992863872833553
 30
0.0
 70
     8
  0
VERTEX
  5
64A
330
639
100
AcDbEntity
  8
image
100
AcDbVertex
100
AcDb2dVertex
 10
7.047710097562585
 20
6.040635857620661
 30
0.0
 70
     8
  0
VERTEX
  5
64B
330
639
100
AcDbEntity
  8
image
100
AcDbVertex
100
AcDb2dVertex
 10
7.073308754616977
 20
6.090336229959082
 30
0.0
 70
     8
  0
VERTEX
  5
64C
330
639
100
AcDbEntity
  8
image
100
AcDbVertex
100
AcDb2dVertex
 10
7.102095376300156
 20
6.142566284957728
 30
0.0
 70
     8
  0
VERTEX
  5
64D
330
639
100
AcDbEntity
  8
image
100
AcDbVertex
100
AcDb2dVertex
 10
7.133779914231507
 20
6.196804684093831
 30
0.0
 70
     8
  0
VERTEX
  5
64E
330
639
100
AcDbEntity
  8
image
100
AcDbVertex
100
AcDb2dVertex
 10
7.167941958002828
 20
6.252249430436699
 30
0.0
 70
     8
  0
VERTEX
  5
64F
330
639
100
AcDbEntity
  8
image
100
AcDbVertex
100
AcDb2dVertex
 10
7.204161097205918
 20
6.308098527055638
 30
0.0
 70
     8
  0
VERTEX
  5
650
330
639
100
AcDbEntity
  8
image
100
AcDbVertex
100
AcDb2dVertex
 10
7.242016921432575
 20
6.363549977019958
 30
0.0
 70
     8
  0
VERTEX
  5
651
330
639
100
AcDbEntity
  8
image
100
AcDbVertex
100
AcDb2dVertex
 10
7.281089020274597
 20
6.417801783398965
 30
0.0
 70
     8
  0
VERTEX
  5
652
330
639
100
AcDbEntity
  8
image
100
AcDbVertex
100
AcDb2dVertex
 10
7.320956983323784
 20
6.470051949261965
 30
0.0
 70
     8
  0
VERTEX
  5
653
330
639
100
AcDbEntity
  8
image
100
AcDbVertex
100
AcDb2dVertex
 10
7.361200400171934
 20
6.519498477678266
 30
0.0
 70
     8
  0
VERTEX
  5
654
330
639
100
AcDbEntity
  8
image
100
AcDbVertex
100
AcDb2dVertex
 10
7.40143132457301
 20
6.565508482177624
 30
0.0
 70
     8
  0
VERTEX
  5
655
330
639
100
AcDbEntity
  8
image
100
AcDbVertex
100
AcDb2dVertex
 10
7.441391666929639
 20
6.608125518131573
 30
0.0
 70
     8
  0
VERTEX
  5
656
330
639
100
AcDbEntity
  8
image
100
AcDbVertex
100
AcDb2dVertex
 10
7.480855801806612
 20
6.647562251372101
 30
0.0
 70
     8
  0
VERTEX
  5
657
330
639
100
AcDbEntity
  8
image
100
AcDbVertex
100
AcDb2dVertex
 10
7.519598103768719
 20
6.684031347731189
 30
0.0
 70
     8
  0
VERTEX
  5
658
330
639
100
AcDbEntity
  8
image
100
AcDbVertex
100
AcDb2dVertex
 10
7.557392947380751
 20
6.717745473040822
 30
0.0
 70
     8
  0
VERTEX
  5
659
330
639
100
AcDbEntity
  8
image
100
AcDbVertex
100
AcDb2dVertex
 10
7.594014707207501
 20
6.74891729313298
 30
0.0
 70
     8
  0
VERTEX
  5
65A
330
639
100
AcDbEntity
  8
image
100
AcDbVertex
100
AcDb2dVertex
 10
7.62923775781376
 20
6.777759473839656
 30
0.0
 70
     8
  0
VERTEX
  5
65B
330
639
100
AcDbEntity
  8
image
100
AcDbVertex
100
AcDb2dVertex
 10
7.662836473764317
 20
6.804484680992822
 30
0.0
 70
     8
  0
VERTEX
  5
65C
330
639
100
AcDbEntity
  8
image
100
AcDbVertex
100
AcDb2dVertex
 10
7.694735556567753
 20
6.829303015237493
 30
0.0
 70
     8
  0
VERTEX
  5
65D
330
639
100
AcDbEntity
  8
image
100
AcDbVertex
100
AcDb2dVertex
 10
7.7254610155078
 20
6.852414316470757
 30
0.0
 70
     8
  0
VERTEX
  5
65E
330
639
100
AcDbEntity
  8
image
100
AcDbVertex
100
AcDb2dVertex
 10
7.755689186811977
 20
6.874015859402722
 30
0.0
 70
     8
  0
VERTEX
  5
65F
330
639
100
AcDbEntity
  8
image
100
AcDbVertex
100
AcDb2dVertex
 10
7.786096406707805
 20
6.894304918743501
 30
0.0
 70
     8
  0
VERTEX
  5
660
330
639
100
AcDbEntity
  8
image
100
AcDbVertex
100
AcDb2dVertex
 10
7.817359011422804
 20
6.91347876920321
 30
0.0
 70
     8
  0
VERTEX
  5
661
330
639
100
AcDbEntity
  8
image
100
AcDbVertex
100
AcDb2dVertex
 10
7.850153337184494
 20
6.931734685491954
 30
0.0
 70
     8
  0
VERTEX
  5
662
330
639
100
AcDbEntity
  8
image
100
AcDbVertex
100
AcDb2dVertex
 10
7.885155720220394
 20
6.949269942319852
 30
0.0
 70
     8
  0
VERTEX
  5
663
330
639
100
AcDbEntity
  8
image
100
AcDbVertex
100
AcDb2dVertex
 10
7.923042496758025
 20
6.966281814397011
 30
0.0
 70
     8
  0
VERTEX
  5
664
330
639
100
AcDbEntity
  8
image
100
AcDbVertex
100
AcDb2dVertex
 10
7.964474293505293
 20
6.982860702223455
 30
0.0
 70
     8
  0
VERTEX
  5
665
330
639
100
AcDbEntity
  8
image
100
AcDbVertex
100
AcDb2dVertex
 10
8.010048899091659
 20
6.99866950945885
 30
0.0
 70
     8
  0
VERTEX
  5
666
330
639
100
AcDbEntity
  8
image
100
AcDbVertex
100
AcDb2dVertex
 10
8.060348392626963
 20
7.013264265552778
 30
0.0
 70
     8
  0
VERTEX
  5
667
330
639
100
AcDbEntity
  8
image
100
AcDbVertex
100
AcDb2dVertex
 10
8.115954853221055
 20
7.026200999954814
 30
0.0
 70
     8
  0
VERTEX
  5
668
330
639
100
AcDbEntity
  8
image
100
AcDbVertex
100
AcDb2dVertex
 10
8.177450359983776
 20
7.037035742114537
 30
0.0
 70
     8
  0
VERTEX
  5
669
330
639
100
AcDbEntity
  8
image
100
AcDbVertex
100
AcDb2dVertex
 10
8.245416992024971
 20
7.045324521481529
 30
0.0
 70
     8
  0
VERTEX
  5
66A
330
639
100
AcDbEntity
  8
image
100
AcDbVertex
100
AcDb2dVertex
 10
8.320436828454488
 20
7.050623367505367
 30
0.0
 70
     8
  0
VERTEX
  5
66B
330
639
100
AcDbEntity
  8
image
100
AcDbVertex
100
AcDb2dVertex
 10
8.403091948382169
 20
7.052488309635628
 30
0.0
 70
     8
  0
VERTEX
  5
66C
330
639
100
AcDbEntity
  8
image
100
AcDbVertex
100
AcDb2dVertex
 10
6.870357592712394
 20
5.3496645257645
 30
0.0
 70
    16
  0
VERTEX
  5
66D
330
639
100
AcDbEntity
  8
image
100
AcDbVertex
100
AcDb2dVertex
 10
6.926519509235397
 20
5.742621767788762
 30
0.0
 70
    16
  0
VERTEX
  5
66E
330
639
100
AcDbEntity
  8
image
100
AcDbVertex
100
AcDb2dVertex
 10
7.037913270282329
 20
6.060359258565491
 30
0.0
 70
    16
  0
VERTEX
  5
66F
330
639
100
AcDbEntity
  8
image
100
AcDbVertex
100
AcDb2dVertex
 10
7.361679937337147
 20
6.557958577703765
 30
0.0
 70
    16
  0
VERTEX
  5
670
330
639
100
AcDbEntity
  8
image
100
AcDbVertex
100
AcDb2dVertex
 10
7.682569381400684
 20
6.824797296689038
 30
0.0
 70
    16
  0
VERTEX
  5
671
330
639
100
AcDbEntity
  8
image
100
AcDbVertex
100
AcDb2dVertex
 10
7.885061379646017
 20
6.969760321497024
 30
0.0
 70
    16
  0
VERTEX
  5
672
330
639
100
AcDbEntity
  8
image
100
AcDbVertex
100
AcDb2dVertex
 10
8.171980513590938
 20
7.052488309635628
 30
0.0
 70
    16
  0
VERTEX
  5
673
330
639
100
AcDbEntity
  8
image
100
AcDbVertex
100
AcDb2dVertex
 10
8.403091948382169
 20
7.052488309635628
 30
0.0
 70
    16
  0
SEQEND
  5
674
330
639
100
AcDbEntity
  8
image
  0
POLYLINE
  5
675
330
2
100
AcDbEntity
  8
image
100
AcDb2dPolyline
 66
     1
 10
0.0
 20
0.0
 30
0.0
 70
     4
 75
     6
  0
VERTEX
  5
676
330
675
100
AcDbEntity
  8
image
100
AcDbVertex
100
AcDb2dVertex
 10
8.769545356810393
 20
7.018456769713233
 30
0.0
 70
    16
  0
VERTEX
  5
677
330
675
100
AcDbEntity
  8
image
100
AcDbVertex
100
AcDb2dVertex
 10
8.769545356810393
 20
7.018456769713233
 30
0.0
 70
     8
  0
VERTEX
  5
678
330
675
100
AcDbEntity
  8
image
100
AcDbVertex
100
AcDb2dVertex
 10
8.799606705065077
 20
7.017993721867783
 30
0.0
 70
     8
  0
VERTEX
  5
679
330
675
100
AcDbEntity
  8
image
100
AcDbVertex
100
AcDb2dVertex
 10
8.828484954897746
 20
7.01654086710164
 30
0.0
 70
     8
  0
VERTEX
  5
67A
330
675
100
AcDbEntity
  8
image
100
AcDbVertex
100
AcDb2dVertex
 10
8.857653756367998
 20
7.014002638570112
 30
0.0
 70
     8
  0
VERTEX
  5
67B
330
675
100
AcDbEntity
  8
image
100
AcDbVertex
100
AcDb2dVertex
 10
8.888586759535442
 20
7.010283469428512
 30
0.0
 70
     8
  0
VERTEX
  5
67C
330
675
100
AcDbEntity
  8
image
100
AcDbVertex
100
AcDb2dVertex
 10
8.922757614459676
 20
7.005287792832146
 30
0.0
 70
     8
  0
VERTEX
  5
67D
330
675
100
AcDbEntity
  8
image
100
AcDbVertex
100
AcDb2dVertex
 10
8.961639971200305
 20
6.99892004193633
 30
0.0
 70
     8
  0
VERTEX
  5
67E
330
675
100
AcDbEntity
  8
image
100
AcDbVertex
100
AcDb2dVertex
 10
9.006707479816938
 20
6.991084649896369
 30
0.0
 70
     8
  0
VERTEX
  5
67F
330
675
100
AcDbEntity
  8
image
100
AcDbVertex
100
AcDb2dVertex
 10
9.059433790369173
 20
6.98168604986757
 30
0.0
 70
     8
  0
VERTEX
  5
680
330
675
100
AcDbEntity
  8
image
100
AcDbVertex
100
AcDb2dVertex
 10
9.120751652037554
 20
6.970687816891513
 30
0.0
 70
     8
  0
VERTEX
  5
681
330
675
100
AcDbEntity
  8
image
100
AcDbVertex
100
AcDb2dVertex
 10
9.18943021048641
 20
6.958290093554784
 30
0.0
 70
     8
  0
VERTEX
  5
682
330
675
100
AcDbEntity
  8
image
100
AcDbVertex
100
AcDb2dVertex
 10
9.263697710501006
 20
6.94475216433024
 30
0.0
 70
     8
  0
VERTEX
  5
683
330
675
100
AcDbEntity
  8
image
100
AcDbVertex
100
AcDb2dVertex
 10
9.341782396866605
 20
6.930333313690739
 30
0.0
 70
     8
  0
VERTEX
  5
684
330
675
100
AcDbEntity
  8
image
100
AcDbVertex
100
AcDb2dVertex
 10
9.421912514368475
 20
6.915292826109131
 30
0.0
 70
     8
  0
VERTEX
  5
685
330
675
100
AcDbEntity
  8
image
100
AcDbVertex
100
AcDb2dVertex
 10
9.502316307791883
 20
6.899889986058274
 30
0.0
 70
     8
  0
VERTEX
  5
686
330
675
100
AcDbEntity
  8
image
100
AcDbVertex
100
AcDb2dVertex
 10
9.581222021922092
 20
6.884384078011021
 30
0.0
 70
     8
  0
VERTEX
  5
687
330
675
100
AcDbEntity
  8
image
100
AcDbVertex
100
AcDb2dVertex
 10
9.65685790154437
 20
6.869034386440227
 30
0.0
 70
     8
  0
VERTEX
  5
688
330
675
100
AcDbEntity
  8
image
100
AcDbVertex
100
AcDb2dVertex
 10
9.727846834455506
 20
6.85402560512987
 30
0.0
 70
     8
  0
VERTEX
  5
689
330
675
100
AcDbEntity
  8
image
100
AcDbVertex
100
AcDb2dVertex
 10
9.794390280498387
 20
6.83924406510845
 30
0.0
 70
     8
  0
VERTEX
  5
68A
330
675
100
AcDbEntity
  8
image
100
AcDbVertex
100
AcDb2dVertex
 10
9.857084342527416
 20
6.824501506715582
 30
0.0
 70
     8
  0
VERTEX
  5
68B
330
675
100
AcDbEntity
  8
image
100
AcDbVertex
100
AcDb2dVertex
 10
9.916525123397006
 20
6.809609670290886
 30
0.0
 70
     8
  0
VERTEX
  5
68C
330
675
100
AcDbEntity
  8
image
100
AcDbVertex
100
AcDb2dVertex
 10
9.973308725961564
 20
6.794380296173984
 30
0.0
 70
     8
  0
VERTEX
  5
68D
330
675
100
AcDbEntity
  8
image
100
AcDbVertex
100
AcDb2dVertex
 10
10.02803125307549
 20
6.778625124704498
 30
0.0
 70
     8
  0
VERTEX
  5
68E
330
675
100
AcDbEntity
  8
image
100
AcDbVertex
100
AcDb2dVertex
 10
10.08128880759321
 20
6.762155896222041
 30
0.0
 70
     8
  0
VERTEX
  5
68F
330
675
100
AcDbEntity
  8
image
100
AcDbVertex
100
AcDb2dVertex
 10
10.13367749236911
 20
6.744784351066241
 30
0.0
 70
     8
  0
VERTEX
  5
690
330
675
100
AcDbEntity
  8
image
100
AcDbVertex
100
AcDb2dVertex
 10
10.18559420417764
 20
6.726398752891584
 30
0.0
 70
     8
  0
VERTEX
  5
691
330
675
100
AcDbEntity
  8
image
100
AcDbVertex
100
AcDb2dVertex
 10
10.23663901547327
 20
6.70719345861204
 30
0.0
 70
     8
  0
VERTEX
  5
692
330
675
100
AcDbEntity
  8
image
100
AcDbVertex
100
AcDb2dVertex
 10
10.28621279263054
 20
6.687439348456448
 30
0.0
 70
     8
  0
VERTEX
  5
693
330
675
100
AcDbEntity
  8
image
100
AcDbVertex
100
AcDb2dVertex
 10
10.33371640202394
 20
6.667407302653647
 30
0.0
 70
     8
  0
VERTEX
  5
694
330
675
100
AcDbEntity
  8
image
100
AcDbVertex
100
AcDb2dVertex
 10
10.378550710028
 20
6.647368201432482
 30
0.0
 70
     8
  0
VERTEX
  5
695
330
675
100
AcDbEntity
  8
image
100
AcDbVertex
100
AcDb2dVertex
 10
10.42011658301722
 20
6.627592925021787
 30
0.0
 70
     8
  0
VERTEX
  5
696
330
675
100
AcDbEntity
  8
image
100
AcDbVertex
100
AcDb2dVertex
 10
10.45781488736612
 20
6.6083523536504
 30
0.0
 70
     8
  0
VERTEX
  5
697
330
675
100
AcDbEntity
  8
image
100
AcDbVertex
100
AcDb2dVertex
 10
10.49104648944922
 20
6.589917367547166
 30
0.0
 70
     8
  0
VERTEX
  5
698
330
675
100
AcDbEntity
  8
image
100
AcDbVertex
100
AcDb2dVertex
 10
10.51940927189464
 20
6.572470342145632
 30
0.0
 70
     8
  0
VERTEX
  5
699
330
675
100
AcDbEntity
  8
image
100
AcDbVertex
100
AcDb2dVertex
 10
10.54328918234499
 20
6.555839633698192
 30
0.0
 70
     8
  0
VERTEX
  5
69A
330
675
100
AcDbEntity
  8
image
100
AcDbVertex
100
AcDb2dVertex
 10
10.56326918469646
 20
6.539765093661945
 30
0.0
 70
     8
  0
VERTEX
  5
69B
330
675
100
AcDbEntity
  8
image
100
AcDbVertex
100
AcDb2dVertex
 10
10.57993224284529
 20
6.523986573494
 30
0.0
 70
     8
  0
VERTEX
  5
69C
330
675
100
AcDbEntity
  8
image
100
AcDbVertex
100
AcDb2dVertex
 10
10.59386132068767
 20
6.508243924651456
 30
0.0
 70
     8
  0
VERTEX
  5
69D
330
675
100
AcDbEntity
  8
image
100
AcDbVertex
100
AcDb2dVertex
 10
10.60563938211984
 20
6.492276998591418
 30
0.0
 70
     8
  0
VERTEX
  5
69E
330
675
100
AcDbEntity
  8
image
100
AcDbVertex
100
AcDb2dVertex
 10
10.61584939103799
 20
6.47582564677099
 30
0.0
 70
     8
  0
VERTEX
  5
69F
330
675
100
AcDbEntity
  8
image
100
AcDbVertex
100
AcDb2dVertex
 10
10.62507431133834
 20
6.458629720647267
 30
0.0
 70
     8
  0
VERTEX
  5
6A0
330
675
100
AcDbEntity
  8
image
100
AcDbVertex
100
AcDb2dVertex
 10
10.63377020824942
 20
6.440504321147774
 30
0.0
 70
     8
  0
VERTEX
  5
6A1
330
675
100
AcDbEntity
  8
image
100
AcDbVertex
100
AcDb2dVertex
 10
10.641885552329
 20
6.421565547081645
 30
0.0
 70
     8
  0
VERTEX
  5
6A2
330
675
100
AcDbEntity
  8
image
100
AcDbVertex
100
AcDb2dVertex
 10
10.64924191546714
 20
6.402004746728438
 30
0.0
 70
     8
  0
VERTEX
  5
6A3
330
675
100
AcDbEntity
  8
image
100
AcDbVertex
100
AcDb2dVertex
 10
10.65566086955394
 20
6.382013268367708
 30
0.0
 70
     8
  0
VERTEX
  5
6A4
330
675
100
AcDbEntity
  8
image
100
AcDbVertex
100
AcDb2dVertex
 10
10.66096398647946
 20
6.361782460278999
 30
0.0
 70
     8
  0
VERTEX
  5
6A5
330
675
100
AcDbEntity
  8
image
100
AcDbVertex
100
AcDb2dVertex
 10
10.66497283813378
 20
6.341503670741873
 30
0.0
 70
     8
  0
VERTEX
  5
6A6
330
675
100
AcDbEntity
  8
image
100
AcDbVertex
100
AcDb2dVertex
 10
10.66750899640698
 20
6.321368248035882
 30
0.0
 70
     8
  0
VERTEX
  5
6A7
330
675
100
AcDbEntity
  8
image
100
AcDbVertex
100
AcDb2dVertex
 10
10.66839403318915
 20
6.301567540440573
 30
0.0
 70
     8
  0
VERTEX
  5
6A8
330
675
100
AcDbEntity
  8
image
100
AcDbVertex
100
AcDb2dVertex
 10
8.852596327883002
 20
7.018456769713233
 30
0.0
 70
    16
  0
VERTEX
  5
6A9
330
675
100
AcDbEntity
  8
image
100
AcDbVertex
100
AcDb2dVertex
 10
8.962020969086971
 20
6.999379648091818
 30
0.0
 70
    16
  0
VERTEX
  5
6AA
330
675
100
AcDbEntity
  8
image
100
AcDbVertex
100
AcDb2dVertex
 10
9.710634858586132
 20
6.864602376314221
 30
0.0
 70
    16
  0
VERTEX
  5
6AB
330
675
100
AcDbEntity
  8
image
100
AcDbVertex
100
AcDb2dVertex
 10
10.13658700583472
 20
6.756417165292654
 30
0.0
 70
    16
  0
VERTEX
  5
6AC
330
675
100
AcDbEntity
  8
image
100
AcDbVertex
100
AcDb2dVertex
 10
10.54508207228967
 20
6.578435068912608
 30
0.0
 70
    16
  0
VERTEX
  5
6AD
330
675
100
AcDbEntity
  8
image
100
AcDbVertex
100
AcDb2dVertex
 10
10.6293636417019
 20
6.469346764339911
 30
0.0
 70
    16
  0
VERTEX
  5
6AE
330
675
100
AcDbEntity
  8
image
100
AcDbVertex
100
AcDb2dVertex
 10
10.66839403318915
 20
6.353753053187543
 30
0.0
 70
    16
  0
VERTEX
  5
6AF
330
675
100
AcDbEntity
  8
image
100
AcDbVertex
100
AcDb2dVertex
 10
10.66839403318915
 20
6.301567540440573
 30
0.0
 70
    16
  0
SEQEND
  5
6B0
330
675
100
AcDbEntity
  8
image
  0
POLYLINE
  5
6B1
330
2
100
AcDbEntity
  8
image
100
AcDb2dPolyline
 66
     1
 10
0.0
 20
0.0
 30
0.0
 70
     4
 75
     6
  0
VERTEX
  5
6B2
330
6B1
100
AcDbEntity
  8
image
100
AcDbVertex
100
AcDb2dVertex
 10
8.769545356810393
 20
7.055471579890338
 30
0.0
 70
    16
  0
VERTEX
  5
6B3
330
6B1
100
AcDbEntity
  8
image
100
AcDbVertex
100
AcDb2dVertex
 10
8.769545356810393
 20
7.055471579890338
 30
0.0
 70
     8
  0
VERTEX
  5
6B4
330
6B1
100
AcDbEntity
  8
image
100
AcDbVertex
100
AcDb2dVertex
 10
8.80073574262462
 20
7.054995979740138
 30
0.0
 70
     8
  0
VERTEX
  5
6B5
330
6B1
100
AcDbEntity
  8
image
100
AcDbVertex
100
AcDb2dVertex
 10
8.830607029264779
 20
7.053508468516601
 30
0.0
 70
     8
  0
VERTEX
  5
6B6
330
6B1
100
AcDbEntity
  8
image
100
AcDbVertex
100
AcDb2dVertex
 10
8.860644491290763
 20
7.05091798006032
 30
0.0
 70
     8
  0
VERTEX
  5
6B7
330
6B1
100
AcDbEntity
  8
image
100
AcDbVertex
100
AcDb2dVertex
 10
8.892333403262462
 20
7.047133448211892
 30
0.0
 70
     8
  0
VERTEX
  5
6B8
330
6B1
100
AcDbEntity
  8
image
100
AcDbVertex
100
AcDb2dVertex
 10
8.927159039739777
 20
7.042063806811904
 30
0.0
 70
     8
  0
VERTEX
  5
6B9
330
6B1
100
AcDbEntity
  8
image
100
AcDbVertex
100
AcDb2dVertex
 10
8.966606675282598
 20
7.035617989700956
 30
0.0
 70
     8
  0
VERTEX
  5
6BA
330
6B1
100
AcDbEntity
  8
image
100
AcDbVertex
100
AcDb2dVertex
 10
9.012161584450815
 20
7.027704930719637
 30
0.0
 70
     8
  0
VERTEX
  5
6BB
330
6B1
100
AcDbEntity
  8
image
100
AcDbVertex
100
AcDb2dVertex
 10
9.065309041804329
 20
7.018233563708546
 30
0.0
 70
     8
  0
VERTEX
  5
6BC
330
6B1
100
AcDbEntity
  8
image
100
AcDbVertex
100
AcDb2dVertex
 10
9.126993531659572
 20
7.007170753934063
 30
0.0
 70
     8
  0
VERTEX
  5
6BD
330
6B1
100
AcDbEntity
  8
image
100
AcDbVertex
100
AcDb2dVertex
 10
9.195996377359168
 20
6.994715092365738
 30
0.0
 70
     8
  0
VERTEX
  5
6BE
330
6B1
100
AcDbEntity
  8
image
100
AcDbVertex
100
AcDb2dVertex
 10
9.27055811200228
 20
6.981123101398925
 30
0.0
 70
     8
  0
VERTEX
  5
6BF
330
6B1
100
AcDbEntity
  8
image
100
AcDbVertex
100
AcDb2dVertex
 10
9.348919268688074
 20
6.966651303428965
 30
0.0
 70
     8
  0
VERTEX
  5
6C0
330
6B1
100
AcDbEntity
  8
image
100
AcDbVertex
100
AcDb2dVertex
 10
9.429320380515715
 20
6.951556220851206
 30
0.0
 70
     8
  0
VERTEX
  5
6C1
330
6B1
100
AcDbEntity
  8
image
100
AcDbVertex
100
AcDb2dVertex
 10
9.510001980584366
 20
6.93609437606099
 30
0.0
 70
     8
  0
VERTEX
  5
6C2
330
6B1
100
AcDbEntity
  8
image
100
AcDbVertex
100
AcDb2dVertex
 10
9.589204601993193
 20
6.920522291453662
 30
0.0
 70
     8
  0
VERTEX
  5
6C3
330
6B1
100
AcDbEntity
  8
image
100
AcDbVertex
100
AcDb2dVertex
 10
9.66516877784136
 20
6.905096489424566
 30
0.0
 70
     8
  0
VERTEX
  5
6C4
330
6B1
100
AcDbEntity
  8
image
100
AcDbVertex
100
AcDb2dVertex
 10
9.736529095297838
 20
6.889998346925811
 30
0.0
 70
     8
  0
VERTEX
  5
6C5
330
6B1
100
AcDbEntity
  8
image
100
AcDbVertex
100
AcDb2dVertex
 10
9.803496357810812
 20
6.875108659136533
 30
0.0
 70
     8
  0
VERTEX
  5
6C6
330
6B1
100
AcDbEntity
  8
image
100
AcDbVertex
100
AcDb2dVertex
 10
9.866675422898273
 20
6.860233075792621
 30
0.0
 70
     8
  0
VERTEX
  5
6C7
330
6B1
100
AcDbEntity
  8
image
100
AcDbVertex
100
AcDb2dVertex
 10
9.926671148078211
 20
6.845177246629977
 30
0.0
 70
     8
  0
VERTEX
  5
6C8
330
6B1
100
AcDbEntity
  8
image
100
AcDbVertex
100
AcDb2dVertex
 10
9.984088390868617
 20
6.829746821384493
 30
0.0
 70
     8
  0
VERTEX
  5
6C9
330
6B1
100
AcDbEntity
  8
image
100
AcDbVertex
100
AcDb2dVertex
 10
10.03953200878748
 20
6.813747449792068
 30
0.0
 70
     8
  0
VERTEX
  5
6CA
330
6B1
100
AcDbEntity
  8
image
100
AcDbVertex
100
AcDb2dVertex
 10
10.09360685935279
 20
6.796984781588592
 30
0.0
 70
     8
  0
VERTEX
  5
6CB
330
6B1
100
AcDbEntity
  8
image
100
AcDbVertex
100
AcDb2dVertex
 10
10.14691780008255
 20
6.779264466509965
 30
0.0
 70
     8
  0
VERTEX
  5
6CC
330
6B1
100
AcDbEntity
  8
image
100
AcDbVertex
100
AcDb2dVertex
 10
10.19986604783627
 20
6.760468554089887
 30
0.0
 70
     8
  0
VERTEX
  5
6CD
330
6B1
100
AcDbEntity
  8
image
100
AcDbVertex
100
AcDb2dVertex
 10
10.25203825683962
 20
6.740784693053314
 30
0.0
 70
     8
  0
VERTEX
  5
6CE
330
6B1
100
AcDbEntity
  8
image
100
AcDbVertex
100
AcDb2dVertex
 10
10.30281744065979
 20
6.720476931923003
 30
0.0
 70
     8
  0
VERTEX
  5
6CF
330
6B1
100
AcDbEntity
  8
image
100
AcDbVertex
100
AcDb2dVertex
 10
10.35158661286399
 20
6.699809319221714
 30
0.0
 70
     8
  0
VERTEX
  5
6D0
330
6B1
100
AcDbEntity
  8
image
100
AcDbVertex
100
AcDb2dVertex
 10
10.39772878701941
 20
6.679045903472208
 30
0.0
 70
     8
  0
VERTEX
  5
6D1
330
6B1
100
AcDbEntity
  8
image
100
AcDbVertex
100
AcDb2dVertex
 10
10.44062697669325
 20
6.658450733197242
 30
0.0
 70
     8
  0
VERTEX
  5
6D2
330
6B1
100
AcDbEntity
  8
image
100
AcDbVertex
100
AcDb2dVertex
 10
10.47966419545272
 20
6.638287856919579
 30
0.0
 70
     8
  0
VERTEX
  5
6D3
330
6B1
100
AcDbEntity
  8
image
100
AcDbVertex
100
AcDb2dVertex
 10
10.51422345686499
 20
6.618821323161982
 30
0.0
 70
     8
  0
VERTEX
  5
6D4
330
6B1
100
AcDbEntity
  8
image
100
AcDbVertex
100
AcDb2dVertex
 10
10.54388716757192
 20
6.600228592641735
 30
0.0
 70
     8
  0
VERTEX
  5
6D5
330
6B1
100
AcDbEntity
  8
image
100
AcDbVertex
100
AcDb2dVertex
 10
10.56903530651391
 20
6.582340774854242
 30
0.0
 70
     8
  0
VERTEX
  5
6D6
330
6B1
100
AcDbEntity
  8
image
100
AcDbVertex
100
AcDb2dVertex
 10
10.590247245706
 20
6.564902391489444
 30
0.0
 70
     8
  0
VERTEX
  5
6D7
330
6B1
100
AcDbEntity
  8
image
100
AcDbVertex
100
AcDb2dVertex
 10
10.60810235716323
 20
6.547657964237271
 30
0.0
 70
     8
  0
VERTEX
  5
6D8
330
6B1
100
AcDbEntity
  8
image
100
AcDbVertex
100
AcDb2dVertex
 10
10.62318001290064
 20
6.530352014787657
 30
0.0
 70
     8
  0
VERTEX
  5
6D9
330
6B1
100
AcDbEntity
  8
image
100
AcDbVertex
100
AcDb2dVertex
 10
10.63605958493328
 20
6.512729064830538
 30
0.0
 70
     8
  0
VERTEX
  5
6DA
330
6B1
100
AcDbEntity
  8
image
100
AcDbVertex
100
AcDb2dVertex
 10
10.64732044527619
 20
6.494533636055849
 30
0.0
 70
     8
  0
VERTEX
  5
6DB
330
6B1
100
AcDbEntity
  8
image
100
AcDbVertex
100
AcDb2dVertex
 10
10.65754196594441
 20
6.475510250153527
 30
0.0
 70
     8
  0
VERTEX
  5
6DC
330
6B1
100
AcDbEntity
  8
image
100
AcDbVertex
100
AcDb2dVertex
 10
10.66717458594235
 20
6.455479030827771
 30
0.0
 70
     8
  0
VERTEX
  5
6DD
330
6B1
100
AcDbEntity
  8
image
100
AcDbVertex
100
AcDb2dVertex
 10
10.67615301223194
 20
6.434562509839897
 30
0.0
 70
     8
  0
VERTEX
  5
6DE
330
6B1
100
AcDbEntity
  8
image
100
AcDbVertex
100
AcDb2dVertex
 10
10.68428301876447
 20
6.412958820965479
 30
0.0
 70
     8
  0
VERTEX
  5
6DF
330
6B1
100
AcDbEntity
  8
image
100
AcDbVertex
100
AcDb2dVertex
 10
10.69137037949122
 20
6.390866097980102
 30
0.0
 70
     8
  0
VERTEX
  5
6E0
330
6B1
100
AcDbEntity
  8
image
100
AcDbVertex
100
AcDb2dVertex
 10
10.69722086836348
 20
6.368482474659342
 30
0.0
 70
     8
  0
VERTEX
  5
6E1
330
6B1
100
AcDbEntity
  8
image
100
AcDbVertex
100
AcDb2dVertex
 10
10.70164025933254
 20
6.346006084778779
 30
0.0
 70
     8
  0
VERTEX
  5
6E2
330
6B1
100
AcDbEntity
  8
image
100
AcDbVertex
100
AcDb2dVertex
 10
10.70443432634971
 20
6.323635062113997
 30
0.0
 70
     8
  0
VERTEX
  5
6E3
330
6B1
100
AcDbEntity
  8
image
100
AcDbVertex
100
AcDb2dVertex
 10
10.70540884336625
 20
6.301567540440573
 30
0.0
 70
     8
  0
VERTEX
  5
6E4
330
6B1
100
AcDbEntity
  8
image
100
AcDbVertex
100
AcDb2dVertex
 10
8.855798761933662
 20
7.055471579890338
 30
0.0
 70
    16
  0
VERTEX
  5
6E5
330
6B1
100
AcDbEntity
  8
image
100
AcDbVertex
100
AcDb2dVertex
 10
8.968478932522334
 20
7.035826888393157
 30
0.0
 70
    16
  0
VERTEX
  5
6E6
330
6B1
100
AcDbEntity
  8
image
100
AcDbVertex
100
AcDb2dVertex
 10
9.7184798440973
 20
6.900799903039716
 30
0.0
 70
    16
  0
VERTEX
  5
6E7
330
6B1
100
AcDbEntity
  8
image
100
AcDbVertex
100
AcDb2dVertex
 10
10.14861435813662
 20
6.791552435995382
 30
0.0
 70
    16
  0
VERTEX
  5
6E8
330
6B1
100
AcDbEntity
  8
image
100
AcDbVertex
100
AcDb2dVertex
 10
10.56856952385151
 20
6.608577152038539
 30
0.0
 70
    16
  0
VERTEX
  5
6E9
330
6B1
100
AcDbEntity
  8
image
100
AcDbVertex
100
AcDb2dVertex
 10
10.6624482876473
 20
6.487066894822349
 30
0.0
 70
    16
  0
VERTEX
  5
6EA
330
6B1
100
AcDbEntity
  8
image
100
AcDbVertex
100
AcDb2dVertex
 10
10.70540884336625
 20
6.35983347800293
 30
0.0
 70
    16
  0
VERTEX
  5
6EB
330
6B1
100
AcDbEntity
  8
image
100
AcDbVertex
100
AcDb2dVertex
 10
10.70540884336625
 20
6.301567540440573
 30
0.0
 70
    16
  0
SEQEND
  5
6EC
330
6B1
100
AcDbEntity
  8
image
  0
POLYLINE
  5
6ED
330
2
100
AcDbEntity
  8
image
 62
     5
100
AcDb2dPolyline
 66
     1
 10
0.0
 20
0.0
 30
0.0
 70
     4
 40
0.037
 41
0.037
 75
     6
  0
VERTEX
  5
6EE
330
6ED
100
AcDbEntity
  8
image
 62
     5
100
AcDbVertex
100
AcDb2dVertex
 10
6.570010226854752
 20
4.811532685818726
 30
0.0
 70
    16
  0
VERTEX
  5
6EF
330
6ED
100
AcDbEntity
  8
image
 62
     5
100
AcDbVertex
100
AcDb2dVertex
 10
6.570010226854752
 20
4.811532685818728
 30
0.0
 70
     8
  0
VERTEX
  5
6F0
330
6ED
100
AcDbEntity
  8
image
 62
     5
100
AcDbVertex
100
AcDb2dVertex
 10
6.55662479304348
 20
4.939470682672269
 30
0.0
 70
     8
  0
VERTEX
  5
6F1
330
6ED
100
AcDbEntity
  8
image
 62
     5
100
AcDbVertex
100
AcDb2dVertex
 10
6.535765852397658
 20
5.070441854847236
 30
0.0
 70
     8
  0
VERTEX
  5
6F2
330
6ED
100
AcDbEntity
  8
image
 62
     5
100
AcDbVertex
100
AcDb2dVertex
 10
6.508293357796907
 20
5.202431415934165
 30
0.0
 70
     8
  0
VERTEX
  5
6F3
330
6ED
100
AcDbEntity
  8
image
 62
     5
100
AcDbVertex
100
AcDb2dVertex
 10
6.475067262120845
 20
5.333424579523591
 30
0.0
 70
     8
  0
VERTEX
  5
6F4
330
6ED
100
AcDbEntity
  8
image
 62
     5
100
AcDbVertex
100
AcDb2dVertex
 10
6.43694751824909
 20
5.461406559206044
 30
0.0
 70
     8
  0
VERTEX
  5
6F5
330
6ED
100
AcDbEntity
  8
image
 62
     5
100
AcDbVertex
100
AcDb2dVertex
 10
6.394794079061261
 20
5.584362568572061
 30
0.0
 70
     8
  0
VERTEX
  5
6F6
330
6ED
100
AcDbEntity
  8
image
 62
     5
100
AcDbVertex
100
AcDb2dVertex
 10
6.349466897436976
 20
5.700277821212179
 30
0.0
 70
     8
  0
VERTEX
  5
6F7
330
6ED
100
AcDbEntity
  8
image
 62
     5
100
AcDbVertex
100
AcDb2dVertex
 10
6.301825926255855
 20
5.807137530716929
 30
0.0
 70
     8
  0
VERTEX
  5
6F8
330
6ED
100
AcDbEntity
  8
image
 62
     5
100
AcDbVertex
100
AcDb2dVertex
 10
6.252538000765809
 20
5.903455984141669
 30
0.0
 70
     8
  0
VERTEX
  5
6F9
330
6ED
100
AcDbEntity
  8
image
 62
     5
100
AcDbVertex
100
AcDb2dVertex
 10
6.201497485687927
 20
5.989863762401058
 30
0.0
 70
     8
  0
VERTEX
  5
6FA
330
6ED
100
AcDbEntity
  8
image
 62
     5
100
AcDbVertex
100
AcDb2dVertex
 10
6.148405628111592
 20
6.067520519874574
 30
0.0
 70
     8
  0
VERTEX
  5
6FB
330
6ED
100
AcDbEntity
  8
image
 62
     5
100
AcDbVertex
100
AcDb2dVertex
 10
6.092963675126186
 20
6.137585910941695
 30
0.0
 70
     8
  0
VERTEX
  5
6FC
330
6ED
100
AcDbEntity
  8
image
 62
     5
100
AcDbVertex
100
AcDb2dVertex
 10
6.034872873821091
 20
6.201219589981904
 30
0.0
 70
     8
  0
VERTEX
  5
6FD
330
6ED
100
AcDbEntity
  8
image
 62
     5
100
AcDbVertex
100
AcDb2dVertex
 10
5.97383447128569
 20
6.259581211374674
 30
0.0
 70
     8
  0
VERTEX
  5
6FE
330
6ED
100
AcDbEntity
  8
image
 62
     5
100
AcDbVertex
100
AcDb2dVertex
 10
5.909549714609366
 20
6.31383042949949
 30
0.0
 70
     8
  0
VERTEX
  5
6FF
330
6ED
100
AcDbEntity
  8
image
 62
     5
100
AcDbVertex
100
AcDb2dVertex
 10
5.841719850881502
 20
6.365126898735828
 30
0.0
 70
     8
  0
VERTEX
  5
700
330
6ED
100
AcDbEntity
  8
image
 62
     5
100
AcDbVertex
100
AcDb2dVertex
 10
5.770225092922909
 20
6.414392409056024
 30
0.0
 70
     8
  0
VERTEX
  5
701
330
6ED
100
AcDbEntity
  8
image
 62
     5
100
AcDbVertex
100
AcDb2dVertex
 10
5.695661516480135
 20
6.461597292803841
 30
0.0
 70
     8
  0
VERTEX
  5
702
330
6ED
100
AcDbEntity
  8
image
 62
     5
100
AcDbVertex
100
AcDb2dVertex
 10
5.618804163031154
 20
6.506474017915899
 30
0.0
 70
     8
  0
VERTEX
  5
703
330
6ED
100
AcDbEntity
  8
image
 62
     5
100
AcDbVertex
100
AcDb2dVertex
 10
5.540428074053944
 20
6.548755052328808
 30
0.0
 70
     8
  0
VERTEX
  5
704
330
6ED
100
AcDbEntity
  8
image
 62
     5
100
AcDbVertex
100
AcDb2dVertex
 10
5.46130829102648
 20
6.588172863979193
 30
0.0
 70
     8
  0
VERTEX
  5
705
330
6ED
100
AcDbEntity
  8
image
 62
     5
100
AcDbVertex
100
AcDb2dVertex
 10
5.382219855426739
 20
6.62445992080367
 30
0.0
 70
     8
  0
VERTEX
  5
706
330
6ED
100
AcDbEntity
  8
image
 62
     5
100
AcDbVertex
100
AcDb2dVertex
 10
5.303937808732698
 20
6.657348690738854
 30
0.0
 70
     8
  0
VERTEX
  5
707
330
6ED
100
AcDbEntity
  8
image
 62
     5
100
AcDbVertex
100
AcDb2dVertex
 10
5.227237192422332
 20
6.686571641721365
 30
0.0
 70
     8
  0
VERTEX
  5
708
330
6ED
100
AcDbEntity
  8
image
 62
     5
100
AcDbVertex
100
AcDb2dVertex
 10
5.152475519596677
 20
6.711922149054825
 30
0.0
 70
     8
  0
VERTEX
  5
709
330
6ED
100
AcDbEntity
  8
image
 62
     5
100
AcDbVertex
100
AcDb2dVertex
 10
5.078340189848994
 20
6.733437217510886
 30
0.0
 70
     8
  0
VERTEX
  5
70A
330
6ED
100
AcDbEntity
  8
image
 62
     5
100
AcDbVertex
100
AcDb2dVertex
 10
5.003101074395605
 20
6.751214759228209
 30
0.0
 70
     8
  0
VERTEX
  5
70B
330
6ED
100
AcDbEntity
  8
image
 62
     5
100
AcDbVertex
100
AcDb2dVertex
 10
4.925028044452833
 20
6.765352686345445
 30
0.0
 70
     8
  0
VERTEX
  5
70C
330
6ED
100
AcDbEntity
  8
image
 62
     5
100
AcDbVertex
100
AcDb2dVertex
 10
4.842390971237001
 20
6.775948911001258
 30
0.0
 70
     8
  0
VERTEX
  5
70D
330
6ED
100
AcDbEntity
  8
image
 62
     5
100
AcDbVertex
100
AcDb2dVertex
 10
4.753459725964432
 20
6.783101345334306
 30
0.0
 70
     8
  0
VERTEX
  5
70E
330
6ED
100
AcDbEntity
  8
image
 62
     5
100
AcDbVertex
100
AcDb2dVertex
 10
4.656504179851445
 20
6.786907901483243
 30
0.0
 70
     8
  0
VERTEX
  5
70F
330
6ED
100
AcDbEntity
  8
image
 62
     5
100
AcDbVertex
100
AcDb2dVertex
 10
4.549794204114363
 20
6.787466491586727
 30
0.0
 70
     8
  0
VERTEX
  5
710
330
6ED
100
AcDbEntity
  8
image
 62
     5
100
AcDbVertex
100
AcDb2dVertex
 10
6.545044815030418
 20
5.146865522413411
 30
0.0
 70
    16
  0
VERTEX
  5
711
330
6ED
100
AcDbEntity
  8
image
 62
     5
100
AcDbVertex
100
AcDb2dVertex
 10
6.317333517479516
 20
5.925221045861808
 30
0.0
 70
    16
  0
VERTEX
  5
712
330
6ED
100
AcDbEntity
  8
image
 62
     5
100
AcDbVertex
100
AcDb2dVertex
 10
5.882721023811193
 20
6.384253240165134
 30
0.0
 70
    16
  0
VERTEX
  5
713
330
6ED
100
AcDbEntity
  8
image
 62
     5
100
AcDbVertex
100
AcDb2dVertex
 10
5.202101492564715
 20
6.72852738589263
 30
0.0
 70
    16
  0
VERTEX
  5
714
330
6ED
100
AcDbEntity
  8
image
 62
     5
100
AcDbVertex
100
AcDb2dVertex
 10
4.848897937830866
 20
6.79022050635923
 30
0.0
 70
    16
  0
VERTEX
  5
715
330
6ED
100
AcDbEntity
  8
image
 62
     5
100
AcDbVertex
100
AcDb2dVertex
 10
4.549794204114363
 20
6.787466491586727
 30
0.0
 70
    16
  0
SEQEND
  5
716
330
6ED
100
AcDbEntity
  8
image
 62
     5
  0
POLYLINE
  5
717
330
2
100
AcDbEntity
  8
image
 62
     5
100
AcDb2dPolyline
 66
     1
 10
0.0
 20
0.0
 30
0.0
 70
     4
 40
0.037
 41
0.037
 75
     6
  0
VERTEX
  5
718
330
717
100
AcDbEntity
  8
image
 62
     5
100
AcDbVertex
100
AcDb2dVertex
 10
6.620163627564896
 20
4.811532685818726
 30
0.0
 70
    16
  0
VERTEX
  5
719
330
717
100
AcDbEntity
  8
image
 62
     5
100
AcDbVertex
100
AcDb2dVertex
 10
6.620163627564896
 20
4.811532685818728
 30
0.0
 70
     8
  0
VERTEX
  5
71A
330
717
100
AcDbEntity
  8
image
 62
     5
100
AcDbVertex
100
AcDb2dVertex
 10
6.608257213180765
 20
4.969220480062145
 30
0.0
 70
     8
  0
VERTEX
  5
71B
330
717
100
AcDbEntity
  8
image
 62
     5
100
AcDbVertex
100
AcDb2dVertex
 10
6.59294238672169
 20
5.10978416447906
 30
0.0
 70
     8
  0
VERTEX
  5
71C
330
717
100
AcDbEntity
  8
image
 62
     5
100
AcDbVertex
100
AcDb2dVertex
 10
6.574580264211181
 20
5.235190992052484
 30
0.0
 70
     8
  0
VERTEX
  5
71D
330
717
100
AcDbEntity
  8
image
 62
     5
100
AcDbVertex
100
AcDb2dVertex
 10
6.55353196167274
 20
5.347408215765416
 30
0.0
 70
     8
  0
VERTEX
  5
71E
330
717
100
AcDbEntity
  8
image
 62
     5
100
AcDbVertex
100
AcDb2dVertex
 10
6.530158595129877
 20
5.448403088600866
 30
0.0
 70
     8
  0
VERTEX
  5
71F
330
717
100
AcDbEntity
  8
image
 62
     5
100
AcDbVertex
100
AcDb2dVertex
 10
6.504821280606095
 20
5.540142863541828
 30
0.0
 70
     8
  0
VERTEX
  5
720
330
717
100
AcDbEntity
  8
image
 62
     5
100
AcDbVertex
100
AcDb2dVertex
 10
6.477881134124903
 20
5.624594793571316
 30
0.0
 70
     8
  0
VERTEX
  5
721
330
717
100
AcDbEntity
  8
image
 62
     5
100
AcDbVertex
100
AcDb2dVertex
 10
6.449699271709805
 20
5.70372613167233
 30
0.0
 70
     8
  0
VERTEX
  5
722
330
717
100
AcDbEntity
  8
image
 62
     5
100
AcDbVertex
100
AcDb2dVertex
 10
6.420514597163093
 20
5.779209439409027
 30
0.0
 70
     8
  0
VERTEX
  5
723
330
717
100
AcDbEntity
  8
image
 62
     5
100
AcDbVertex
100
AcDb2dVertex
 10
6.39007716540219
 20
5.851538512670182
 30
0.0
 70
     8
  0
VERTEX
  5
724
330
717
100
AcDbEntity
  8
image
 62
     5
100
AcDbVertex
100
AcDb2dVertex
 10
6.358014819123305
 20
5.92091245592572
 30
0.0
 70
     8
  0
VERTEX
  5
725
330
717
100
AcDbEntity
  8
image
 62
     5
100
AcDbVertex
100
AcDb2dVertex
 10
6.323955401022645
 20
5.98753037364557
 30
0.0
 70
     8
  0
VERTEX
  5
726
330
717
100
AcDbEntity
  8
image
 62
     5
100
AcDbVertex
100
AcDb2dVertex
 10
6.287526753796417
 20
6.051591370299662
 30
0.0
 70
     8
  0
VERTEX
  5
727
330
717
100
AcDbEntity
  8
image
 62
     5
100
AcDbVertex
100
AcDb2dVertex
 10
6.248356720140832
 20
6.113294550357918
 30
0.0
 70
     8
  0
VERTEX
  5
728
330
717
100
AcDbEntity
  8
image
 62
     5
100
AcDbVertex
100
AcDb2dVertex
 10
6.206073142752096
 20
6.172839018290265
 30
0.0
 70
     8
  0
VERTEX
  5
729
330
717
100
AcDbEntity
  8
image
 62
     5
100
AcDbVertex
100
AcDb2dVertex
 10
6.160303864326418
 20
6.230423878566633
 30
0.0
 70
     8
  0
VERTEX
  5
72A
330
717
100
AcDbEntity
  8
image
 62
     5
100
AcDbVertex
100
AcDb2dVertex
 10
6.110740500937846
 20
6.286249982201725
 30
0.0
 70
     8
  0
VERTEX
  5
72B
330
717
100
AcDbEntity
  8
image
 62
     5
100
AcDbVertex
100
AcDb2dVertex
 10
6.057329762171813
 20
6.340525166389327
 30
0.0
 70
     8
  0
VERTEX
  5
72C
330
717
100
AcDbEntity
  8
image
 62
     5
100
AcDbVertex
100
AcDb2dVertex
 10
6.00008213099159
 20
6.393459014868008
 30
0.0
 70
     8
  0
VERTEX
  5
72D
330
717
100
AcDbEntity
  8
image
 62
     5
100
AcDbVertex
100
AcDb2dVertex
 10
5.939008090360446
 20
6.445261111376329
 30
0.0
 70
     8
  0
VERTEX
  5
72E
330
717
100
AcDbEntity
  8
image
 62
     5
100
AcDbVertex
100
AcDb2dVertex
 10
5.874118123241653
 20
6.496141039652859
 30
0.0
 70
     8
  0
VERTEX
  5
72F
330
717
100
AcDbEntity
  8
image
 62
     5
100
AcDbVertex
100
AcDb2dVertex
 10
5.805422712598486
 20
6.546308383436159
 30
0.0
 70
     8
  0
VERTEX
  5
730
330
717
100
AcDbEntity
  8
image
 62
     5
100
AcDbVertex
100
AcDb2dVertex
 10
5.732932341394213
 20
6.595972726464794
 30
0.0
 70
     8
  0
VERTEX
  5
731
330
717
100
AcDbEntity
  8
image
 62
     5
100
AcDbVertex
100
AcDb2dVertex
 10
5.656657492592105
 20
6.64534365247733
 30
0.0
 70
     8
  0
VERTEX
  5
732
330
717
100
AcDbEntity
  8
image
 62
     5
100
AcDbVertex
100
AcDb2dVertex
 10
5.576699504624875
 20
6.694539925592288
 30
0.0
 70
     8
  0
VERTEX
  5
733
330
717
100
AcDbEntity
  8
image
 62
     5
100
AcDbVertex
100
AcDb2dVertex
 10
5.493523137802976
 20
6.743317031448008
 30
0.0
 70
     8
  0
VERTEX
  5
734
330
717
100
AcDbEntity
  8
image
 62
     5
100
AcDbVertex
100
AcDb2dVertex
 10
5.407684007906303
 20
6.791339636062788
 30
0.0
 70
     8
  0
VERTEX
  5
735
330
717
100
AcDbEntity
  8
image
 62
     5
100
AcDbVertex
100
AcDb2dVertex
 10
5.319737730714752
 20
6.83827240545492
 30
0.0
 70
     8
  0
VERTEX
  5
736
330
717
100
AcDbEntity
  8
image
 62
     5
100
AcDbVertex
100
AcDb2dVertex
 10
5.230239922008212
 20
6.883780005642702
 30
0.0
 70
     8
  0
VERTEX
  5
737
330
717
100
AcDbEntity
  8
image
 62
     5
100
AcDbVertex
100
AcDb2dVertex
 10
5.13974619756658
 20
6.927527102644437
 30
0.0
 70
     8
  0
VERTEX
  5
738
330
717
100
AcDbEntity
  8
image
 62
     5
100
AcDbVertex
100
AcDb2dVertex
 10
5.048812173169746
 20
6.969178362478413
 30
0.0
 70
     8
  0
VERTEX
  5
739
330
717
100
AcDbEntity
  8
image
 62
     5
100
AcDbVertex
100
AcDb2dVertex
 10
4.95799346459761
 20
7.008398451162929
 30
0.0
 70
     8
  0
VERTEX
  5
73A
330
717
100
AcDbEntity
  8
image
 62
     5
100
AcDbVertex
100
AcDb2dVertex
 10
4.867789776636104
 20
7.044890458447082
 30
0.0
 70
     8
  0
VERTEX
  5
73B
330
717
100
AcDbEntity
  8
image
 62
     5
100
AcDbVertex
100
AcDb2dVertex
 10
4.778477170095353
 20
7.07851116900315
 30
0.0
 70
     8
  0
VERTEX
  5
73C
330
717
100
AcDbEntity
  8
image
 62
     5
100
AcDbVertex
100
AcDb2dVertex
 10
4.690275794791517
 20
7.109155791234223
 30
0.0
 70
     8
  0
VERTEX
  5
73D
330
717
100
AcDbEntity
  8
image
 62
     5
100
AcDbVertex
100
AcDb2dVertex
 10
4.603405800540762
 20
7.136719533543378
 30
0.0
 70
     8
  0
VERTEX
  5
73E
330
717
100
AcDbEntity
  8
image
 62
     5
100
AcDbVertex
100
AcDb2dVertex
 10
4.518087337159254
 20
7.161097604333698
 30
0.0
 70
     8
  0
VERTEX
  5
73F
330
717
100
AcDbEntity
  8
image
 62
     5
100
AcDbVertex
100
AcDb2dVertex
 10
4.434540554463158
 20
7.182185212008264
 30
0.0
 70
     8
  0
VERTEX
  5
740
330
717
100
AcDbEntity
  8
image
 62
     5
100
AcDbVertex
100
AcDb2dVertex
 10
4.352985602268631
 20
7.199877564970159
 30
0.0
 70
     8
  0
VERTEX
  5
741
330
717
100
AcDbEntity
  8
image
 62
     5
100
AcDbVertex
100
AcDb2dVertex
 10
4.273642630391844
 20
7.214069871622464
 30
0.0
 70
     8
  0
VERTEX
  5
742
330
717
100
AcDbEntity
  8
image
 62
     5
100
AcDbVertex
100
AcDb2dVertex
 10
4.196825284466971
 20
7.224720955120568
 30
0.0
 70
     8
  0
VERTEX
  5
743
330
717
100
AcDbEntity
  8
image
 62
     5
100
AcDbVertex
100
AcDb2dVertex
 10
4.123221193400222
 20
7.232044097629096
 30
0.0
 70
     8
  0
VERTEX
  5
744
330
717
100
AcDbEntity
  8
image
 62
     5
100
AcDbVertex
100
AcDb2dVertex
 10
4.053611481915815
 20
7.23631619606498
 30
0.0
 70
     8
  0
VERTEX
  5
745
330
717
100
AcDbEntity
  8
image
 62
     5
100
AcDbVertex
100
AcDb2dVertex
 10
3.988777274737973
 20
7.237814147345155
 30
0.0
 70
     8
  0
VERTEX
  5
746
330
717
100
AcDbEntity
  8
image
 62
     5
100
AcDbVertex
100
AcDb2dVertex
 10
3.929499696590919
 20
7.236814848386548
 30
0.0
 70
     8
  0
VERTEX
  5
747
330
717
100
AcDbEntity
  8
image
 62
     5
100
AcDbVertex
100
AcDb2dVertex
 10
3.876559872198871
 20
7.233595196106091
 30
0.0
 70
     8
  0
VERTEX
  5
748
330
717
100
AcDbEntity
  8
image
 62
     5
100
AcDbVertex
100
AcDb2dVertex
 10
3.830738926286048
 20
7.228432087420721
 30
0.0
 70
     8
  0
VERTEX
  5
749
330
717
100
AcDbEntity
  8
image
 62
     5
100
AcDbVertex
100
AcDb2dVertex
 10
3.792817983576679
 20
7.221602419247365
 30
0.0
 70
     8
  0
VERTEX
  5
74A
330
717
100
AcDbEntity
  8
image
 62
     5
100
AcDbVertex
100
AcDb2dVertex
 10
6.593278730661364
 20
5.256614286221393
 30
0.0
 70
    16
  0
VERTEX
  5
74B
330
717
100
AcDbEntity
  8
image
 62
     5
100
AcDbVertex
100
AcDb2dVertex
 10
6.459092337420723
 20
5.739495080424007
 30
0.0
 70
    16
  0
VERTEX
  5
74C
330
717
100
AcDbEntity
  8
image
 62
     5
100
AcDbVertex
100
AcDb2dVertex
 10
6.201454353294254
 20
6.249202579217858
 30
0.0
 70
    16
  0
VERTEX
  5
74D
330
717
100
AcDbEntity
  8
image
 62
     5
100
AcDbVertex
100
AcDb2dVertex
 10
5.696913435360762
 20
6.646237874104365
 30
0.0
 70
    16
  0
VERTEX
  5
74E
330
717
100
AcDbEntity
  8
image
 62
     5
100
AcDbVertex
100
AcDb2dVertex
 10
4.950836860815336
 20
7.037907839228666
 30
0.0
 70
    16
  0
VERTEX
  5
74F
330
717
100
AcDbEntity
  8
image
 62
     5
100
AcDbVertex
100
AcDb2dVertex
 10
4.24769990896355
 20
7.252521475958546
 30
0.0
 70
    16
  0
VERTEX
  5
750
330
717
100
AcDbEntity
  8
image
 62
     5
100
AcDbVertex
100
AcDb2dVertex
 10
3.882712826775541
 20
7.24179081643413
 30
0.0
 70
    16
  0
VERTEX
  5
751
330
717
100
AcDbEntity
  8
image
 62
     5
100
AcDbVertex
100
AcDb2dVertex
 10
3.792817983576679
 20
7.221602419247365
 30
0.0
 70
    16
  0
SEQEND
  5
752
330
717
100
AcDbEntity
  8
image
 62
     5
  0
LWPOLYLINE
  5
753
330
2
100
AcDbEntity
  8
image
 62
     8
100
AcDbPolyline
 90
        2
 70
     0
 43
0.09
 10
1.952825309252625
 20
10.16414925471977
 10
1.96794214264992
 20
8.090475740834982
  0
POLYLINE
  5
754
330
2
100
AcDbEntity
  8
image
 62
     5
100
AcDb2dPolyline
 66
     1
 10
0.0
 20
0.0
 30
0.0
 70
     4
 40
0.037
 41
0.037
 75
     6
  0
VERTEX
  5
755
330
754
100
AcDbEntity
  8
image
 62
     5
100
AcDbVertex
100
AcDb2dVertex
 10
1.9980489342059
 20
8.091041352027644
 30
0.0
 70
    16
  0
VERTEX
  5
756
330
754
100
AcDbEntity
  8
image
 62
     5
100
AcDbVertex
100
AcDb2dVertex
 10
1.9980489342059
 20
8.091041352027644
 30
0.0
 70
     8
  0
VERTEX
  5
757
330
754
100
AcDbEntity
  8
image
 62
     5
100
AcDbVertex
100
AcDb2dVertex
 10
2.009498765471274
 20
8.012911578587544
 30
0.0
 70
     8
  0
VERTEX
  5
758
330
754
100
AcDbEntity
  8
image
 62
     5
100
AcDbVertex
100
AcDb2dVertex
 10
2.021311281581485
 20
7.948273477578113
 30
0.0
 70
     8
  0
VERTEX
  5
759
330
754
100
AcDbEntity
  8
image
 62
     5
100
AcDbVertex
100
AcDb2dVertex
 10
2.033472675700959
 20
7.895176450771136
 30
0.0
 70
     8
  0
VERTEX
  5
75A
330
754
100
AcDbEntity
  8
image
 62
     5
100
AcDbVertex
100
AcDb2dVertex
 10
2.045969140994113
 20
7.851669899938415
 30
0.0
 70
     8
  0
VERTEX
  5
75B
330
754
100
AcDbEntity
  8
image
 62
     5
100
AcDbVertex
100
AcDb2dVertex
 10
2.058786870625365
 20
7.815803226851742
 30
0.0
 70
     8
  0
VERTEX
  5
75C
330
754
100
AcDbEntity
  8
image
 62
     5
100
AcDbVertex
100
AcDb2dVertex
 10
2.071912057759135
 20
7.785625833282918
 30
0.0
 70
     8
  0
VERTEX
  5
75D
330
754
100
AcDbEntity
  8
image
 62
     5
100
AcDbVertex
100
AcDb2dVertex
 10
2.085330895559842
 20
7.759187121003738
 30
0.0
 70
     8
  0
VERTEX
  5
75E
330
754
100
AcDbEntity
  8
image
 62
     5
100
AcDbVertex
100
AcDb2dVertex
 10
2.099029577191902
 20
7.734536491785999
 30
0.0
 70
     8
  0
VERTEX
  5
75F
330
754
100
AcDbEntity
  8
image
 62
     5
100
AcDbVertex
100
AcDb2dVertex
 10
2.113015687693344
 20
7.710054295174992
 30
0.0
 70
     8
  0
VERTEX
  5
760
330
754
100
AcDbEntity
  8
image
 62
     5
100
AcDbVertex
100
AcDb2dVertex
 10
2.127382379596628
 20
7.685444671809997
 30
0.0
 70
     8
  0
VERTEX
  5
761
330
754
100
AcDbEntity
  8
image
 62
     5
100
AcDbVertex
100
AcDb2dVertex
 10
2.142244197307821
 20
7.660742710103794
 30
0.0
 70
     8
  0
VERTEX
  5
762
330
754
100
AcDbEntity
  8
image
 62
     5
100
AcDbVertex
100
AcDb2dVertex
 10
2.157715685232989
 20
7.635983498469159
 30
0.0
 70
     8
  0
VERTEX
  5
763
330
754
100
AcDbEntity
  8
image
 62
     5
100
AcDbVertex
100
AcDb2dVertex
 10
2.173911387778201
 20
7.611202125318869
 30
0.0
 70
     8
  0
VERTEX
  5
764
330
754
100
AcDbEntity
  8
image
 62
     5
100
AcDbVertex
100
AcDb2dVertex
 10
2.190945849349517
 20
7.586433679065703
 30
0.0
 70
     8
  0
VERTEX
  5
765
330
754
100
AcDbEntity
  8
image
 62
     5
100
AcDbVertex
100
AcDb2dVertex
 10
2.208933614353011
 20
7.561713248122441
 30
0.0
 70
     8
  0
VERTEX
  5
766
330
754
100
AcDbEntity
  8
image
 62
     5
100
AcDbVertex
100
AcDb2dVertex
 10
2.227989227194751
 20
7.537075920901856
 30
0.0
 70
     8
  0
VERTEX
  5
767
330
754
100
AcDbEntity
  8
image
 62
     5
100
AcDbVertex
100
AcDb2dVertex
 10
2.248162570188121
 20
7.512598337968587
 30
0.0
 70
     8
  0
VERTEX
  5
768
330
754
100
AcDbEntity
  8
image
 62
     5
100
AcDbVertex
100
AcDb2dVertex
 10
2.269244877275806
 20
7.488523348494724
 30
0.0
 70
     8
  0
VERTEX
  5
769
330
754
100
AcDbEntity
  8
image
 62
     5
100
AcDbVertex
100
AcDb2dVertex
 10
2.290962720307813
 20
7.465135353804211
 30
0.0
 70
     8
  0
VERTEX
  5
76A
330
754
100
AcDbEntity
  8
image
 62
     5
100
AcDbVertex
100
AcDb2dVertex
 10
2.313042671134148
 20
7.442718755220991
 30
0.0
 70
     8
  0
VERTEX
  5
76B
330
754
100
AcDbEntity
  8
image
 62
     5
100
AcDbVertex
100
AcDb2dVertex
 10
2.335211301604815
 20
7.421557954069009
 30
0.0
 70
     8
  0
VERTEX
  5
76C
330
754
100
AcDbEntity
  8
image
 62
     5
100
AcDbVertex
100
AcDb2dVertex
 10
2.357195183569817
 20
7.401937351672217
 30
0.0
 70
     8
  0
VERTEX
  5
76D
330
754
100
AcDbEntity
  8
image
 62
     5
100
AcDbVertex
100
AcDb2dVertex
 10
2.378720888879168
 20
7.384141349354558
 30
0.0
 70
     8
  0
VERTEX
  5
76E
330
754
100
AcDbEntity
  8
image
 62
     5
100
AcDbVertex
100
AcDb2dVertex
 10
2.399514989382868
 20
7.368454348439979
 30
0.0
 70
     8
  0
VERTEX
  5
76F
330
754
100
AcDbEntity
  8
image
 62
     5
100
AcDbVertex
100
AcDb2dVertex
 10
2.419390273018617
 20
7.355068412147265
 30
0.0
 70
     8
  0
VERTEX
  5
770
330
754
100
AcDbEntity
  8
image
 62
     5
100
AcDbVertex
100
AcDb2dVertex
 10
2.438504392074893
 20
7.343806251274561
 30
0.0
 70
     8
  0
VERTEX
  5
771
330
754
100
AcDbEntity
  8
image
 62
     5
100
AcDbVertex
100
AcDb2dVertex
 10
2.457101214927877
 20
7.334398238514855
 30
0.0
 70
     8
  0
VERTEX
  5
772
330
754
100
AcDbEntity
  8
image
 62
     5
100
AcDbVertex
100
AcDb2dVertex
 10
2.475424609953734
 20
7.326574746561132
 30
0.0
 70
     8
  0
VERTEX
  5
773
330
754
100
AcDbEntity
  8
image
 62
     5
100
AcDbVertex
100
AcDb2dVertex
 10
2.493718445528642
 20
7.320066148106378
 30
0.0
 70
     8
  0
VERTEX
  5
774
330
754
100
AcDbEntity
  8
image
 62
     5
100
AcDbVertex
100
AcDb2dVertex
 10
2.51222659002877
 20
7.314602815843579
 30
0.0
 70
     8
  0
VERTEX
  5
775
330
754
100
AcDbEntity
  8
image
 62
     5
100
AcDbVertex
100
AcDb2dVertex
 10
2.531192911830299
 20
7.309915122465722
 30
0.0
 70
     8
  0
VERTEX
  5
776
330
754
100
AcDbEntity
  8
image
 62
     5
100
AcDbVertex
100
AcDb2dVertex
 10
2.550861279309398
 20
7.305733440665791
 30
0.0
 70
     8
  0
VERTEX
  5
777
330
754
100
AcDbEntity
  8
image
 62
     5
100
AcDbVertex
100
AcDb2dVertex
 10
2.571446001041515
 20
7.301828156367123
 30
0.0
 70
     8
  0
VERTEX
  5
778
330
754
100
AcDbEntity
  8
image
 62
     5
100
AcDbVertex
100
AcDb2dVertex
 10
2.593043146399189
 20
7.29812970841445
 30
0.0
 70
     8
  0
VERTEX
  5
779
330
754
100
AcDbEntity
  8
image
 62
     5
100
AcDbVertex
100
AcDb2dVertex
 10
2.615719224954236
 20
7.294608548882853
 30
0.0
 70
     8
  0
VERTEX
  5
77A
330
754
100
AcDbEntity
  8
image
 62
     5
100
AcDbVertex
100
AcDb2dVertex
 10
2.639540746278473
 20
7.291235129847415
 30
0.0
 70
     8
  0
VERTEX
  5
77B
330
754
100
AcDbEntity
  8
image
 62
     5
100
AcDbVertex
100
AcDb2dVertex
 10
2.664574219943709
 20
7.287979903383217
 30
0.0
 70
     8
  0
VERTEX
  5
77C
330
754
100
AcDbEntity
  8
image
 62
     5
100
AcDbVertex
100
AcDb2dVertex
 10
2.690886155521759
 20
7.284813321565342
 30
0.0
 70
     8
  0
VERTEX
  5
77D
330
754
100
AcDbEntity
  8
image
 62
     5
100
AcDbVertex
100
AcDb2dVertex
 10
2.718543062584441
 20
7.281705836468867
 30
0.0
 70
     8
  0
VERTEX
  5
77E
330
754
100
AcDbEntity
  8
image
 62
     5
100
AcDbVertex
100
AcDb2dVertex
 10
2.747611450703566
 20
7.278627900168875
 30
0.0
 70
     8
  0
VERTEX
  5
77F
330
754
100
AcDbEntity
  8
image
 62
     5
100
AcDbVertex
100
AcDb2dVertex
 10
2.778121803453061
 20
7.275555504965024
 30
0.0
 70
     8
  0
VERTEX
  5
780
330
754
100
AcDbEntity
  8
image
 62
     5
100
AcDbVertex
100
AcDb2dVertex
 10
2.809960500415307
 20
7.272486804055263
 30
0.0
 70
     8
  0
VERTEX
  5
781
330
754
100
AcDbEntity
  8
image
 62
     5
100
AcDbVertex
100
AcDb2dVertex
 10
2.842977895174801
 20
7.269425490862112
 30
0.0
 70
     8
  0
VERTEX
  5
782
330
754
100
AcDbEntity
  8
image
 62
     5
100
AcDbVertex
100
AcDb2dVertex
 10
2.877024341316037
 20
7.266375258808101
 30
0.0
 70
     8
  0
VERTEX
  5
783
330
754
100
AcDbEntity
  8
image
 62
     5
100
AcDbVertex
100
AcDb2dVertex
 10
2.91195019242351
 20
7.263339801315749
 30
0.0
 70
     8
  0
VERTEX
  5
784
330
754
100
AcDbEntity
  8
image
 62
     5
100
AcDbVertex
100
AcDb2dVertex
 10
2.947605802081714
 20
7.26032281180758
 30
0.0
 70
     8
  0
VERTEX
  5
785
330
754
100
AcDbEntity
  8
image
 62
     5
100
AcDbVertex
100
AcDb2dVertex
 10
2.983841523875142
 20
7.257327983706123
 30
0.0
 70
     8
  0
VERTEX
  5
786
330
754
100
AcDbEntity
  8
image
 62
     5
100
AcDbVertex
100
AcDb2dVertex
 10
3.02050771138829
 20
7.254359010433895
 30
0.0
 70
     8
  0
VERTEX
  5
787
330
754
100
AcDbEntity
  8
image
 62
     5
100
AcDbVertex
100
AcDb2dVertex
 10
3.057679304470507
 20
7.251399314340056
 30
0.0
 70
     8
  0
VERTEX
  5
788
330
754
100
AcDbEntity
  8
image
 62
     5
100
AcDbVertex
100
AcDb2dVertex
 10
3.096329588030563
 20
7.248351233480296
 30
0.0
 70
     8
  0
VERTEX
  5
789
330
754
100
AcDbEntity
  8
image
 62
     5
100
AcDbVertex
100
AcDb2dVertex
 10
3.137656433242081
 20
7.245096834836933
 30
0.0
 70
     8
  0
VERTEX
  5
78A
330
754
100
AcDbEntity
  8
image
 62
     5
100
AcDbVertex
100
AcDb2dVertex
 10
3.182857711278685
 20
7.241518185392291
 30
0.0
 70
     8
  0
VERTEX
  5
78B
330
754
100
AcDbEntity
  8
image
 62
     5
100
AcDbVertex
100
AcDb2dVertex
 10
3.233131293313999
 20
7.237497352128692
 30
0.0
 70
     8
  0
VERTEX
  5
78C
330
754
100
AcDbEntity
  8
image
 62
     5
100
AcDbVertex
100
AcDb2dVertex
 10
3.289675050521651
 20
7.232916402028455
 30
0.0
 70
     8
  0
VERTEX
  5
78D
330
754
100
AcDbEntity
  8
image
 62
     5
100
AcDbVertex
100
AcDb2dVertex
 10
3.35368685407526
 20
7.227657402073906
 30
0.0
 70
     8
  0
VERTEX
  5
78E
330
754
100
AcDbEntity
  8
image
 62
     5
100
AcDbVertex
100
AcDb2dVertex
 10
3.426364575148454
 20
7.221602419247365
 30
0.0
 70
     8
  0
VERTEX
  5
78F
330
754
100
AcDbEntity
  8
image
 62
     5
100
AcDbVertex
100
AcDb2dVertex
 10
2.028085965044365
 20
7.862972527854766
 30
0.0
 70
    16
  0
VERTEX
  5
790
330
754
100
AcDbEntity
  8
image
 62
     5
100
AcDbVertex
100
AcDb2dVertex
 10
2.096191849236976
 20
7.736269986898151
 30
0.0
 70
    16
  0
VERTEX
  5
791
330
754
100
AcDbEntity
  8
image
 62
     5
100
AcDbVertex
100
AcDb2dVertex
 10
2.215377043255447
 20
7.535815204790318
 30
0.0
 70
    16
  0
VERTEX
  5
792
330
754
100
AcDbEntity
  8
image
 62
     5
100
AcDbVertex
100
AcDb2dVertex
 10
2.410235340909743
 20
7.342924719351711
 30
0.0
 70
    16
  0
VERTEX
  5
793
330
754
100
AcDbEntity
  8
image
 62
     5
100
AcDbVertex
100
AcDb2dVertex
 10
2.540771529402793
 20
7.303212008442714
 30
0.0
 70
    16
  0
VERTEX
  5
794
330
754
100
AcDbEntity
  8
image
 62
     5
100
AcDbVertex
100
AcDb2dVertex
 10
2.73184621733548
 20
7.278627890872177
 30
0.0
 70
    16
  0
VERTEX
  5
795
330
754
100
AcDbEntity
  8
image
 62
     5
100
AcDbVertex
100
AcDb2dVertex
 10
3.017512305476671
 20
7.254043829081838
 30
0.0
 70
    16
  0
VERTEX
  5
796
330
754
100
AcDbEntity
  8
image
 62
     5
100
AcDbVertex
100
AcDb2dVertex
 10
3.219937987883941
 20
7.238915179963179
 30
0.0
 70
    16
  0
VERTEX
  5
797
330
754
100
AcDbEntity
  8
image
 62
     5
100
AcDbVertex
100
AcDb2dVertex
 10
3.426364575148454
 20
7.221602419247365
 30
0.0
 70
    16
  0
SEQEND
  5
798
330
754
100
AcDbEntity
  8
image
 62
     5
  0
POLYLINE
  5
799
330
2
100
AcDbEntity
  8
image
 62
     5
100
AcDb2dPolyline
 66
     1
 10
0.0
 20
0.0
 30
0.0
 70
     4
 40
0.037
 41
0.037
 75
     6
  0
VERTEX
  5
79A
330
799
100
AcDbEntity
  8
image
 62
     5
100
AcDbVertex
100
AcDb2dVertex
 10
4.183340795686138
 20
6.787466491586727
 30
0.0
 70
    16
  0
VERTEX
  5
79B
330
799
100
AcDbEntity
  8
image
 62
     5
100
AcDbVertex
100
AcDb2dVertex
 10
4.183340795686138
 20
6.787466491586727
 30
0.0
 70
     8
  0
VERTEX
  5
79C
330
799
100
AcDbEntity
  8
image
 62
     5
100
AcDbVertex
100
AcDb2dVertex
 10
4.101688132362266
 20
6.790108565182767
 30
0.0
 70
     8
  0
VERTEX
  5
79D
330
799
100
AcDbEntity
  8
image
 62
     5
100
AcDbVertex
100
AcDb2dVertex
 10
4.026140784291168
 20
6.792598387028118
 30
0.0
 70
     8
  0
VERTEX
  5
79E
330
799
100
AcDbEntity
  8
image
 62
     5
100
AcDbVertex
100
AcDb2dVertex
 10
3.956173943307742
 20
6.794980856776981
 30
0.0
 70
     8
  0
VERTEX
  5
79F
330
799
100
AcDbEntity
  8
image
 62
     5
100
AcDbVertex
100
AcDb2dVertex
 10
3.891262801246885
 20
6.797300874083558
 30
0.0
 70
     8
  0
VERTEX
  5
7A0
330
799
100
AcDbEntity
  8
image
 62
     5
100
AcDbVertex
100
AcDb2dVertex
 10
3.830882549943488
 20
6.799603338602044
 30
0.0
 70
     8
  0
VERTEX
  5
7A1
330
799
100
AcDbEntity
  8
image
 62
     5
100
AcDbVertex
100
AcDb2dVertex
 10
3.774508381232458
 20
6.801933149986639
 30
0.0
 70
     8
  0
VERTEX
  5
7A2
330
799
100
AcDbEntity
  8
image
 62
     5
100
AcDbVertex
100
AcDb2dVertex
 10
3.721615486948689
 20
6.804335207891537
 30
0.0
 70
     8
  0
VERTEX
  5
7A3
330
799
100
AcDbEntity
  8
image
 62
     5
100
AcDbVertex
100
AcDb2dVertex
 10
3.671679058927079
 20
6.806854411970946
 30
0.0
 70
     8
  0
VERTEX
  5
7A4
330
799
100
AcDbEntity
  8
image
 62
     5
100
AcDbVertex
100
AcDb2dVertex
 10
3.624177324466199
 20
6.809541682513203
 30
0.0
 70
     8
  0
VERTEX
  5
7A5
330
799
100
AcDbEntity
  8
image
 62
     5
100
AcDbVertex
100
AcDb2dVertex
 10
3.578600652719298
 20
6.812472022343247
 30
0.0
 70
     8
  0
VERTEX
  5
7A6
330
799
100
AcDbEntity
  8
image
 62
     5
100
AcDbVertex
100
AcDb2dVertex
 10
3.534442448303309
 20
6.815726454920157
 30
0.0
 70
     8
  0
VERTEX
  5
7A7
330
799
100
AcDbEntity
  8
image
 62
     5
100
AcDbVertex
100
AcDb2dVertex
 10
3.491196115835148
 20
6.819386003703013
 30
0.0
 70
     8
  0
VERTEX
  5
7A8
330
799
100
AcDbEntity
  8
image
 62
     5
100
AcDbVertex
100
AcDb2dVertex
 10
3.448355059931742
 20
6.823531692150894
 30
0.0
 70
     8
  0
VERTEX
  5
7A9
330
799
100
AcDbEntity
  8
image
 62
     5
100
AcDbVertex
100
AcDb2dVertex
 10
3.40541268521002
 20
6.828244543722886
 30
0.0
 70
     8
  0
VERTEX
  5
7AA
330
799
100
AcDbEntity
  8
image
 62
     5
100
AcDbVertex
100
AcDb2dVertex
 10
3.361862396286905
 20
6.833605581878068
 30
0.0
 70
     8
  0
VERTEX
  5
7AB
330
799
100
AcDbEntity
  8
image
 62
     5
100
AcDbVertex
100
AcDb2dVertex
 10
3.317197597779319
 20
6.839695830075521
 30
0.0
 70
     8
  0
VERTEX
  5
7AC
330
799
100
AcDbEntity
  8
image
 62
     5
100
AcDbVertex
100
AcDb2dVertex
 10
3.271021456606248
 20
6.846592935746923
 30
0.0
 70
     8
  0
VERTEX
  5
7AD
330
799
100
AcDbEntity
  8
image
 62
     5
100
AcDbVertex
100
AcDb2dVertex
 10
3.223376188894906
 20
6.85436104221439
 30
0.0
 70
     8
  0
VERTEX
  5
7AE
330
799
100
AcDbEntity
  8
image
 62
     5
100
AcDbVertex
100
AcDb2dVertex
 10
3.174413773074562
 20
6.863060916772625
 30
0.0
 70
     8
  0
VERTEX
  5
7AF
330
799
100
AcDbEntity
  8
image
 62
     5
100
AcDbVertex
100
AcDb2dVertex
 10
3.12428618757449
 20
6.872753326716343
 30
0.0
 70
     8
  0
VERTEX
  5
7B0
330
799
100
AcDbEntity
  8
image
 62
     5
100
AcDbVertex
100
AcDb2dVertex
 10
3.073145410823961
 20
6.883499039340247
 30
0.0
 70
     8
  0
VERTEX
  5
7B1
330
799
100
AcDbEntity
  8
image
 62
     5
100
AcDbVertex
100
AcDb2dVertex
 10
3.021143421252251
 20
6.895358821939056
 30
0.0
 70
     8
  0
VERTEX
  5
7B2
330
799
100
AcDbEntity
  8
image
 62
     5
100
AcDbVertex
100
AcDb2dVertex
 10
2.968432197288628
 20
6.908393441807469
 30
0.0
 70
     8
  0
VERTEX
  5
7B3
330
799
100
AcDbEntity
  8
image
 62
     5
100
AcDbVertex
100
AcDb2dVertex
 10
2.915163717362361
 20
6.922663666240205
 30
0.0
 70
     8
  0
VERTEX
  5
7B4
330
799
100
AcDbEntity
  8
image
 62
     5
100
AcDbVertex
100
AcDb2dVertex
 10
2.861528798951248
 20
6.938203254821222
 30
0.0
 70
     8
  0
VERTEX
  5
7B5
330
799
100
AcDbEntity
  8
image
 62
     5
100
AcDbVertex
100
AcDb2dVertex
 10
2.807873615727139
 20
6.95493793629149
 30
0.0
 70
     8
  0
VERTEX
  5
7B6
330
799
100
AcDbEntity
  8
image
 62
     5
100
AcDbVertex
100
AcDb2dVertex
 10
2.75458318041041
 20
6.972766431681237
 30
0.0
 70
     8
  0
VERTEX
  5
7B7
330
799
100
AcDbEntity
  8
image
 62
     5
100
AcDbVertex
100
AcDb2dVertex
 10
2.70204250572144
 20
6.991587462020675
 30
0.0
 70
     8
  0
VERTEX
  5
7B8
330
799
100
AcDbEntity
  8
image
 62
     5
100
AcDbVertex
100
AcDb2dVertex
 10
2.650636604380604
 20
7.011299748340037
 30
0.0
 70
     8
  0
VERTEX
  5
7B9
330
799
100
AcDbEntity
  8
image
 62
     5
100
AcDbVertex
100
AcDb2dVertex
 10
2.600750489108275
 20
7.031802011669541
 30
0.0
 70
     8
  0
VERTEX
  5
7BA
330
799
100
AcDbEntity
  8
image
 62
     5
100
AcDbVertex
100
AcDb2dVertex
 10
2.552769172624827
 20
7.052992973039409
 30
0.0
 70
     8
  0
VERTEX
  5
7BB
330
799
100
AcDbEntity
  8
image
 62
     5
100
AcDbVertex
100
AcDb2dVertex
 10
2.507077667650641
 20
7.074771353479865
 30
0.0
 70
     8
  0
VERTEX
  5
7BC
330
799
100
AcDbEntity
  8
image
 62
     5
100
AcDbVertex
100
AcDb2dVertex
 10
2.463963045045385
 20
7.097113521289398
 30
0.0
 70
     8
  0
VERTEX
  5
7BD
330
799
100
AcDbEntity
  8
image
 62
     5
100
AcDbVertex
100
AcDb2dVertex
 10
2.423320608225953
 20
7.120306433839567
 30
0.0
 70
     8
  0
VERTEX
  5
7BE
330
799
100
AcDbEntity
  8
image
 62
     5
100
AcDbVertex
100
AcDb2dVertex
 10
2.384947718748527
 20
7.144714695770194
 30
0.0
 70
     8
  0
VERTEX
  5
7BF
330
799
100
AcDbEntity
  8
image
 62
     5
100
AcDbVertex
100
AcDb2dVertex
 10
2.348641738169291
 20
7.170702911721108
 30
0.0
 70
     8
  0
VERTEX
  5
7C0
330
799
100
AcDbEntity
  8
image
 62
     5
100
AcDbVertex
100
AcDb2dVertex
 10
2.314200028044439
 20
7.198635686332132
 30
0.0
 70
     8
  0
VERTEX
  5
7C1
330
799
100
AcDbEntity
  8
image
 62
     5
100
AcDbVertex
100
AcDb2dVertex
 10
2.28141994993015
 20
7.22887762424309
 30
0.0
 70
     8
  0
VERTEX
  5
7C2
330
799
100
AcDbEntity
  8
image
 62
     5
100
AcDbVertex
100
AcDb2dVertex
 10
2.250098865382611
 20
7.261793330093806
 30
0.0
 70
     8
  0
VERTEX
  5
7C3
330
799
100
AcDbEntity
  8
image
 62
     5
100
AcDbVertex
100
AcDb2dVertex
 10
2.220034135958012
 20
7.29774740852411
 30
0.0
 70
     8
  0
VERTEX
  5
7C4
330
799
100
AcDbEntity
  8
image
 62
     5
100
AcDbVertex
100
AcDb2dVertex
 10
2.191072938503367
 20
7.336996433176488
 30
0.0
 70
     8
  0
VERTEX
  5
7C5
330
799
100
AcDbEntity
  8
image
 62
     5
100
AcDbVertex
100
AcDb2dVertex
 10
2.163261711029019
 20
7.379364853704118
 30
0.0
 70
     8
  0
VERTEX
  5
7C6
330
799
100
AcDbEntity
  8
image
 62
     5
100
AcDbVertex
100
AcDb2dVertex
 10
2.136696706836133
 20
7.424569088762827
 30
0.0
 70
     8
  0
VERTEX
  5
7C7
330
799
100
AcDbEntity
  8
image
 62
     5
100
AcDbVertex
100
AcDb2dVertex
 10
2.111474179225886
 20
7.472325557008461
 30
0.0
 70
     8
  0
VERTEX
  5
7C8
330
799
100
AcDbEntity
  8
image
 62
     5
100
AcDbVertex
100
AcDb2dVertex
 10
2.087690381499442
 20
7.52235067709685
 30
0.0
 70
     8
  0
VERTEX
  5
7C9
330
799
100
AcDbEntity
  8
image
 62
     5
100
AcDbVertex
100
AcDb2dVertex
 10
2.065441566957975
 20
7.574360867683837
 30
0.0
 70
     8
  0
VERTEX
  5
7CA
330
799
100
AcDbEntity
  8
image
 62
     5
100
AcDbVertex
100
AcDb2dVertex
 10
2.044823988902656
 20
7.628072547425259
 30
0.0
 70
     8
  0
VERTEX
  5
7CB
330
799
100
AcDbEntity
  8
image
 62
     5
100
AcDbVertex
100
AcDb2dVertex
 10
2.025933900634651
 20
7.683202134976949
 30
0.0
 70
     8
  0
VERTEX
  5
7CC
330
799
100
AcDbEntity
  8
image
 62
     5
100
AcDbVertex
100
AcDb2dVertex
 10
2.008862775167273
 20
7.739365819898329
 30
0.0
 70
     8
  0
VERTEX
  5
7CD
330
799
100
AcDbEntity
  8
image
 62
     5
100
AcDbVertex
100
AcDb2dVertex
 10
1.993682964362381
 20
7.795778875363152
 30
0.0
 70
     8
  0
VERTEX
  5
7CE
330
799
100
AcDbEntity
  8
image
 62
     5
100
AcDbVertex
100
AcDb2dVertex
 10
1.980462039793973
 20
7.851556345448753
 30
0.0
 70
     8
  0
VERTEX
  5
7CF
330
799
100
AcDbEntity
  8
image
 62
     5
100
AcDbVertex
100
AcDb2dVertex
 10
1.969267573036049
 20
7.905813274232461
 30
0.0
 70
     8
  0
VERTEX
  5
7D0
330
799
100
AcDbEntity
  8
image
 62
     5
100
AcDbVertex
100
AcDb2dVertex
 10
1.960167135662612
 20
7.957664705791612
 30
0.0
 70
     8
  0
VERTEX
  5
7D1
330
799
100
AcDbEntity
  8
image
 62
     5
100
AcDbVertex
100
AcDb2dVertex
 10
1.953228299247655
 20
8.006225684203542
 30
0.0
 70
     8
  0
VERTEX
  5
7D2
330
799
100
AcDbEntity
  8
image
 62
     5
100
AcDbVertex
100
AcDb2dVertex
 10
1.948518635365179
 20
8.050611253545582
 30
0.0
 70
     8
  0
VERTEX
  5
7D3
330
799
100
AcDbEntity
  8
image
 62
     5
100
AcDbVertex
100
AcDb2dVertex
 10
1.946105715589187
 20
8.08993645789507
 30
0.0
 70
     8
  0
VERTEX
  5
7D4
330
799
100
AcDbEntity
  8
image
 62
     5
100
AcDbVertex
100
AcDb2dVertex
 10
3.956993443672033
 20
6.794754934314146
 30
0.0
 70
    16
  0
VERTEX
  5
7D5
330
799
100
AcDbEntity
  8
image
 62
     5
100
AcDbVertex
100
AcDb2dVertex
 10
3.645741372558472
 20
6.805125923131432
 30
0.0
 70
    16
  0
VERTEX
  5
7D6
330
799
100
AcDbEntity
  8
image
 62
     5
100
AcDbVertex
100
AcDb2dVertex
 10
3.334489384099789
 20
6.831053339394448
 30
0.0
 70
    16
  0
VERTEX
  5
7D7
330
799
100
AcDbEntity
  8
image
 62
     5
100
AcDbVertex
100
AcDb2dVertex
 10
2.919486677718293
 20
6.90883569974389
 30
0.0
 70
    16
  0
VERTEX
  5
7D8
330
799
100
AcDbEntity
  8
image
 62
     5
100
AcDbVertex
100
AcDb2dVertex
 10
2.478546209201216
 20
7.069585859071222
 30
0.0
 70
    16
  0
VERTEX
  5
7D9
330
799
100
AcDbEntity
  8
image
 62
     5
100
AcDbVertex
100
AcDb2dVertex
 10
2.208794491380682
 20
7.261448984850408
 30
0.0
 70
    16
  0
VERTEX
  5
7DA
330
799
100
AcDbEntity
  8
image
 62
     5
100
AcDbVertex
100
AcDb2dVertex
 10
2.006480641024126
 20
7.671102652671799
 30
0.0
 70
    16
  0
VERTEX
  5
7DB
330
799
100
AcDbEntity
  8
image
 62
     5
100
AcDbVertex
100
AcDb2dVertex
 10
1.949417779228529
 20
7.992603027106658
 30
0.0
 70
    16
  0
VERTEX
  5
7DC
330
799
100
AcDbEntity
  8
image
 62
     5
100
AcDbVertex
100
AcDb2dVertex
 10
1.946105715589187
 20
8.08993645789507
 30
0.0
 70
    16
  0
SEQEND
  5
7DD
330
799
100
AcDbEntity
  8
image
 62
     5
  0
TEXT
  5
7E3
330
2
100
AcDbEntity
  8
image
100
AcDbText
 10
8.00355916429406
 20
5.60102046367404
 30
0.0
 40
0.125
  1
DB SERIES WIRE
  7
arial
100
AcDbText
  0
TEXT
  5
7E4
330
2
100
AcDbEntity
  8
image
100
AcDbText
 10
8.00355916429406
 20
5.360058662855487
 30
0.0
 40
0.125
  1
CONNECTORS
  7
arial
100
AcDbText
  0
TEXT
  5
7E5
330
2
100
AcDbEntity
  8
image
100
AcDbText
 10
3.522839188650522
 20
5.707345773701097
 30
0.0
 40
0.125
  1
DB SERIES WIRE
  7
arial
100
AcDbText
  0
TEXT
  5
7E6
330
2
100
AcDbEntity
  8
image
100
AcDbText
 10
3.522839188650522
 20
5.466383972882543
 30
0.0
 40
0.125
  1
CONNECTORS
  7
arial
100
AcDbText
  0
TEXT
  5
7E7
330
2
100
AcDbEntity
  8
image
100
AcDbText
 10
2.216072749368404
 20
9.43032877901491
 30
0.0
 40
0.125
  1
TWO-WIRE
  7
arial
100
AcDbText
  0
TEXT
  5
7E8
330
2
100
AcDbEntity
  8
image
100
AcDbText
 10
2.216072749368404
 20
9.189366978196357
 30
0.0
 40
0.125
  1
CABLE
  7
arial
100
AcDbText
  0
TEXT
  5
7E9
330
2
100
AcDbEntity
  8
image
100
AcDbText
 10
6.949414963141897
 20
6.838649096094511
 30
0.0
 40
0.125
  1
WHITE
  7
arial
100
AcDbText
  0
TEXT
  5
7EA
330
2
100
AcDbEntity
  8
image
100
AcDbText
 10
6.962710909564206
 20
4.818468038239839
 30
0.0
 40
0.125
  1
WHITE
  7
arial
100
AcDbText
  0
TEXT
  5
7EB
330
2
100
AcDbEntity
  8
image
 62
     5
100
AcDbText
 10
4.476376615496196
 20
7.263950391982935
 30
0.0
 40
0.125
  1
BLUE
  7
arial
100
AcDbText
  0
TEXT
  5
7EC
330
2
100
AcDbEntity
  8
image
 62
     5
100
AcDbText
 10
5.300722731378098
 20
6.227278507658735
 30
0.0
 40
0.125
  1
BLUE
  7
arial
100
AcDbText
  0
TEXT
  5
7ED
330
2
100
AcDbEntity
  8
image
100
AcDbText
 10
2.216072749368404
 20
7.689251687871363
 30
0.0
 40
0.125
  1
COMMUNICATION CABLE
  7
arial
100
AcDbText
  0
TEXT
  5
7EE
330
2
100
AcDbEntity
  8
image
100
AcDbText
 10
0.9928494806404231
 20
6.665870495190646
 30
0.0
 40
0.125
  1
COMMUNICATION CABLE
  7
arial
100
AcDbText
  0
TEXT
  5
7EF
330
2
100
AcDbEntity
  8
image
100
AcDbText
 10
9.143239262467904
 20
7.210787736969405
 30
0.0
 40
0.125
  1
SOLENOID WIRE
  7
arial
100
AcDbText
  0
TEXT
  5
7F0
330
2
100
AcDbEntity
  8
image
100
AcDbText
 10
8.850729350380781
 20
6.360185200972755
 30
0.0
 40
0.125
  1
SOLENOID WIRE
  7
arial
100
AcDbText
  0
MTEXT
  5
7F2
330
2
100
AcDbEntity
  8
image
100
AcDbMText
 10
6.354588550899221
 20
3.783081050742367
 30
0.0
 40
0.125
 41
0.8262
 71
     1
 72
     5
  1
FD-102\PTURF\PM13004
  7
arial
 73
     1
 44
1.0
  0
LINE
  5
7F3
330
2
100
AcDbEntity
  8
image
100
AcDbLine
 10
8.486420266907371
 20
6.759959617601013
 30
0.0
 11
8.486420266907371
 21
6.338074634821613
 31
0.0
  0
LINE
  5
7F4
330
2
100
AcDbEntity
  8
image
100
AcDbLine
 10
8.67347083277464
 20
6.754574527239047
 30
0.0
 11
8.673470832774642
 21
6.338074634821613
 31
0.0
  0
INSERT
  5
832
330
2
100
AcDbEntity
  8
title
100
AcDbBlockReference
 66
     1
  2
titleblock
 10
0.0
 20
0.0
 30
0.0
  0
ATTRIB
  5
834
330
832
100
AcDbEntity
  8
title
100
AcDbText
 10
0.5055556038023421
 20
0.7842270964783673
 30
0.0
 40
0.2
  1
D
  7
L200
 72
     4
 11
0.6064423705144839
 21
0.8842270964783672
 31
0.0
100
AcDbAttribute
  2
D
 70
     0
  0
ATTRIB
  5
835
330
832
100
AcDbEntity
  8
title
100
AcDbText
 10
1.231442370514484
 20
1.34371230274675
 30
0.0
 40
0.2
  1

  7
L200
100
AcDbAttribute
  2
TITLE1
 70
     0
  0
ATTRIB
  5
836
330
832
100
AcDbEntity
  8
title
100
AcDbText
 10
1.231442370514484
 20
0.9842270964783674
 30
0.0
 40
0.2
  1
FD-102TURF DECODER
  7
L200
100
AcDbAttribute
  2
TITLE2
 70
     0
  0
ATTRIB
  5
837
330
832
100
AcDbEntity
  8
title
100
AcDbText
 10
2.713645751168312
 20
0.5927927664583189
 30
0.0
 40
0.2
  1
WIRING DIAGRAM
  7
L200
100
AcDbAttribute
  2
TITLE3
 70
     0
  0
ATTRIB
  5
838
330
832
100
AcDbEntity
  8
title
100
AcDbText
 10
2.713645751168312
 20
0.2692560808167741
 30
0.0
 40
0.2
  1

  7
L200
100
AcDbAttribute
  2
TITLE4
 70
     0
  0
ATTRIB
  5
839
330
832
100
AcDbEntity
  8
title
 62
     7
100
AcDbText
 10
7.617214829966379
 20
0.9696027915446398
 30
0.0
 40
0.08
  1
11-18-10
  7
L80
 72
     2
 11
8.261024353775903
 21
0.9696027915446398
 31
0.0
100
AcDbAttribute
  2
REVISED
 70
     0
  0
ATTRIB
  5
83A
330
832
100
AcDbEntity
  8
title
 62
     7
100
AcDbText
 10
0.2639423705144838
 20
0.0847116480207214
 30
0.0
 40
0.08
  1
FD102.DWG
  7
L80
100
AcDbAttribute
  2
DWG-NAME
 70
     0
  0
ATTRIB
  5
83B
330
832
100
AcDbEntity
  8
title
 62
     7
100
AcDbText
 10
1.231442370514484
 20
0.7005637793954894
 30
0.0
 40
0.1
  1
N.T.S.
  7
L100
100
AcDbAttribute
  2
SCALE
 70
     0
  0
SEQEND
  5
833
330
832
100
AcDbEntity
  8
title
  0
TEXT
  5
859
330
2
100
AcDbEntity
  8
image
100
AcDbText
 10
10.32734404
 20
3.975641679999999
 30
0.0
 40
0.125
  1
MASTER VALVE,
  7
arial
100
AcDbText
  0
TEXT
  5
85A
330
2
100
AcDbEntity
  8
image
100
AcDbText
 10
10.32734404
 20
4.43144194
 30
0.0
 40
0.125
  1
SOLENOID
  7
arial
100
AcDbText
  0
TEXT
  5
85B
330
2
100
AcDbEntity
  8
image
100
AcDbText
 10
10.32734404
 20
3.29194129
 30
0.0
 40
0.125
  1
(MAXIMUM 2)
  7
arial
100
AcDbText
  0
TEXT
  5
85C
330
2
100
AcDbEntity
  8
image
100
AcDbText
 10
10.32734404
 20
3.51984142
 30
0.0
 40
0.125
  1
PUMP / VALVE
  7
arial
100
AcDbText
  0
TEXT
  5
85D
330
2
100
AcDbEntity
  8
image
100
AcDbText
 10
10.32734404
 20
3.74774155
 30
0.0
 40
0.125
  1
OR BOOSTER
  7
arial
100
AcDbText
  0
TEXT
  5
85E
330
2
100
AcDbEntity
  8
image
100
AcDbText
 10
10.32734404
 20
4.203541809999999
 30
0.0
 40
0.125
  1
(VALVE),
  7
arial
100
AcDbText
  0
LINE
  5
85F
330
2
100
AcDbEntity
  8
image
100
AcDbLine
 10
12.070255392452
 20
5.453389503118828
 30
0.0
 11
11.6896792465509
 21
5.453389503118828
 31
0.0
  0
LINE
  5
860
330
2
100
AcDbEntity
  8
image
100
AcDbLine
 10
12.070255392452
 20
5.065108186618844
 30
0.0
 11
11.6896792465509
 21
5.065108186618844
 31
0.0
  0
MTEXT
  5
962
102
{ACAD_XDICTIONARY
360
A03
102
}
330
2
100
AcDbEntity
  8
image
100
AcDbMText
 10
1.305580639644077
 20
2.330427678356851
 30
0.0
 40
0.125
 41
5.693102208223731
 71
     1
 72
     5
  1
NOTE:\P\pi-0.375,l0.375;1. MAXIMUM LENGTH OF SECONDARY WIRE PATH (14 AWG) FROM FIELD DECODER TO SOLENOID IS 450 FEET.
  7
ROMANS
 73
     1
 44
1.0
  0
VIEWPORT
  5
915
102
{ACAD_XDICTIONARY
360
916
102
}
330
C
100
AcDbEntity
 67
     1
  8
0
100
AcDbViewport
 10
5.249999639556163
 20
3.999999883606678
 30
0.0
 40
20.75717570948875
 41
8.992999745766947
 68
     1
 69
     1
 12
5.249999639556163
 22
3.999999883606678
 13
0.0
 23
0.0
 14
0.5
 24
0.5
 15
0.5
 25
0.5
 16
0.0
 26
0.0
 36
1.0
 17
0.0
 27
0.0
 37
0.0
 42
50.0
 43
0.0
 44
0.0
 45
8.992999745766947
 50
0.0
 51
0.0
 72
  1000
 90
   819232
  1

281
     0
 71
     1
 74
     0
110
0.0
120
0.0
130
0.0
111
1.0
121
0.0
131
0.0
112
0.0
122
1.0
132
0.0
 79
     0
146
0.0
170
     0
  0
ENDSEC
  0
SECTION
  2
OBJECTS
  0
DICTIONARY
  5
7
330
0
100
AcDbDictionary
281
     1
  3
ACAD_COLOR
350
8C3
  3
ACAD_GROUP
350
1F
  3
ACAD_LAYOUT
350
B
  3
ACAD_MATERIAL
350
899
  3
ACAD_MLEADERSTYLE
350
8E8
  3
ACAD_MLINESTYLE
350
20
  3
ACAD_PLOTSETTINGS
350
21
  3
ACAD_PLOTSTYLENAME
350
6
  3
ACAD_SCALELIST
350
8C6
  3
ACAD_TABLESTYLE
350
8C4
  3
ACAD_VISUALSTYLE
350
8B2
  3
ACDB_RECOMPOSE_DATA
350
926
  3
AcDbVariableDictionary
350
32
1001
BBSI_PltSel
1000
1
1000

1001
BBSI_Bookmarks
1000
1
1000
1
1000
0
1000
1
1000
0
1000
0
1000
0
1000
0
1000
0
1000
0
1000
0
1001
BBSI_BookmarksEx
1000
0
1000
0
1000

1000
0
1001
BBSI_Plots
1000

1000
ANSI_B_(17.00_x_11.00_Inches)
1000
431.799987792969
1000
279.399993896484
1000
0
1000
1
1000
1
1000
0
1000
0
1000
1
1000
0
1000
1
1000
0.993124215659571
1000
0
1000
1
1000
OKIColorShaded.ctb
1000
0
1000
0
1000
1
1000
1
1000
0
1000
0
1000
0
1000
1.11022302462516E-16
1000
16.49
1000
10.44
1000

1000

  0
DICTIONARY
  5
8F1
330
10
100
AcDbDictionary
280
     1
281
     1
  3
ACAD_LAYERFILTERS
360
9E0
  3
ACAD_LAYERSTATES
360
91D
  0
DICTIONARY
  5
9C5
330
2
100
AcDbDictionary
280
     1
281
     1
  0
DICTIONARY
  5
9D3
330
824
100
AcDbDictionary
280
     1
281
     1
  3
ACAD_SORTENTS
360
9D4
  0
DICTIONARY
  5
A03
330
962
100
AcDbDictionary
280
     1
281
     1
  3
ACAD_MTEXT_2008_RT
360
A04
  0
DICTIONARY
  5
916
330
915
100
AcDbDictionary
280
     1
281
     1
  3
ASDK_XREC_ANNOTATION_SCALE_INFO
360
917
  0
DICTIONARY
  5
8C3
102
{ACAD_REACTORS
330
7
102
}
330
7
100
AcDbDictionary
281
     1
  0
DICTIONARY
  5
1F
102
{ACAD_REACTORS
330
7
102
}
330
7
100
AcDbDictionary
281
     1
  0
DICTIONARY
  5
B
102
{ACAD_REACTORS
330
7
102
}
330
7
100
AcDbDictionary
281
     1
  3
Layout1
350
F
  3
Model
350
A
  0
DICTIONARY
  5
899
102
{ACAD_REACTORS
330
7
102
}
330
7
100
AcDbDictionary
281
     1
  3
ByBlock
350
8A2
  3
ByLayer
350
89A
  3
Global
350
8AA
  0
DICTIONARY
  5
8E8
102
{ACAD_REACTORS
330
7
102
}
330
7
100
AcDbDictionary
281
     1
  3
Standard
350
8E9
  0
DICTIONARY
  5
20
102
{ACAD_REACTORS
330
7
102
}
330
7
100
AcDbDictionary
281
     1
  3
STANDARD
350
24
  0
DICTIONARY
  5
21
102
{ACAD_REACTORS
330
7
102
}
330
7
100
AcDbDictionary
281
     1
  3
1055 B&W Full Shaded Draft
350
862
  3
1055 B&W Full Shaded Final
350
863
  3
1055 Color Full Shaded Draft
350
864
  3
1055 Color Full Shaded Final
350
865
  3
1055 PLUS B&W Full Shaded Draft
350
866
  3
1055 PLUS B&W Full Shaded Final
350
867
  3
1055 PLUS Color Full Shaded Draft
350
868
  3
1055 PLUS Color Full Shaded Final
350
869
  3
1055-B&W-Shaded-Draft
350
86A
  3
1055-B&W-Shaded-Final
350
86B
  3
1055-Color-Shaded-Draft
350
86C
  3
1055-Color-Shaded-Final
350
86D
  3
1055-PLUS-B&W-Shaded-Draft
350
86E
  3
1055-PLUS-B&W-Shaded-Final
350
86F
  3
1055-PLUS-Color-Shaded-Draft
350
870
  3
1055-PLUS-Color-Shaded-Final
350
871
  3
2200 Color Inkjet
350
872
  3
2200-Color-Inkjet
350
873
  3
24x36 PDF
350
874
  3
8500 B&W Shaded 11x17
350
875
  3
8500 B&W Shaded 8.5x11
350
876
  3
8500 Color Shaded 11x17
350
877
  3
8500 Color Shaded 8.5x11
350
878
  3
8500-B&W-Shaded-11x17
350
879
  3
8500-B&W-Shaded-8.5x11
350
87A
  3
8500-Color-Shaded-11x17
350
87B
  3
8500-Color-Shaded-8.5x11
350
87C
  3
Laser Jet 5 Shaded 11x17
350
87D
  3
Laser Jet 5 Shaded 8.5x11
350
87E
  3
LaserJet5-Shaded-11x17
350
87F
  3
LaserJet5-Shaded-8.5x11
350
880
  3
Oki Doki B&W Shaded 11x17
350
881
  3
Oki Doki B&W Shaded 8.5x11
350
882
  3
Oki Doki Color Laser
350
883
  3
Oki Doki Color Shaded 11x17
350
884
  3
Oki Doki Color Shaded 8.5x11
350
885
  3
Oki-Doki-B&W-Shaded-11x17
350
886
  3
Oki-Doki-B&W-Shaded-8.5x11
350
887
  3
Oki-Doki-Color-Laser
350
888
  3
Oki-Doki-Color-Shaded-11x17
350
889
  3
Oki-Doki-Color-Shaded-8.5x11
350
88A
  0
ACDBDICTIONARYWDFLT
  5
6
102
{ACAD_REACTORS
330
7
102
}
330
7
100
AcDbDictionary
281
     1
  3
Normal
350
5
100
AcDbDictionaryWithDefault
340
5
  0
DICTIONARY
  5
8C6
102
{ACAD_REACTORS
330
7
102
}
330
7
100
AcDbDictionary
281
     1
  3
A0
350
8C7
  3
A1
350
8C8
  3
A2
350
8C9
  3
A3
350
8CA
  3
A4
350
8CB
  3
A5
350
8CC
  3
A6
350
8CD
  3
A7
350
8CE
  3
A8
350
8CF
  3
A9
350
8D0
  3
B0
350
8D1
  3
B1
350
8D2
  3
B2
350
8D3
  3
B3
350
8D4
  3
B4
350
8D5
  3
B5
350
8D6
  3
B6
350
8D7
  3
B7
350
8D8
  3
B8
350
8D9
  3
B9
350
8DA
  3
C0
350
8DB
  3
C1
350
8DC
  3
C2
350
8DD
  3
C3
350
8DE
  3
C4
350
8DF
  3
C5
350
8E0
  3
C6
350
8E1
  3
C7
350
8E2
  3
C8
350
8E3
  3
C9
350
8E4
  3
D0
350
8E5
  3
D1
350
8E6
  3
D2
350
8E7
  0
DICTIONARY
  5
8C4
102
{ACAD_REACTORS
330
7
102
}
330
7
100
AcDbDictionary
281
     1
  3
Standard
350
8C5
  0
DICTIONARY
  5
8B2
102
{ACAD_REACTORS
330
7
102
}
330
7
100
AcDbDictionary
281
     1
  3
2dWireframe
350
8B8
  3
3D Hidden
350
8BA
  3
3dWireframe
350
8B9
  3
Basic
350
8B7
  3
Brighten
350
8BE
  3
ColorChange
350
8C2
  3
Conceptual
350
8BB
  3
Dim
350
8BD
  3
Facepattern
350
8C1
  3
Flat
350
8B3
  3
FlatWithEdges
350
8B4
  3
Gouraud
350
8B5
  3
GouraudWithEdges
350
8B6
  3
Linepattern
350
8C0
  3
Realistic
350
8BC
  3
Thicken
350
8BF
  0
XRECORD
  5
926
102
{ACAD_REACTORS
330
7
102
}
330
7
100
AcDbXrecord
280
     1
 90
        1
330
8C5
330
962
  0
DICTIONARY
  5
32
102
{ACAD_REACTORS
330
7
102
}
330
7
100
AcDbDictionary
281
     1
  3
CANNOSCALE
350
92A
  3
CMLEADERSTYLE
350
928
  3
CTABLESTYLE
350
927
  3
DIMASSOC
350
34
  3
HIDETEXT
350
33
  3
LAYEREVAL
350
9FA
  3
LAYERNOTIFY
350
92C
  3
LIGHTINGUNITS
350
92B
  3
MSLTSCALE
350
929
  3
SORTENTS
350
816
  3
UPDATETHUMBNAIL
350
96C
  0
DICTIONARY
  5
9E0
102
{ACAD_REACTORS
330
8F1
102
}
330
8F1
100
AcDbDictionary
281
     1
  3
_0100-
350
9E3
  3
_0280-
350
9E2
  3
_Add Alternate
350
9E5
  3
_Bid Alternate
350
9E6
  3
_Color 253
350
9E8
  3
_Color 8
350
9E4
  3
_Color 84
350
9E7
  3
_Contours
350
9EE
  3
_Demo
350
9E9
  3
_Existing
350
9EA
  3
_Hardscape
350
9ED
  3
_NoXref
350
9E1
  3
_Row
350
9EB
  3
_Utility
350
9EC
  0
DICTIONARY
  5
91D
102
{ACAD_REACTORS
330
8F1
102
}
330
8F1
100
AcDbDictionary
281
     1
  0
SORTENTSTABLE
  5
9D4
102
{ACAD_REACTORS
330
9D3
102
}
330
9D3
100
AcDbSortentsTable
330
824
  0
XRECORD
  5
A04
102
{ACAD_REACTORS
330
A03
102
}
330
A03
100
AcDbXrecord
280
     1
 40
443238.0
  1
NOTE:\P\pxi-3,l3;1. MAXIMUM LENGTH OF SECONDARY WIRE PATH (14 AWG) FROM FIELD DECODER TO SOLENOID IS 450 FEET.
  0
XRECORD
  5
917
102
{ACAD_REACTORS
330
916
102
}
330
916
100
AcDbXrecord
280
     1
 90
        1
340
8C7
  0
LAYOUT
  5
F
102
{ACAD_XDICTIONARY
360
921
102
}
102
{ACAD_REACTORS
330
B
102
}
330
B
100
AcDbPlotSettings
  1

  2
none_device
  4
Letter_(8.50_x_11.00_Inches)
  6

 40
6.349999904632568
 41
6.349999904632568
 42
6.350006103515625
 43
6.350006103515625
 44
215.8999938964844
 45
279.3999938964844
 46
0.0
 47
0.0
 48
0.0
 49
0.0
140
0.0
141
0.0
142
1.0
143
1.0
 70
   688
 72
     0
 73
     1
 74
     5
  7
TRexLJ5Shaded2.ctb
 75
    16
147
1.0
 76
     0
 77
     2
 78
   300
148
0.0
149
0.0
100
AcDbLayout
  1
Layout1
 70
     1
 71
     1
 10
0.0
 20
0.0
 11
12.0
 21
9.0
 12
0.0
 22
0.0
 32
0.0
 14
1.000000000000000E+20
 24
1.000000000000000E+20
 34
1.000000000000000E+20
 15
-1.000000000000000E+20
 25
-1.000000000000000E+20
 35
-1.000000000000000E+20
146
0.0
 13
0.0
 23
0.0
 33
0.0
 16
1.0
 26
0.0
 36
0.0
 17
0.0
 27
1.0
 37
0.0
 76
     0
330
C
331
915
1001
ACAD_PSEXT
1000
None
1000
None
1000
Not applicable
1000
The layout will not be plotted unless a new plotter configuration name is selected.
1070
     0
  0
LAYOUT
  5
A
102
{ACAD_REACTORS
330
B
102
}
330
B
100
AcDbPlotSettings
  1

  2
Bluebeam PS9 HighRes.pc3
  4
ANSI_B_(17.00_x_11.00_Inches)
  6

 40
5.842000007629394
 41
5.842000007629394
 42
5.84197998046875
 43
5.84197998046875
 44
431.7999877929687
 45
279.3999938964844
 46
0.0
 47
0.8679790135366376
 48
0.0
 49
0.0000000000000001
140
16.49
141
10.44
142
1.0
143
0.9969770068712529
 70
 28340
 72
     0
 73
     0
 74
     1
  7
okicolorshaded.ctb
 75
     0
147
1.003032159325553
 76
     0
 77
     2
 78
   300
148
0.0
149
0.0
100
AcDbLayout
  1
Model
 70
     1
 71
     0
 10
0.0
 20
0.0
 11
12.0
 21
9.0
 12
0.0
 22
0.0
 32
0.0
 14
0.0
 24
0.0
 34
0.0
 15
0.0
 25
0.0
 35
0.0
146
0.0
 13
0.0
 23
0.0
 33
0.0
 16
1.0
 26
0.0
 36
0.0
 17
0.0
 27
1.0
 37
0.0
 76
     0
330
2
331
897
1001
ACAD_PSEXT
1000
Bluebeam PS9 HighRes.pc3
1000
PostScript Level 2
1000
File
1000

1070
     0
  0
MATERIAL
  5
8A2
102
{ACAD_XDICTIONARY
360
8A3
102
}
102
{ACAD_REACTORS
330
899
102
}
330
899
100
AcDbMaterial
  1
ByBlock
 72
     0
 43
0.0208333333333333
 43
0.0
 43
0.0
 43
0.0
 43
0.0
 43
0.0208333333333333
 43
0.0
 43
0.0
 43
0.0
 43
0.0
 43
1.0
 43
0.0
 43
0.0
 43
0.0
 43
0.0
 43
1.0
 77
     0
 47
0.0208333333333333
 47
0.0
 47
0.0
 47
0.0
 47
0.0
 47
0.0208333333333333
 47
0.0
 47
0.0
 47
0.0
 47
0.0
 47
1.0
 47
0.0
 47
0.0
 47
0.0
 47
0.0
 47
1.0
171
     0
 49
0.0208333333333333
 49
0.0
 49
0.0
 49
0.0
 49
0.0
 49
0.0208333333333333
 49
0.0
 49
0.0
 49
0.0
 49
0.0
 49
1.0
 49
0.0
 49
0.0
 49
0.0
 49
0.0
 49
1.0
175
     0
142
0.0208333333333333
142
0.0
142
0.0
142
0.0
142
0.0
142
0.0208333333333333
142
0.0
142
0.0
142
0.0
142
0.0
142
1.0
142
0.0
142
0.0
142
0.0
142
0.0
142
1.0
179
     0
144
0.0208333333333333
144
0.0
144
0.0
144
0.0
144
0.0
144
0.0208333333333333
144
0.0
144
0.0
144
0.0
144
0.0
144
1.0
144
0.0
144
0.0
144
0.0
144
0.0
144
1.0
147
0.0208333333333333
147
0.0
147
0.0
147
0.0
147
0.0
147
0.0208333333333333
147
0.0
147
0.0
147
0.0
147
0.0
147
1.0
147
0.0
147
0.0
147
0.0
147
0.0
147
1.0
  0
MATERIAL
  5
89A
102
{ACAD_XDICTIONARY
360
89B
102
}
102
{ACAD_REACTORS
330
899
102
}
330
899
100
AcDbMaterial
  1
ByLayer
 72
     0
 43
0.0208333333333333
 43
0.0
 43
0.0
 43
0.0
 43
0.0
 43
0.0208333333333333
 43
0.0
 43
0.0
 43
0.0
 43
0.0
 43
1.0
 43
0.0
 43
0.0
 43
0.0
 43
0.0
 43
1.0
 77
     0
 47
0.0208333333333333
 47
0.0
 47
0.0
 47
0.0
 47
0.0
 47
0.0208333333333333
 47
0.0
 47
0.0
 47
0.0
 47
0.0
 47
1.0
 47
0.0
 47
0.0
 47
0.0
 47
0.0
 47
1.0
171
     0
 49
0.0208333333333333
 49
0.0
 49
0.0
 49
0.0
 49
0.0
 49
0.0208333333333333
 49
0.0
 49
0.0
 49
0.0
 49
0.0
 49
1.0
 49
0.0
 49
0.0
 49
0.0
 49
0.0
 49
1.0
175
     0
142
0.0208333333333333
142
0.0
142
0.0
142
0.0
142
0.0
142
0.0208333333333333
142
0.0
142
0.0
142
0.0
142
0.0
142
1.0
142
0.0
142
0.0
142
0.0
142
0.0
142
1.0
179
     0
144
0.0208333333333333
144
0.0
144
0.0
144
0.0
144
0.0
144
0.0208333333333333
144
0.0
144
0.0
144
0.0
144
0.0
144
1.0
144
0.0
144
0.0
144
0.0
144
0.0
144
1.0
147
0.0208333333333333
147
0.0
147
0.0
147
0.0
147
0.0
147
0.0208333333333333
147
0.0
147
0.0
147
0.0
147
0.0
147
1.0
147
0.0
147
0.0
147
0.0
147
0.0
147
1.0
  0
MATERIAL
  5
8AA
102
{ACAD_XDICTIONARY
360
8AB
102
}
102
{ACAD_REACTORS
330
899
102
}
330
899
100
AcDbMaterial
  1
Global
 72
     0
 43
0.0208333333333333
 43
0.0
 43
0.0
 43
0.0
 43
0.0
 43
0.0208333333333333
 43
0.0
 43
0.0
 43
0.0
 43
0.0
 43
1.0
 43
0.0
 43
0.0
 43
0.0
 43
0.0
 43
1.0
 77
     0
 47
0.0208333333333333
 47
0.0
 47
0.0
 47
0.0
 47
0.0
 47
0.0208333333333333
 47
0.0
 47
0.0
 47
0.0
 47
0.0
 47
1.0
 47
0.0
 47
0.0
 47
0.0
 47
0.0
 47
1.0
171
     0
 49
0.0208333333333333
 49
0.0
 49
0.0
 49
0.0
 49
0.0
 49
0.0208333333333333
 49
0.0
 49
0.0
 49
0.0
 49
0.0
 49
1.0
 49
0.0
 49
0.0
 49
0.0
 49
0.0
 49
1.0
175
     0
142
0.0208333333333333
142
0.0
142
0.0
142
0.0
142
0.0
142
0.0208333333333333
142
0.0
142
0.0
142
0.0
142
0.0
142
1.0
142
0.0
142
0.0
142
0.0
142
0.0
142
1.0
179
     0
144
0.0208333333333333
144
0.0
144
0.0
144
0.0
144
0.0
144
0.0208333333333333
144
0.0
144
0.0
144
0.0
144
0.0
144
1.0
144
0.0
144
0.0
144
0.0
144
0.0
144
1.0
147
0.0208333333333333
147
0.0
147
0.0
147
0.0
147
0.0
147
0.0208333333333333
147
0.0
147
0.0
147
0.0
147
0.0
147
1.0
147
0.0
147
0.0
147
0.0
147
0.0
147
1.0
  0
MLEADERSTYLE
  5
8E9
102
{ACAD_REACTORS
330
8E8
102
}
330
8E8
100
AcDbMLeaderStyle
170
     2
171
     1
172
     0
 90
        2
 40
0.0
 41
0.0
173
     1
 91
-1056964608
340
15
 92
       -2
290
     1
 42
0.09
291
     1
 43
0.36
  3
Standard
 44
0.18
300

342
12
174
     1
178
     6
175
     1
176
     0
 93
-1056964608
 45
0.18
292
     0
297
     0
 46
0.18
 94
-1056964608
 47
1.0
 49
1.0
140
1.0
293
     1
141
0.0
294
     1
177
     0
142
1.0
295
     0
296
     0
143
0.125
1001
ACAD_MLEADERVER
1070
     2
  0
MLINESTYLE
  5
24
102
{ACAD_REACTORS
330
20
102
}
330
20
100
AcDbMlineStyle
  2
STANDARD
 70
     0
  3

 62
     0
 51
90.0
 52
90.0
 71
     2
 49
0.5
 62
   256
  6
BYLAYER
 49
-0.5
 62
   256
  6
BYLAYER
  0
PLOTSETTINGS
  5
862
102
{ACAD_REACTORS
330
21
102
}
330
21
100
AcDbPlotSettings
  1
1055 B&W Full Shaded Draft
  2
1055B&WDraftShaded.pc3
  4
User607
  6

 40
0.0
 41
0.0
 42
0.0
 43
0.0
 44
901.7000122070312
 45
1155.700073242187
 46
0.0
 47
0.0
 48
180377.877572
 49
80019.819395
140
180380.839082
141
80022.26069
142
1.0
143
1.0
 70
   688
 72
     0
 73
     2
 74
     3
  7
1055B&WFullDraftShaded.ctb
 75
    16
147
1.0
 76
     0
 77
     2
 78
   300
148
-4581603.303200401
149
-2032962.095032944
  0
PLOTSETTINGS
  5
863
102
{ACAD_REACTORS
330
21
102
}
330
21
100
AcDbPlotSettings
  1
1055 B&W Full Shaded Final
  2
1055B&WFinalShaded.pc3
  4
User257
  6

 40
4.995333194732666
 41
8.297271728515625
 42
4.99530029296875
 43
8.29736328125
 44
911.6906738281249
 45
1172.294677734375
 46
0.0
 47
0.0
 48
180377.877572
 49
80019.819395
140
180380.839082
141
80022.26069
142
1.0
143
1.0
 70
   688
 72
     0
 73
     3
 74
     3
  7
1055B&WFullFinalShaded.ctb
 75
    16
147
1.0
 76
     0
 77
     2
 78
   300
148
-4581603.303200401
149
-2032962.095032944
  0
PLOTSETTINGS
  5
864
102
{ACAD_REACTORS
330
21
102
}
330
21
100
AcDbPlotSettings
  1
1055 Color Full Shaded Draft
  2
1055ColorDraftShaded.pc3
  4
User607
  6

 40
0.0
 41
0.0
 42
0.0
 43
0.0
 44
901.7000122070312
 45
1155.700073242187
 46
0.0
 47
0.0
 48
180377.877572
 49
80019.819395
140
180380.839082
141
80022.26069
142
1.0
143
1.0
 70
   688
 72
     0
 73
     2
 74
     3
  7
1055ColorFullDraftShaded.ctb
 75
    16
147
1.0
 76
     0
 77
     2
 78
   300
148
-4581603.303200401
149
-2032962.095032944
  0
PLOTSETTINGS
  5
865
102
{ACAD_REACTORS
330
21
102
}
330
21
100
AcDbPlotSettings
  1
1055 Color Full Shaded Final
  2
1055ColorFinalShaded.pc3
  4
User607
  6

 40
0.0
 41
0.0
 42
0.0
 43
0.0
 44
901.7000122070312
 45
1155.700073242187
 46
0.0
 47
0.0
 48
180377.877572
 49
80019.819395
140
180380.839082
141
80022.26069
142
1.0
143
1.0
 70
   688
 72
     0
 73
     2
 74
     3
  7
1055ColorFullFinalShaded.ctb
 75
    16
147
1.0
 76
     0
 77
     2
 78
   300
148
-4581603.303200401
149
-2032962.095032944
  0
PLOTSETTINGS
  5
866
102
{ACAD_REACTORS
330
21
102
}
330
21
100
AcDbPlotSettings
  1
1055 PLUS B&W Full Shaded Draft
  2
1055_PLUS_B&WDraftShaded.pc3
  4
User257
  6

 40
4.995333194732666
 41
8.297393798828125
 42
4.99530029296875
 43
8.29736328125
 44
901.6152954101562
 45
1155.615356445312
 46
0.0
 47
0.0
 48
180377.877572
 49
80019.819395
140
180380.839082
141
80022.26069
142
1.0
143
1.0
 70
   688
 72
     0
 73
     3
 74
     5
  7
1055B&WFullDraftShaded.ctb
 75
    16
147
1.0
 76
     0
 77
     2
 78
   300
148
-4581603.303200401
149
-2032962.095032944
  0
PLOTSETTINGS
  5
867
102
{ACAD_REACTORS
330
21
102
}
330
21
100
AcDbPlotSettings
  1
1055 PLUS B&W Full Shaded Final
  2
1055_PLUS_B&WFinalShaded.pc3
  4
User257
  6

 40
4.995333194732666
 41
8.297271728515625
 42
4.99530029296875
 43
8.29736328125
 44
901.6576538085937
 45
1155.657592773437
 46
0.0
 47
0.0
 48
180377.877572
 49
80019.819395
140
180380.839082
141
80022.26069
142
1.0
143
1.0
 70
   688
 72
     0
 73
     3
 74
     5
  7
1055B&WFullFinalShaded.ctb
 75
    16
147
1.0
 76
     0
 77
     2
 78
   300
148
-4581603.303200401
149
-2032962.095032944
  0
PLOTSETTINGS
  5
868
102
{ACAD_REACTORS
330
21
102
}
330
21
100
AcDbPlotSettings
  1
1055 PLUS Color Full Shaded Draft
  2
1055_PLUS_ColorDraftShaded.pc3
  4
User257
  6

 40
4.995333194732666
 41
8.297393798828125
 42
4.99530029296875
 43
8.29736328125
 44
901.6152954101562
 45
1155.615356445312
 46
0.0
 47
0.0
 48
180377.877572
 49
80019.819395
140
180380.839082
141
80022.26069
142
1.0
143
1.0
 70
   688
 72
     0
 73
     3
 74
     5
  7
1055ColorFullDraftShaded.ctb
 75
    16
147
1.0
 76
     0
 77
     2
 78
   300
148
-4581603.303200401
149
-2032962.095032944
  0
PLOTSETTINGS
  5
869
102
{ACAD_REACTORS
330
21
102
}
330
21
100
AcDbPlotSettings
  1
1055 PLUS Color Full Shaded Final
  2
1055_PLUS_ColorFinalShaded.pc3
  4
User257
  6

 40
4.995333194732666
 41
8.297271728515625
 42
4.99530029296875
 43
8.29736328125
 44
901.6576538085937
 45
1155.657592773437
 46
0.0
 47
0.0
 48
180377.877572
 49
80019.819395
140
180380.839082
141
80022.26069
142
1.0
143
1.0
 70
   688
 72
     0
 73
     3
 74
     5
  7
1055ColorFullFinalShaded.ctb
 75
    16
147
1.0
 76
     0
 77
     2
 78
   300
148
-4581603.303200401
149
-2032962.095032944
  0
PLOTSETTINGS
  5
86A
102
{ACAD_REACTORS
330
21
102
}
330
21
100
AcDbPlotSettings
  1
1055-B&W-Shaded-Draft
  2
1055B&WDraftShaded.pc3
  4
User257
  6

 40
4.995333194732666
 41
8.297393798828125
 42
4.99530029296875
 43
8.29736328125
 44
901.6152954101562
 45
1155.615356445312
 46
0.0
 47
0.0
 48
180360.0524337165
 49
80033.77936194791
140
180369.1574725906
141
80037.61796031875
142
1.0
143
30.0
 70
  1696
 72
     0
 73
     1
 74
     1
  7
1055B&WFullDraftShaded.ctb
 75
     0
147
0.0333333333333333
 76
     0
 77
     2
 78
   300
148
-190.0773302744904
149
-129.2444057835751
  0
PLOTSETTINGS
  5
86B
102
{ACAD_REACTORS
330
21
102
}
330
21
100
AcDbPlotSettings
  1
1055-B&W-Shaded-Final
  2
1055B&WFinalShaded.pc3
  4
User607
  6

 40
0.0
 41
0.0
 42
0.0
 43
0.0
 44
901.7000122070312
 45
1155.700073242187
 46
0.0
 47
0.0
 48
180360.0524337165
 49
80033.77936194791
140
180369.1574725906
141
80037.61796031875
142
1.0
143
30.0
 70
  1696
 72
     0
 73
     1
 74
     1
  7
1055B&WFullFinalShaded.ctb
 75
     0
147
0.0333333333333333
 76
     0
 77
     2
 78
   300
148
-190.0773302744904
149
-129.2444057835751
  0
PLOTSETTINGS
  5
86C
102
{ACAD_REACTORS
330
21
102
}
330
21
100
AcDbPlotSettings
  1
1055-Color-Shaded-Draft
  2
1055ColorDraftShaded.pc3
  4
User257
  6

 40
4.995333194732666
 41
8.297393798828125
 42
4.99530029296875
 43
8.29736328125
 44
901.6152954101562
 45
1155.615356445312
 46
0.0
 47
0.0
 48
180360.0524337165
 49
80033.77936194791
140
180369.1574725906
141
80037.61796031875
142
1.0
143
30.0
 70
  1696
 72
     0
 73
     1
 74
     1
  7
1055ColorFullDraftShaded.ctb
 75
     0
147
0.0333333333333333
 76
     0
 77
     2
 78
   300
148
-190.0773302744904
149
-129.2444057835751
  0
PLOTSETTINGS
  5
86D
102
{ACAD_REACTORS
330
21
102
}
330
21
100
AcDbPlotSettings
  1
1055-Color-Shaded-Final
  2
1055ColorDraftShaded.pc3
  4
User257
  6

 40
4.995333194732666
 41
8.297393798828125
 42
4.99530029296875
 43
8.29736328125
 44
901.6152954101562
 45
1155.615356445312
 46
0.0
 47
0.0
 48
180360.0524337165
 49
80033.77936194791
140
180369.1574725906
141
80037.61796031875
142
1.0
143
30.0
 70
  1696
 72
     0
 73
     1
 74
     1
  7
1055ColorFullFinalShaded.ctb
 75
     0
147
0.0333333333333333
 76
     0
 77
     2
 78
   300
148
-190.0773302744904
149
-129.2444057835751
  0
PLOTSETTINGS
  5
86E
102
{ACAD_REACTORS
330
21
102
}
330
21
100
AcDbPlotSettings
  1
1055-PLUS-B&W-Shaded-Draft
  2
1055_PLUS_B&WDraftShaded.pc3
  4
User257
  6

 40
4.995333194732666
 41
8.297393798828125
 42
4.99530029296875
 43
8.29736328125
 44
901.6152954101562
 45
1155.615356445312
 46
0.0
 47
0.0
 48
180360.0524337165
 49
80033.77936194791
140
180369.1574725906
141
80037.61796031875
142
1.0
143
30.0
 70
  1696
 72
     0
 73
     1
 74
     0
  7
1055B&WFullDraftShaded.ctb
 75
     0
147
0.0333333333333333
 76
     0
 77
     2
 78
   300
148
0.9506237099442845
149
8.593888772447144
  0
PLOTSETTINGS
  5
86F
102
{ACAD_REACTORS
330
21
102
}
330
21
100
AcDbPlotSettings
  1
1055-PLUS-B&W-Shaded-Final
  2
1055_PLUS_B&WFinalShaded.pc3
  4
User257
  6

 40
4.995333194732666
 41
8.297271728515625
 42
4.99530029296875
 43
8.29736328125
 44
901.6576538085937
 45
1155.657592773437
 46
0.0
 47
0.0
 48
180360.0524337165
 49
80033.77936194791
140
180369.1574725906
141
80037.61796031875
142
1.0
143
30.0
 70
  1696
 72
     0
 73
     1
 74
     0
  7
1055B&WFullFinalShaded.ctb
 75
     0
147
0.0333333333333333
 76
     0
 77
     2
 78
   300
148
0.9506237099442845
149
8.593888772447144
  0
PLOTSETTINGS
  5
870
102
{ACAD_REACTORS
330
21
102
}
330
21
100
AcDbPlotSettings
  1
1055-PLUS-Color-Shaded-Draft
  2
1055_PLUS_ColorDraftShaded.pc3
  4
User257
  6

 40
4.995333194732666
 41
8.297393798828125
 42
4.99530029296875
 43
8.29736328125
 44
901.6152954101562
 45
1155.615356445312
 46
0.0
 47
0.0
 48
180360.0524337165
 49
80033.77936194791
140
180369.1574725906
141
80037.61796031875
142
1.0
143
30.0
 70
  1696
 72
     0
 73
     1
 74
     0
  7
1055ColorFullDraftShaded.ctb
 75
     0
147
0.0333333333333333
 76
     0
 77
     2
 78
   300
148
0.9506237099442845
149
8.593888772447144
  0
PLOTSETTINGS
  5
871
102
{ACAD_REACTORS
330
21
102
}
330
21
100
AcDbPlotSettings
  1
1055-PLUS-Color-Shaded-Final
  2
1055_PLUS_ColorFinalShaded.pc3
  4
User257
  6

 40
4.995333194732666
 41
8.297271728515625
 42
4.99530029296875
 43
8.29736328125
 44
901.6576538085937
 45
1155.657592773437
 46
0.0
 47
0.0
 48
180360.0524337165
 49
80033.77936194791
140
180369.1574725906
141
80037.61796031875
142
1.0
143
30.0
 70
  1696
 72
     0
 73
     1
 74
     0
  7
1055ColorFullFinalShaded.ctb
 75
     0
147
0.0333333333333333
 76
     0
 77
     2
 78
   300
148
0.9506237099442845
149
8.593888772447144
  0
PLOTSETTINGS
  5
872
102
{ACAD_REACTORS
330
21
102
}
330
21
100
AcDbPlotSettings
  1
2200 Color Inkjet
  2
HP  2200 Color Inkjet.pc3
  4
Letter
  6

 40
7.143749713897705
 41
12.47775650024414
 42
7.14373779296875
 43
3.17498779296875
 44
215.8999938964844
 45
279.3999938964844
 46
0.0
 47
0.0
 48
180377.877572
 49
80019.819395
140
180380.839082
141
80022.26069
142
1.0
143
0.3486331030131726
 70
   688
 72
     0
 73
     1
 74
     3
  7
Color.ctb
 75
     0
147
2.868344948764708
 76
     0
 77
     2
 78
   300
148
-4581603.303200401
149
-2032962.095032944
  0
PLOTSETTINGS
  5
873
102
{ACAD_REACTORS
330
21
102
}
330
21
100
AcDbPlotSettings
  1
2200-Color-Inkjet
  2
HP  2200 Color Inkjet.pc3
  4
Letter
  6

 40
7.143749713897705
 41
12.47775650024414
 42
7.14373779296875
 43
3.17498779296875
 44
215.8999938964844
 45
279.3999938964844
 46
0.0
 47
0.0
 48
180360.0524337165
 49
80033.77936194791
140
180369.1574725906
141
80037.61796031875
142
1.0
143
0.069393053089765
 70
  1712
 72
     0
 73
     1
 74
     1
  7
Color.ctb
 75
     0
147
14.41066440334347
 76
     0
 77
     2
 78
   300
148
-190.0773302744904
149
-129.2444057835751
  0
PLOTSETTINGS
  5
874
102
{ACAD_REACTORS
330
21
102
}
330
21
100
AcDbPlotSettings
  1
24x36 PDF
  2
Bluebeam PDF Printer.pc3
  4
User128
  6

 40
3.174999952316284
 41
3.174999952316284
 42
3.17498779296875
 43
3.17498779296875
 44
609.5999755859375
 45
914.3999633789062
 46
270.51
 47
416.3059999999999
 48
180377.877572
 49
80019.819395
140
180380.839082
141
80022.26069
142
1.0
143
1.0
 70
   692
 72
     0
 73
     1
 74
     4
  7
1055B&WFullDraftShaded.ctb
 75
    16
147
1.0
 76
     0
 77
     2
 78
   300
148
-4581598.0903288
149
-2032503.412633
  0
PLOTSETTINGS
  5
875
102
{ACAD_REACTORS
330
21
102
}
330
21
100
AcDbPlotSettings
  1
8500 B&W Shaded 11x17
  2
8500B&WShaded.pc3
  4
11x17
  6

 40
5.027083396911621
 41
5.027085304260253
 42
5.027099609375
 43
5.027069091796875
 44
279.3999938964844
 45
431.7999877929687
 46
0.0
 47
92.964
 48
180377.877572
 49
80019.819395
140
180380.839082
141
80022.26069
142
1.0
143
0.0116192543742624
 70
   692
 72
     0
 73
     1
 74
     3
  7
8500B&WShaded.ctb
 75
     0
147
86.06404230335863
 76
     0
 77
     2
 78
   300
148
-4581651.879813895
149
-2032998.636134231
  0
PLOTSETTINGS
  5
876
102
{ACAD_REACTORS
330
21
102
}
330
21
100
AcDbPlotSettings
  1
8500 B&W Shaded 8.5x11
  2
8500B&WShaded.pc3
  4
Letter
  6

 40
5.027083396911621
 41
5.027085304260253
 42
5.027084350585937
 43
5.027069091796875
 44
215.8999938964844
 45
279.3999938964844
 46
0.0
 47
44.44999999999999
 48
180377.877572
 49
80019.819395
140
180380.839082
141
80022.26069
142
1.0
143
0.0152035994604527
 70
   692
 72
     0
 73
     1
 74
     3
  7
8500B&WShaded.ctb
 75
     0
147
65.77389799048455
 76
     0
 77
     2
 78
   300
148
-4581651.879813895
149
-2032998.636134231
  0
PLOTSETTINGS
  5
877
102
{ACAD_REACTORS
330
21
102
}
330
21
100
AcDbPlotSettings
  1
8500 Color Shaded 11x17
  2
8500ColorShaded.pc3
  4
11x17
  6

 40
5.027083396911621
 41
5.027085304260253
 42
5.027099609375
 43
5.027069091796875
 44
279.3999938964844
 45
431.7999877929687
 46
0.0
 47
92.964
 48
180377.877572
 49
80019.819395
140
180380.839082
141
80022.26069
142
1.0
143
0.0116192543742624
 70
   692
 72
     0
 73
     1
 74
     3
  7
8500ColorShaded.ctb
 75
     0
147
86.06404230335863
 76
     0
 77
     2
 78
   300
148
-4581651.879813895
149
-2032998.636134231
  0
PLOTSETTINGS
  5
878
102
{ACAD_REACTORS
330
21
102
}
330
21
100
AcDbPlotSettings
  1
8500 Color Shaded 8.5x11
  2
8500ColorShaded.pc3
  4
Letter
  6

 40
5.027083396911621
 41
5.027085304260253
 42
5.027084350585937
 43
5.027069091796875
 44
215.8999938964844
 45
279.3999938964844
 46
0.0
 47
44.44999999999999
 48
180377.877572
 49
80019.819395
140
180380.839082
141
80022.26069
142
1.0
143
0.0152035994604527
 70
   692
 72
     0
 73
     1
 74
     3
  7
8500ColorShaded.ctb
 75
     0
147
65.77389799048455
 76
     0
 77
     2
 78
   300
148
-4581651.879813895
149
-2032998.636134231
  0
PLOTSETTINGS
  5
879
102
{ACAD_REACTORS
330
21
102
}
330
21
100
AcDbPlotSettings
  1
8500-B&W-Shaded-11x17
  2
8500B&WShaded.pc3
  4
11x17
  6

 40
5.027083396911621
 41
5.027085304260253
 42
5.027099609375
 43
5.027069091796875
 44
279.3999938964844
 45
431.7999877929687
 46
0.0
 47
0.0
 48
180360.0524337165
 49
80033.77936194791
140
180369.1574725906
141
80037.61796031875
142
1.0
143
0.0519425466957002
 70
  1712
 72
     0
 73
     1
 74
     1
  7
8500B&WShaded.ctb
 75
     0
147
19.25204025629301
 76
     0
 77
     2
 78
   300
148
-190.0773302744904
149
-129.2444057835751
  0
PLOTSETTINGS
  5
87A
102
{ACAD_REACTORS
330
21
102
}
330
21
100
AcDbPlotSettings
  1
8500-B&W-Shaded-8.5x11
  2
8500B&WShaded.pc3
  4
Letter
  6

 40
5.027083396911621
 41
5.027085304260253
 42
5.027084350585937
 43
5.027069091796875
 44
215.8999938964844
 45
279.3999938964844
 46
0.0
 47
0.0
 48
180360.0524337165
 49
80033.77936194791
140
180369.1574725906
141
80037.61796031875
142
1.0
143
0.0679659511256221
 70
  1712
 72
     0
 73
     1
 74
     1
  7
8500B&WShaded.ctb
 75
     0
147
14.71324955273106
 76
     0
 77
     2
 78
   300
148
-190.0773302744904
149
-129.2444057835751
  0
PLOTSETTINGS
  5
87B
102
{ACAD_REACTORS
330
21
102
}
330
21
100
AcDbPlotSettings
  1
8500-Color-Shaded-11x17
  2
8500ColorShaded.pc3
  4
11x17
  6

 40
5.027083396911621
 41
5.027085304260253
 42
5.027099609375
 43
5.027069091796875
 44
279.3999938964844
 45
431.7999877929687
 46
0.0
 47
0.0
 48
180360.0524337165
 49
80033.77936194791
140
180369.1574725906
141
80037.61796031875
142
1.0
143
0.0519425466957002
 70
  1712
 72
     0
 73
     1
 74
     1
  7
8500ColorShaded.ctb
 75
     0
147
19.25204025629301
 76
     0
 77
     2
 78
   300
148
-190.0773302744904
149
-129.2444057835751
  0
PLOTSETTINGS
  5
87C
102
{ACAD_REACTORS
330
21
102
}
330
21
100
AcDbPlotSettings
  1
8500-Color-Shaded-8.5x11
  2
8500ColorShaded.pc3
  4
Letter
  6

 40
5.027083396911621
 41
5.027085304260253
 42
5.027084350585937
 43
5.027069091796875
 44
215.8999938964844
 45
279.3999938964844
 46
0.0
 47
0.0
 48
180360.0524337165
 49
80033.77936194791
140
180369.1574725906
141
80037.61796031875
142
1.0
143
0.0679659511256221
 70
  1712
 72
     0
 73
     1
 74
     1
  7
8500ColorShaded.ctb
 75
     0
147
14.71324955273106
 76
     0
 77
     2
 78
   300
148
-190.0773302744904
149
-129.2444057835751
  0
PLOTSETTINGS
  5
87D
102
{ACAD_REACTORS
330
21
102
}
330
21
100
AcDbPlotSettings
  1
Laser Jet 5 Shaded 11x17
  2
LaserJet5Shaded.pc3
  4
11x17
  6

 40
7.143749713897705
 41
5.873736858367919
 42
7.143768310546875
 43
7.14373779296875
 44
279.3999938964844
 45
431.7999877929687
 46
0.0
 47
29.718
 48
180377.877572
 49
80019.819395
140
180380.839082
141
80022.26069
142
1.0
143
0.2557442899420743
 70
   692
 72
     0
 73
     1
 74
     3
  7
LaserJet5Shaded.ctb
 75
     0
147
3.910155727138614
 76
     0
 77
     2
 78
   300
148
-4581603.303200401
149
-2032962.095032944
  0
PLOTSETTINGS
  5
87E
102
{ACAD_REACTORS
330
21
102
}
330
21
100
AcDbPlotSettings
  1
Laser Jet 5 Shaded 8.5x11
  2
LaserJet5Shaded.pc3
  4
Letter
  6

 40
7.143749713897705
 41
6.974400997161865
 42
7.14373779296875
 43
6.297088623046875
 44
215.8999938964844
 45
279.3999938964844
 46
2.794
 47
0.0
 48
180377.877572
 49
80019.819395
140
180380.839082
141
80022.26069
142
1.0
143
0.345513616778612
 70
   692
 72
     0
 73
     1
 74
     3
  7
LaserJet5Shaded.ctb
 75
     0
147
2.894241938489939
 76
     0
 77
     2
 78
   300
148
-4581603.303200401
149
-2032962.095032944
  0
PLOTSETTINGS
  5
87F
102
{ACAD_REACTORS
330
21
102
}
330
21
100
AcDbPlotSettings
  1
LaserJet5-Shaded-11x17
  2
LaserJet5Shaded.pc3
  4
11x17
  6

 40
7.143749713897705
 41
5.873736858367919
 42
7.143768310546875
 43
7.14373779296875
 44
279.3999938964844
 45
431.7999877929687
 46
0.0
 47
0.0
 48
180360.0524337165
 49
80033.77936194791
140
180369.1574725906
141
80037.61796031875
142
1.0
143
0.0527719690046124
 70
  1712
 72
     0
 73
     1
 74
     1
  7
LaserJet5Shaded.ctb
 75
     0
147
18.9494540162524
 76
     0
 77
     2
 78
   300
148
-190.0773302744904
149
-129.2444057835751
  0
PLOTSETTINGS
  5
880
102
{ACAD_REACTORS
330
21
102
}
330
21
100
AcDbPlotSettings
  1
LaserJet5-Shaded-8.5x11
  2
LaserJet5Shaded.pc3
  4
Letter
  6

 40
7.143749713897705
 41
6.974400997161865
 42
7.14373779296875
 43
6.297088623046875
 44
215.8999938964844
 45
279.3999938964844
 46
0.0
 47
0.0
 48
180360.0524337165
 49
80033.77936194791
140
180369.1574725906
141
80037.61796031875
142
1.0
143
0.069393053089765
 70
  1712
 72
     0
 73
     1
 74
     1
  7
LaserJet5Shaded.ctb
 75
     0
147
14.41066440334347
 76
     0
 77
     2
 78
   300
148
-190.0773302744904
149
-129.2444057835751
  0
PLOTSETTINGS
  5
881
102
{ACAD_REACTORS
330
21
102
}
330
21
100
AcDbPlotSettings
  1
Oki Doki B&W Shaded 11x17
  2
OKI DOKI Color Laser.pc3
  4
Tabloid
  6

 40
5.027083396911621
 41
5.027085304260253
 42
5.027099609375
 43
5.027069091796875
 44
279.3999938964844
 45
431.7999877929687
 46
0.0
 47
47.49799999999999
 48
180377.877572
 49
80019.819395
140
180380.839082
141
80022.26069
142
1.0
143
0.2302203728173071
 70
   692
 72
     0
 73
     1
 74
     4
  7
OKIB&WShaded.ctb
 75
     0
147
4.343664236846477
 76
     0
 77
     2
 78
   300
148
-4581598.0903288
149
-2032503.412633
  0
PLOTSETTINGS
  5
882
102
{ACAD_REACTORS
330
21
102
}
330
21
100
AcDbPlotSettings
  1
Oki Doki B&W Shaded 8.5x11
  2
OKI DOKI Color Laser.pc3
  4
Letter
  6

 40
5.027083396911621
 41
5.027085304260253
 42
5.027084350585937
 43
5.027069091796875
 44
215.8999938964844
 45
279.3999938964844
 46
0.0
 47
9.906
 48
180377.877572
 49
80019.819395
140
180380.839082
141
80022.26069
142
1.0
143
0.3012394963745367
 70
   692
 72
     0
 73
     1
 74
     4
  7
OKIB&WShaded.ctb
 75
     0
147
3.319617819161008
 76
     0
 77
     2
 78
   300
148
-4581598.0903288
149
-2032503.412633
  0
PLOTSETTINGS
  5
883
102
{ACAD_REACTORS
330
21
102
}
330
21
100
AcDbPlotSettings
  1
Oki Doki Color Laser
  2
OKI DOKI Color Laser.pc3
  4
Letter
  6

 40
5.027083396911621
 41
5.027085304260253
 42
5.027084350585937
 43
5.027069091796875
 44
215.8999938964844
 45
279.3999938964844
 46
71.88199999999999
 47
97.02799999999999
 48
180377.877572
 49
80019.819395
140
180380.839082
141
80022.26069
142
1.0
143
1.0
 70
   692
 72
     0
 73
     1
 74
     4
  7
Color.ctb
 75
    16
147
1.0
 76
     0
 77
     2
 78
   300
148
-4581598.0903288
149
-2032503.412633
  0
PLOTSETTINGS
  5
884
102
{ACAD_REACTORS
330
21
102
}
330
21
100
AcDbPlotSettings
  1
Oki Doki Color Shaded 11x17
  2
OKI DOKI Color Laser.pc3
  4
Tabloid
  6

 40
5.027083396911621
 41
5.027085304260253
 42
5.027099609375
 43
5.027069091796875
 44
279.3999938964844
 45
431.7999877929687
 46
0.0
 47
47.49799999999999
 48
180377.877572
 49
80019.819395
140
180380.839082
141
80022.26069
142
1.0
143
0.2302203728173071
 70
   692
 72
     0
 73
     1
 74
     4
  7
OKIColorShaded.ctb
 75
     0
147
4.343664236846477
 76
     0
 77
     2
 78
   300
148
-4581598.0903288
149
-2032503.412633
  0
PLOTSETTINGS
  5
885
102
{ACAD_REACTORS
330
21
102
}
330
21
100
AcDbPlotSettings
  1
Oki Doki Color Shaded 8.5x11
  2
OKI DOKI Color Laser.pc3
  4
Letter
  6

 40
5.027083396911621
 41
5.027085304260253
 42
5.027084350585937
 43
5.027069091796875
 44
215.8999938964844
 45
279.3999938964844
 46
0.0
 47
9.906
 48
180377.877572
 49
80019.819395
140
180380.839082
141
80022.26069
142
1.0
143
0.3012394963745367
 70
   692
 72
     0
 73
     1
 74
     4
  7
OKIColorShaded.ctb
 75
     0
147
3.319617819161008
 76
     0
 77
     2
 78
   300
148
-4581598.0903288
149
-2032503.412633
  0
PLOTSETTINGS
  5
886
102
{ACAD_REACTORS
330
21
102
}
330
21
100
AcDbPlotSettings
  1
Oki-Doki-B&W-Shaded-11x17
  2
OKI DOKI Color Laser.pc3
  4
Tabloid
  6

 40
5.027083396911621
 41
5.027085304260253
 42
5.027099609375
 43
5.027069091796875
 44
279.3999938964844
 45
431.7999877929687
 46
45.72
 47
0.0
 48
180360.0524337165
 49
80033.77936194791
140
180369.1574725906
141
80037.61796031875
142
1.0
143
0.5483586774064594
 70
  1716
 72
     0
 73
     1
 74
     4
  7
OKIB&WShaded.ctb
 75
     0
147
1.823623918435361
 76
     0
 77
     2
 78
   300
148
-4581145.331816398
149
-2032857.995793477
  0
PLOTSETTINGS
  5
887
102
{ACAD_REACTORS
330
21
102
}
330
21
100
AcDbPlotSettings
  1
Oki-Doki-B&W-Shaded-8.5x11
  2
OKI DOKI Color Laser.pc3
  4
Letter
  6

 40
5.027083396911621
 41
5.027085304260253
 42
5.027084350585937
 43
5.027069091796875
 44
215.8999938964844
 45
279.3999938964844
 46
46.228
 47
0.0
 48
180360.0524337165
 49
80033.77936194791
140
180369.1574725906
141
80037.61796031875
142
1.0
143
0.8586284006917006
 70
  1716
 72
     0
 73
     1
 74
     4
  7
OKIB&WShaded.ctb
 75
     0
147
1.16464817515285
 76
     0
 77
     2
 78
   300
148
-4581145.331816398
149
-2032857.995793477
  0
PLOTSETTINGS
  5
888
102
{ACAD_REACTORS
330
21
102
}
330
21
100
AcDbPlotSettings
  1
Oki-Doki-Color-Laser
  2
OKI DOKI Color Laser.pc3
  4
Letter
  6

 40
5.027083396911621
 41
5.027085304260253
 42
5.027084350585937
 43
5.027069091796875
 44
215.8999938964844
 45
279.3999938964844
 46
17.018
 47
0.0
 48
180360.0524337165
 49
80033.77936194791
140
180369.1574725906
141
80037.61796031875
142
1.0
143
1.429088128819241
 70
  1716
 72
     0
 73
     1
 74
     0
  7
Color.ctb
 75
     0
147
0.6997469084193093
 76
     0
 77
     2
 78
   300
148
0.9506237099442977
149
8.593888772447144
  0
PLOTSETTINGS
  5
889
102
{ACAD_REACTORS
330
21
102
}
330
21
100
AcDbPlotSettings
  1
Oki-Doki-Color-Shaded-11x17
  2
OKI DOKI Color Laser.pc3
  4
Tabloid
  6

 40
5.027083396911621
 41
5.027085304260253
 42
5.027099609375
 43
5.027069091796875
 44
279.3999938964844
 45
431.7999877929687
 46
45.72
 47
0.0
 48
180360.0524337165
 49
80033.77936194791
140
180369.1574725906
141
80037.61796031875
142
1.0
143
0.5483586774064594
 70
  1716
 72
     0
 73
     1
 74
     4
  7
OKIColorShaded.ctb
 75
     0
147
1.823623918435361
 76
     0
 77
     2
 78
   300
148
-4581145.331816398
149
-2032857.995793477
  0
PLOTSETTINGS
  5
88A
102
{ACAD_REACTORS
330
21
102
}
330
21
100
AcDbPlotSettings
  1
Oki-Doki-Color-Shaded-8.5x11
  2
OKI DOKI Color Laser.pc3
  4
Letter
  6

 40
5.027083396911621
 41
5.027085304260253
 42
5.027084350585937
 43
5.027069091796875
 44
215.8999938964844
 45
279.3999938964844
 46
46.228
 47
0.0
 48
180360.0524337165
 49
80033.77936194791
140
180369.1574725906
141
80037.61796031875
142
1.0
143
0.8586284006917006
 70
  1716
 72
     0
 73
     1
 74
     4
  7
OKIColorShaded.ctb
 75
     0
147
1.16464817515285
 76
     0
 77
     2
 78
   300
148
-4581145.331816398
149
-2032857.995793477
  0
ACDBPLACEHOLDER
  5
5
102
{ACAD_REACTORS
330
6
102
}
330
6
  0
SCALE
  5
8C7
102
{ACAD_REACTORS
330
8C6
102
}
330
8C6
100
AcDbScale
 70
     0
300
1:1
140
1.0
141
1.0
290
     1
  0
SCALE
  5
8C8
102
{ACAD_REACTORS
330
8C6
102
}
330
8C6
100
AcDbScale
 70
     0
300
1:2
140
1.0
141
2.0
290
     0
  0
SCALE
  5
8C9
102
{ACAD_REACTORS
330
8C6
102
}
330
8C6
100
AcDbScale
 70
     0
300
1:4
140
1.0
141
4.0
290
     0
  0
SCALE
  5
8CA
102
{ACAD_REACTORS
330
8C6
102
}
330
8C6
100
AcDbScale
 70
     0
300
1:5
140
1.0
141
5.0
290
     0
  0
SCALE
  5
8CB
102
{ACAD_REACTORS
330
8C6
102
}
330
8C6
100
AcDbScale
 70
     0
300
1:8
140
1.0
141
8.0
290
     0
  0
SCALE
  5
8CC
102
{ACAD_REACTORS
330
8C6
102
}
330
8C6
100
AcDbScale
 70
     0
300
1:10
140
1.0
141
10.0
290
     0
  0
SCALE
  5
8CD
102
{ACAD_REACTORS
330
8C6
102
}
330
8C6
100
AcDbScale
 70
     0
300
1:16
140
1.0
141
16.0
290
     0
  0
SCALE
  5
8CE
102
{ACAD_REACTORS
330
8C6
102
}
330
8C6
100
AcDbScale
 70
     0
300
1:20
140
1.0
141
20.0
290
     0
  0
SCALE
  5
8CF
102
{ACAD_REACTORS
330
8C6
102
}
330
8C6
100
AcDbScale
 70
     0
300
1:30
140
1.0
141
30.0
290
     0
  0
SCALE
  5
8D0
102
{ACAD_REACTORS
330
8C6
102
}
330
8C6
100
AcDbScale
 70
     0
300
1:40
140
1.0
141
40.0
290
     0
  0
SCALE
  5
8D1
102
{ACAD_REACTORS
330
8C6
102
}
330
8C6
100
AcDbScale
 70
     0
300
1:50
140
1.0
141
50.0
290
     0
  0
SCALE
  5
8D2
102
{ACAD_REACTORS
330
8C6
102
}
330
8C6
100
AcDbScale
 70
     0
300
1:100
140
1.0
141
100.0
290
     0
  0
SCALE
  5
8D3
102
{ACAD_REACTORS
330
8C6
102
}
330
8C6
100
AcDbScale
 70
     0
300
2:1
140
2.0
141
1.0
290
     0
  0
SCALE
  5
8D4
102
{ACAD_REACTORS
330
8C6
102
}
330
8C6
100
AcDbScale
 70
     0
300
4:1
140
4.0
141
1.0
290
     0
  0
SCALE
  5
8D5
102
{ACAD_REACTORS
330
8C6
102
}
330
8C6
100
AcDbScale
 70
     0
300
8:1
140
8.0
141
1.0
290
     0
  0
SCALE
  5
8D6
102
{ACAD_REACTORS
330
8C6
102
}
330
8C6
100
AcDbScale
 70
     0
300
10:1
140
10.0
141
1.0
290
     0
  0
SCALE
  5
8D7
102
{ACAD_REACTORS
330
8C6
102
}
330
8C6
100
AcDbScale
 70
     0
300
100:1
140
100.0
141
1.0
290
     0
  0
SCALE
  5
8D8
102
{ACAD_REACTORS
330
8C6
102
}
330
8C6
100
AcDbScale
 70
     0
300
1/128" = 1'-0"
140
0.0078125
141
12.0
290
     0
  0
SCALE
  5
8D9
102
{ACAD_REACTORS
330
8C6
102
}
330
8C6
100
AcDbScale
 70
     0
300
1/64" = 1'-0"
140
0.015625
141
12.0
290
     0
  0
SCALE
  5
8DA
102
{ACAD_REACTORS
330
8C6
102
}
330
8C6
100
AcDbScale
 70
     0
300
1/32" = 1'-0"
140
0.03125
141
12.0
290
     0
  0
SCALE
  5
8DB
102
{ACAD_REACTORS
330
8C6
102
}
330
8C6
100
AcDbScale
 70
     0
300
1/16" = 1'-0"
140
0.0625
141
12.0
290
     0
  0
SCALE
  5
8DC
102
{ACAD_REACTORS
330
8C6
102
}
330
8C6
100
AcDbScale
 70
     0
300
3/32" = 1'-0"
140
0.09375
141
12.0
290
     0
  0
SCALE
  5
8DD
102
{ACAD_REACTORS
330
8C6
102
}
330
8C6
100
AcDbScale
 70
     0
300
1/8" = 1'-0"
140
0.125
141
12.0
290
     0
  0
SCALE
  5
8DE
102
{ACAD_REACTORS
330
8C6
102
}
330
8C6
100
AcDbScale
 70
     0
300
3/16" = 1'-0"
140
0.1875
141
12.0
290
     0
  0
SCALE
  5
8DF
102
{ACAD_REACTORS
330
8C6
102
}
330
8C6
100
AcDbScale
 70
     0
300
1/4" = 1'-0"
140
0.25
141
12.0
290
     0
  0
SCALE
  5
8E0
102
{ACAD_REACTORS
330
8C6
102
}
330
8C6
100
AcDbScale
 70
     0
300
3/8" = 1'-0"
140
0.375
141
12.0
290
     0
  0
SCALE
  5
8E1
102
{ACAD_REACTORS
330
8C6
102
}
330
8C6
100
AcDbScale
 70
     0
300
1/2" = 1'-0"
140
0.5
141
12.0
290
     0
  0
SCALE
  5
8E2
102
{ACAD_REACTORS
330
8C6
102
}
330
8C6
100
AcDbScale
 70
     0
300
3/4" = 1'-0"
140
0.75
141
12.0
290
     0
  0
SCALE
  5
8E3
102
{ACAD_REACTORS
330
8C6
102
}
330
8C6
100
AcDbScale
 70
     0
300
1" = 1'-0"
140
1.0
141
12.0
290
     0
  0
SCALE
  5
8E4
102
{ACAD_REACTORS
330
8C6
102
}
330
8C6
100
AcDbScale
 70
     0
300
1-1/2" = 1'-0"
140
1.5
141
12.0
290
     0
  0
SCALE
  5
8E5
102
{ACAD_REACTORS
330
8C6
102
}
330
8C6
100
AcDbScale
 70
     0
300
3" = 1'-0"
140
3.0
141
12.0
290
     0
  0
SCALE
  5
8E6
102
{ACAD_REACTORS
330
8C6
102
}
330
8C6
100
AcDbScale
 70
     0
300
6" = 1'-0"
140
6.0
141
12.0
290
     0
  0
SCALE
  5
8E7
102
{ACAD_REACTORS
330
8C6
102
}
330
8C6
100
AcDbScale
 70
     0
300
1'-0" = 1'-0"
140
12.0
141
12.0
290
     0
  0
TABLESTYLE
  5
8C5
102
{ACAD_XDICTIONARY
360
924
102
}
102
{ACAD_REACTORS
330
8C4
102
}
330
8C4
100
AcDbTableStyle
  3
Standard
 70
     0
 71
     0
 40
0.06
 41
0.06
280
     0
281
     0
  7
STANDARD
140
0.18
170
     2
 62
     0
 63
     7
283
     0
274
    -2
284
     1
 64
     0
275
    -2
285
     1
 65
     0
276
    -2
286
     1
 66
     0
277
    -2
287
     1
 67
     0
278
    -2
288
     1
 68
     0
279
    -2
289
     1
 69
     0
  7
STANDARD
140
0.25
170
     5
 62
     0
 63
     7
283
     0
274
    -2
284
     1
 64
     0
275
    -2
285
     1
 65
     0
276
    -2
286
     1
 66
     0
277
    -2
287
     1
 67
     0
278
    -2
288
     1
 68
     0
279
    -2
289
     1
 69
     0
  7
STANDARD
140
0.18
170
     5
 62
     0
 63
     7
283
     0
274
    -2
284
     1
 64
     0
275
    -2
285
     1
 65
     0
276
    -2
286
     1
 66
     0
277
    -2
287
     1
 67
     0
278
    -2
288
     1
 68
     0
279
    -2
289
     1
 69
     0
  0
VISUALSTYLE
  5
8B8
102
{ACAD_REACTORS
330
8B2
102
}
330
8B2
100
AcDbVisualStyle
  2
2dWireframe
 70
     4
 71
     0
 72
     2
 73
     0
 90
        0
 40
-0.6
 41
-30.0
 62
     5
 63
     7
421
 16777215
 74
     1
 91
        4
 64
     7
 65
   257
 75
     1
175
     1
 42
1.0
 92
        0
 66
   257
 43
1.0
 76
     1
 77
     6
 78
     2
 67
     7
 79
     5
170
     0
171
     0
290
     0
174
     0
 93
        1
 44
0.0
173
     0
291
     0
 45
0.0
1001
ACAD
1000
AcDbSavedByObjectVersion
1070
     0
  0
VISUALSTYLE
  5
8BA
102
{ACAD_REACTORS
330
8B2
102
}
330
8B2
100
AcDbVisualStyle
  2
3D Hidden
 70
     6
 71
     1
 72
     2
 73
     2
 90
        0
 40
-0.6
 41
-30.0
 62
     5
 63
     7
421
 16777215
 74
     2
 91
        2
 64
     7
 65
   257
 75
     2
175
     1
 42
40.0
 92
        0
 66
   257
 43
1.0
 76
     1
 77
     6
 78
     2
 67
     7
 79
     3
170
     0
171
     0
290
     0
174
     0
 93
        1
 44
0.0
173
     0
291
     0
 45
0.0
1001
ACAD
1000
AcDbSavedByObjectVersion
1070
     0
  0
VISUALSTYLE
  5
8B9
102
{ACAD_REACTORS
330
8B2
102
}
330
8B2
100
AcDbVisualStyle
  2
3dWireframe
 70
     5
 71
     0
 72
     2
 73
     0
 90
        0
 40
-0.6
 41
-30.0
 62
     5
 63
     7
421
 16777215
 74
     1
 91
        4
 64
     7
 65
   257
 75
     1
175
     1
 42
1.0
 92
        0
 66
   257
 43
1.0
 76
     1
 77
     6
 78
     2
 67
     7
 79
     5
170
     0
171
     0
290
     0
174
     0
 93
        1
 44
0.0
173
     0
291
     0
 45
0.0
1001
ACAD
1000
AcDbSavedByObjectVersion
1070
     0
  0
VISUALSTYLE
  5
8B7
102
{ACAD_REACTORS
330
8B2
102
}
330
8B2
100
AcDbVisualStyle
  2
Basic
 70
     7
 71
     1
 72
     0
 73
     1
 90
        0
 40
-0.6
 41
-30.0
 62
     5
 63
     7
421
 16777215
 74
     0
 91
        4
 64
     7
 65
   257
 75
     1
175
     1
 42
1.0
 92
        8
 66
     7
 43
1.0
 76
     1
 77
     6
 78
     2
 67
     7
 79
     5
170
     0
171
     0
290
     0
174
     0
 93
        1
 44
0.0
173
     0
291
     1
 45
0.0
1001
ACAD
1000
AcDbSavedByObjectVersion
1070
     0
  0
VISUALSTYLE
  5
8BE
102
{ACAD_REACTORS
330
8B2
102
}
330
8B2
100
AcDbVisualStyle
  2
Brighten
 70
    12
 71
     2
 72
     2
 73
     0
 90
        0
 40
-0.6
 41
-30.0
 62
     5
 63
     7
421
 16777215
 74
     1
 91
        4
 64
     7
 65
   257
 75
     1
175
     1
 42
1.0
 92
        8
 66
     7
 43
1.0
 76
     1
 77
     6
 78
     2
 67
     7
 79
     5
170
     0
171
     0
290
     0
174
     0
 93
        1
 44
50.0
173
     0
291
     1
 45
0.0
1001
ACAD
1000
AcDbSavedByObjectVersion
1070
     0
  0
VISUALSTYLE
  5
8C2
102
{ACAD_REACTORS
330
8B2
102
}
330
8B2
100
AcDbVisualStyle
  2
ColorChange
 70
    16
 71
     2
 72
     2
 73
     3
 90
        0
 40
-0.6
 41
-30.0
 62
     5
 63
     8
421
  8421504
 74
     1
 91
        4
 64
     7
 65
   257
 75
     1
175
     1
 42
1.0
 92
        8
 66
     8
424
  8421504
 43
1.0
 76
     1
 77
     6
 78
     2
 67
     7
 79
     5
170
     0
171
     0
290
     0
174
     0
 93
        1
 44
0.0
173
     0
291
     1
 45
0.0
1001
ACAD
1000
AcDbSavedByObjectVersion
1070
     0
  0
VISUALSTYLE
  5
8BB
102
{ACAD_REACTORS
330
8B2
102
}
330
8B2
100
AcDbVisualStyle
  2
Conceptual
 70
     9
 71
     3
 72
     2
 73
     0
 90
        0
 40
-0.6
 41
-30.0
 62
     5
 63
     7
421
 16777215
 74
     2
 91
        2
 64
     7
 65
   257
 75
     1
175
     1
 42
40.0
 92
        8
 66
     7
 43
1.0
 76
     1
 77
     6
 78
     2
 67
     7
 79
     3
170
     0
171
     0
290
     0
174
     0
 93
        1
 44
0.0
173
     0
291
     0
 45
0.0
1001
ACAD
1000
AcDbSavedByObjectVersion
1070
     0
  0
VISUALSTYLE
  5
8BD
102
{ACAD_REACTORS
330
8B2
102
}
330
8B2
100
AcDbVisualStyle
  2
Dim
 70
    11
 71
     2
 72
     2
 73
     0
 90
        0
 40
-0.6
 41
-30.0
 62
     5
 63
     7
421
 16777215
 74
     1
 91
        4
 64
     7
 65
   257
 75
     1
175
     1
 42
1.0
 92
        8
 66
     7
 43
1.0
 76
     1
 77
     6
 78
     2
 67
     7
 79
     5
170
     0
171
     0
290
     0
174
     0
 93
        1
 44
-50.0
173
     0
291
     1
 45
0.0
1001
ACAD
1000
AcDbSavedByObjectVersion
1070
     0
  0
VISUALSTYLE
  5
8C1
102
{ACAD_REACTORS
330
8B2
102
}
330
8B2
100
AcDbVisualStyle
  2
Facepattern
 70
    15
 71
     2
 72
     2
 73
     0
 90
        0
 40
-0.6
 41
-30.0
 62
     5
 63
     7
421
 16777215
 74
     1
 91
        4
 64
     7
 65
   257
 75
     1
175
     1
 42
1.0
 92
        8
 66
     7
 43
1.0
 76
     1
 77
     6
 78
     2
 67
     7
 79
     5
170
     0
171
     0
290
     0
174
     0
 93
        1
 44
0.0
173
     0
291
     1
 45
0.0
1001
ACAD
1000
AcDbSavedByObjectVersion
1070
     0
  0
VISUALSTYLE
  5
8B3
102
{ACAD_REACTORS
330
8B2
102
}
330
8B2
100
AcDbVisualStyle
  2
Flat
 70
     0
 71
     2
 72
     1
 73
     1
 90
        2
 40
-0.6
 41
30.0
 62
     5
 63
     7
421
 16777215
 74
     0
 91
        4
 64
     7
 65
   257
 75
     1
175
     1
 42
1.0
 92
        8
 66
     7
 43
1.0
 76
     1
 77
     6
 78
     2
 67
     7
 79
     5
170
     0
171
     0
290
     0
174
     0
 93
       13
 44
0.0
173
     0
291
     1
 45
0.0
1001
ACAD
1000
AcDbSavedByObjectVersion
1070
     0
  0
VISUALSTYLE
  5
8B4
102
{ACAD_REACTORS
330
8B2
102
}
330
8B2
100
AcDbVisualStyle
  2
FlatWithEdges
 70
     1
 71
     2
 72
     1
 73
     1
 90
        2
 40
-0.6
 41
30.0
 62
     5
 63
     7
421
 16777215
 74
     1
 91
        4
 64
     7
 65
   257
 75
     1
175
     1
 42
1.0
 92
        0
 66
   257
 43
1.0
 76
     1
 77
     6
 78
     2
 67
     7
 79
     5
170
     0
171
     0
290
     0
174
     0
 93
       13
 44
0.0
173
     0
291
     1
 45
0.0
1001
ACAD
1000
AcDbSavedByObjectVersion
1070
     0
  0
VISUALSTYLE
  5
8B5
102
{ACAD_REACTORS
330
8B2
102
}
330
8B2
100
AcDbVisualStyle
  2
Gouraud
 70
     2
 71
     2
 72
     2
 73
     1
 90
        2
 40
-0.6
 41
30.0
 62
     5
 63
     7
421
 16777215
 74
     0
 91
        4
 64
     7
 65
   257
 75
     1
175
     1
 42
1.0
 92
        0
 66
     7
 43
1.0
 76
     1
 77
     6
 78
     2
 67
     7
 79
     5
170
     0
171
     0
290
     0
174
     0
 93
       13
 44
0.0
173
     0
291
     1
 45
0.0
1001
ACAD
1000
AcDbSavedByObjectVersion
1070
     0
  0
VISUALSTYLE
  5
8B6
102
{ACAD_REACTORS
330
8B2
102
}
330
8B2
100
AcDbVisualStyle
  2
GouraudWithEdges
 70
     3
 71
     2
 72
     2
 73
     1
 90
        2
 40
-0.6
 41
30.0
 62
     5
 63
     7
421
 16777215
 74
     1
 91
        4
 64
     7
 65
   257
 75
     1
175
     1
 42
1.0
 92
        0
 66
   257
 43
1.0
 76
     1
 77
     6
 78
     2
 67
     7
 79
     5
170
     0
171
     0
290
     0
174
     0
 93
       13
 44
0.0
173
     0
291
     1
 45
0.0
1001
ACAD
1000
AcDbSavedByObjectVersion
1070
     0
  0
VISUALSTYLE
  5
8C0
102
{ACAD_REACTORS
330
8B2
102
}
330
8B2
100
AcDbVisualStyle
  2
Linepattern
 70
    14
 71
     2
 72
     2
 73
     0
 90
        0
 40
-0.6
 41
-30.0
 62
     5
 63
     7
421
 16777215
 74
     1
 91
        4
 64
     7
 65
   257
 75
     7
175
     7
 42
1.0
 92
        8
 66
     7
 43
1.0
 76
     1
 77
     6
 78
     2
 67
     7
 79
     5
170
     0
171
     0
290
     0
174
     0
 93
        1
 44
0.0
173
     0
291
     1
 45
0.0
1001
ACAD
1000
AcDbSavedByObjectVersion
1070
     0
  0
VISUALSTYLE
  5
8BC
102
{ACAD_REACTORS
330
8B2
102
}
330
8B2
100
AcDbVisualStyle
  2
Realistic
 70
     8
 71
     2
 72
     2
 73
     0
 90
        0
 40
-0.6
 41
-30.0
 62
     5
 63
     7
421
 16777215
 74
     1
 91
        0
 64
     7
 65
   257
 75
     1
175
     1
 42
1.0
 92
        8
 66
     8
424
  7895160
 43
1.0
 76
     1
 77
     6
 78
     2
 67
     7
 79
     5
170
     0
171
     0
290
     0
174
     0
 93
       13
 44
0.0
173
     0
291
     0
 45
0.0
1001
ACAD
1000
AcDbSavedByObjectVersion
1070
     0
  0
VISUALSTYLE
  5
8BF
102
{ACAD_REACTORS
330
8B2
102
}
330
8B2
100
AcDbVisualStyle
  2
Thicken
 70
    13
 71
     2
 72
     2
 73
     0
 90
        0
 40
-0.6
 41
-30.0
 62
     5
 63
     7
421
 16777215
 74
     1
 91
        4
 64
     7
 65
   257
 75
     1
175
     1
 42
1.0
 92
       12
 66
     7
 43
1.0
 76
     1
 77
     6
 78
     2
 67
     7
 79
     5
170
     0
171
     0
290
     0
174
     0
 93
        1
 44
0.0
173
     0
291
     1
 45
0.0
1001
ACAD
1000
AcDbSavedByObjectVersion
1070
     0
  0
DICTIONARYVAR
  5
92A
102
{ACAD_REACTORS
330
32
102
}
330
32
100
DictionaryVariables
280
     0
  1
1:1
  0
DICTIONARYVAR
  5
928
102
{ACAD_REACTORS
330
32
102
}
330
32
100
DictionaryVariables
280
     0
  1
STANDARD
  0
DICTIONARYVAR
  5
927
102
{ACAD_REACTORS
330
32
102
}
330
32
100
DictionaryVariables
280
     0
  1
STANDARD
  0
DICTIONARYVAR
  5
34
102
{ACAD_REACTORS
330
32
102
}
330
32
100
DictionaryVariables
280
     0
  1
1
  0
DICTIONARYVAR
  5
33
102
{ACAD_REACTORS
330
32
102
}
330
32
100
DictionaryVariables
280
     0
  1
1
  0
DICTIONARYVAR
  5
9FA
102
{ACAD_REACTORS
330
32
102
}
330
32
100
DictionaryVariables
280
     0
  1
0
  0
DICTIONARYVAR
  5
92C
102
{ACAD_REACTORS
330
32
102
}
330
32
100
DictionaryVariables
280
     0
  1
15
  0
DICTIONARYVAR
  5
92B
102
{ACAD_REACTORS
330
32
102
}
330
32
100
DictionaryVariables
280
     0
  1
0
  0
DICTIONARYVAR
  5
929
102
{ACAD_REACTORS
330
32
102
}
330
32
100
DictionaryVariables
280
     0
  1
0
  0
DICTIONARYVAR
  5
816
102
{ACAD_REACTORS
330
32
102
}
330
32
100
DictionaryVariables
280
     0
  1
1
  0
DICTIONARYVAR
  5
96C
102
{ACAD_REACTORS
330
32
102
}
330
32
100
DictionaryVariables
280
     0
  1
0
  0
XRECORD
  5
9E3
102
{ACAD_REACTORS
330
9E0
102
}
330
9E0
100
AcDbXrecord
280
     1
  1
_0100-
  1
*0100-*
  1
*
  1
*
 70
     0
  1
*
  1
*
  0
XRECORD
  5
9E2
102
{ACAD_REACTORS
330
9E0
102
}
330
9E0
100
AcDbXrecord
280
     1
  1
_0280-
  1
*0280-*
  1
*
  1
*
 70
     0
  1
*
  1
*
  0
XRECORD
  5
9E5
102
{ACAD_REACTORS
330
9E0
102
}
330
9E0
100
AcDbXrecord
280
     1
  1
_Add Alternate
  1
*add*alt*
  1
*
  1
*
 70
     0
  1
*
  1
*
  0
XRECORD
  5
9E6
102
{ACAD_REACTORS
330
9E0
102
}
330
9E0
100
AcDbXrecord
280
     1
  1
_Bid Alternate
  1
*bid*alt*
  1
*
  1
*
 70
     0
  1
*
  1
*
  0
XRECORD
  5
9E8
102
{ACAD_REACTORS
330
9E0
102
}
330
9E0
100
AcDbXrecord
280
     1
  1
_Color 253
  1
*
  1
253
  1
*
 70
     0
  1
*
  1
*
  0
XRECORD
  5
9E4
102
{ACAD_REACTORS
330
9E0
102
}
330
9E0
100
AcDbXrecord
280
     1
  1
_Color 8
  1
*
  1
8
  1
*
 70
     0
  1
*
  1
*
  0
XRECORD
  5
9E7
102
{ACAD_REACTORS
330
9E0
102
}
330
9E0
100
AcDbXrecord
280
     1
  1
_Color 84
  1
*
  1
84
  1
*
 70
     0
  1
*
  1
*
  0
XRECORD
  5
9EE
102
{ACAD_REACTORS
330
9E0
102
}
330
9E0
100
AcDbXrecord
280
     1
  1
_Contours
  1
*contour*,*cont-*,*cp cont*,*p-cont*
  1
*
  1
*
 70
     0
  1
*
  1
*
  0
XRECORD
  5
9E9
102
{ACAD_REACTORS
330
9E0
102
}
330
9E0
100
AcDbXrecord
280
     1
  1
_Demo
  1
*demo*
  1
*
  1
*
 70
     0
  1
*
  1
*
  0
XRECORD
  5
9EA
102
{ACAD_REACTORS
330
9E0
102
}
330
9E0
100
AcDbXrecord
280
     1
  1
_Existing
  1
*exist*,*ex*
  1
*
  1
*
 70
     0
  1
*
  1
*
  0
XRECORD
  5
9ED
102
{ACAD_REACTORS
330
9E0
102
}
330
9E0
100
AcDbXrecord
280
     1
  1
_Hardscape
  1
*sidewalk*,*sw*,*curb*,*walk*,*-lip*,*tbc*
  1
*
  1
*
 70
     0
  1
*
  1
*
  0
XRECORD
  5
9E1
102
{ACAD_REACTORS
330
9E0
102
}
330
9E0
100
AcDbXrecord
280
     1
  1
_NoXref
  1
~*|*
  1
*
  1
*
 70
     0
  1
*
  1
*
  0
XRECORD
  5
9EB
102
{ACAD_REACTORS
330
9E0
102
}
330
9E0
100
AcDbXrecord
280
     1
  1
_Row
  1
*row*
  1
*
  1
*
 70
     0
  1
*
  1
*
  0
XRECORD
  5
9EC
102
{ACAD_REACTORS
330
9E0
102
}
330
9E0
100
AcDbXrecord
280
     1
  1
_Utility
  1
*ut-*,*utility*,*wat*
  1
*
  1
*
 70
     0
  1
*
  1
*
  0
DICTIONARY
  5
921
330
F
100
AcDbDictionary
280
     1
281
     1
  3
ADSK_XREC_LAYOUTTHUMBNAIL
360
922
  0
DICTIONARY
  5
8A3
330
8A2
100
AcDbDictionary
280
     1
281
     1
  3
ACAD_XREC_ROUNDTRIP
360
A06
  3
BUMPTILE
360
8A5
  3
DIFFUSETILE
360
8A4
  3
OPACITYTILE
360
8A8
  3
REFLECTIONTILE
360
8A7
  3
REFRACTIONTILE
360
8A9
  3
SPECULARTILE
360
8A6
  0
DICTIONARY
  5
89B
330
89A
100
AcDbDictionary
280
     1
281
     1
  3
ACAD_XREC_ROUNDTRIP
360
A05
  3
BUMPTILE
360
89D
  3
DIFFUSETILE
360
89C
  3
OPACITYTILE
360
8A0
  3
REFLECTIONTILE
360
89F
  3
REFRACTIONTILE
360
8A1
  3
SPECULARTILE
360
89E
  0
DICTIONARY
  5
8AB
330
8AA
100
AcDbDictionary
280
     1
281
     1
  3
ACAD_XREC_ROUNDTRIP
360
A07
  3
BUMPTILE
360
8AD
  3
DIFFUSETILE
360
8AC
  3
OPACITYTILE
360
8B0
  3
REFLECTIONTILE
360
8AF
  3
REFRACTIONTILE
360
8B1
  3
SPECULARTILE
360
8AE
  0
DICTIONARY
  5
924
330
8C5
100
AcDbDictionary
280
     1
281
     1
  3
ACAD_ROUNDTRIP_2008_TABLESTYLE_CELLSTYLEMAP
360
A02
  3
ACAD_XREC_ROUNDTRIP
360
A08
  0
XRECORD
  5
922
102
{ACAD_REACTORS
330
921
102
}
330
921
100
AcDbXrecord
280
     1
310
2800000000010000C0000000010008000000000000C0000000000000000000000001000000000000FFFFFF0000000000FFFFFF000000000000000000000000000000000000000000000000000000000000000000330000006600000099000000CC000000FF00000000330000333300006633000099330000CC330000FF3300
310
0000660000336600006666000099660000CC660000FF66000000990000339900006699000099990000CC990000FF99000000CC000033CC000066CC000099CC0000CCCC0000FFCC000000FF000033FF000066FF000099FF0000CCFF0000FFFF000000003300330033006600330099003300CC003300FF003300003333003333
310
33006633330099333300CC333300FF33330000663300336633006666330099663300CC663300FF66330000993300339933006699330099993300CC993300FF99330000CC330033CC330066CC330099CC3300CCCC3300FFCC330000FF330033FF330066FF330099FF3300CCFF3300FFFF330000006600330066006600660099
310
006600CC006600FF00660000336600333366006633660099336600CC336600FF33660000666600336666006666660099666600CC666600FF66660000996600339966006699660099996600CC996600FF99660000CC660033CC660066CC660099CC6600CCCC6600FFCC660000FF660033FF660066FF660099FF6600CCFF6600
310
FFFF660000009900330099006600990099009900CC009900FF00990000339900333399006633990099339900CC339900FF33990000669900336699006666990099669900CC669900FF66990000999900339999006699990099999900CC999900FF99990000CC990033CC990066CC990099CC9900CCCC9900FFCC990000FF99
310
0033FF990066FF990099FF9900CCFF9900FFFF99000000CC003300CC006600CC009900CC00CC00CC00FF00CC000033CC003333CC006633CC009933CC00CC33CC00FF33CC000066CC003366CC006666CC009966CC00CC66CC00FF66CC000099CC003399CC006699CC009999CC00CC99CC00FF99CC0000CCCC0033CCCC0066CC
310
CC0099CCCC00CCCCCC00FFCCCC0000FFCC0033FFCC0066FFCC0099FFCC00CCFFCC00FFFFCC000000FF003300FF006600FF009900FF00CC00FF00FF00FF000033FF003333FF006633FF009933FF00CC33FF00FF33FF000066FF003366FF006666FF009966FF00CC66FF00FF66FF000099FF003399FF006699FF009999FF00CC
310
99FF00FF99FF0000CCFF0033CCFF0066CCFF0099CCFF00CCCCFF00FFCCFF0000FFFF0033FFFF0066FFFF0099FFFF00CCFFFF00FFFFFF00000000000D0D0D001A1A1A00282828003535350043434300505050005D5D5D006B6B6B00787878008686860093939300A1A1A100AEAEAE00BBBBBB00C9C9C900D6D6D600E4E4E400
310
F1F1F100FFFFFF0000000000000000000000000000000000000000000000000000000000000000000000000000000000F5F5F5F5F5F5F5F5F5F5F5F5F5F5F5F5F5F5F5F5F5F5F5F5F5F5F5F5F5F5F5F5F5F5F5F5F5F5F5F5F5F5F5F5F5F5F5F5F5F5F5F5F5F5F5F5F5F5F5F5F5F5F5F5F5F5F5F5F5F5F5F5F5F5F5F5F5F5F5
310
F5F5F5F5F5F5F5F5F5F5F5F5F5F5F5F5F5F5F5F5F5F5F5F5F5F5F5F5F5F5F5F5F5F5F5F5F5F5F5F5F5F5F5F5F5F5F5F5F5F5F5F5F5F5F5F5F5F5F5F5F5F5F5F5F5F5F5F5F5F5F5F5F5F5F5F5F5F5F5F5F5F5F5F5F5F5F5F5F5F5F5F5F5F5F5F5F5F5F5F5F5F5F5F5F5F5F5F5F5F5F5F5F5F5F5F5F5F5F5F5F5F5F5F5F5F5F5
310
F5F5F5F5F5F5F5F5F5F5F5F5F5F5F5F5F5F5F5F5F5F5F5F5F5F5F5F5F5F5F5F5F5F5F5F5F5F5F5F5F5F5F5F5F5F5F5F5F5F5F5F5F5F5F5F5F5F5F5F5F5F5F5F5F5F5F5F5F5F5F5F5F5F5F5F5F5F5F5F5F5F5F5F5F5F5F5F5F5F5F5F5F5F5F5F5F5F5F5F5F5F5F5F5F5F5F5F5F5F5F5F5F5F5F5F5F5F5F5F5F5F5F5F5F5F5F5
310
F5F5F5F5F5F5F5F5F5F5F5F5F5F5F5F5F5F5F5F5F5F5F5F5F5F5F5F5F5F5F5F5F5F5F5F5F5F5F5F5F5F5F5F5F5F5F5F5F5F5F5F5F5F5F5F5F5F5F5F5F5F5F5F5F5F5F5F5F5F5F5F5F5F5F5F5F5F5F5F5F5F5F5F5F5F5F5F5F5F5F5F5F5F5F5F5F5F5F5F5F5F5F5F5F5F5F5F5F5F5F5F5F5F5F5F5F5F5F5F5F5F5F5F5F5F5F5
310
F5F5F5F5F5F5F5F5F5F5F5F5F5F5F5F5F5F5F5F5F5F5F5F5F5F5F5F5F5F5F5F5F5F5F5F5F5F5F5F5F5F5F5F5F5F5F5F5F5F5F5F5F5F5F5F5F5F5F5F5F5F5F5F5F5F5F5F5F5F5F5F5F5F5F5F5F5F5F5F5F5F5F5F5F5F5F5F5F5F5F5F5F5F5F5F5F5F5F5F5F5F5F5F5F5F5F5F5F5F5F5F5F5F5F5F5F5F5F5F5F5F5F5F5F5F5F5
310
F5F5F5F5F5F5F5F5F5F5F5F5F5F5F5F5F5F5F5F5F5F5F5F5F5F5F5F5F5F5F5F5F5F5F5F5F5F5F5F5F5F5F5F5F5F5F5F5F5F5F5F5F5F5F5F5F5F5F5F5F5F5F5F5F5F5F5F5F5F5F5F5F5F5F5F5F5F5F5F5F5F5F5F5F5F5F5F5F5F5F5F5F5F5F5F5F5F5F5F5F5F5F5F5F5F5F5F5F5F5F5F5F5F5F5F5F5F5F5F5F5F5F5F5F5F5F5
310
F5F5F5F5F5F5F5F5F5F5F5F5F5F5F5F5F5F5F5F5F5F5F5F5F5F5F5F5F5F5F5F5F5F5F5F5F5F5F5F5F5F5F5F5F5F5F5F5F5F5F5F5F5F5F5F5F5F5F5F5F5F5F5F5F5F5F5F5F5F5F5F5F5F5F5F5F5F5F5F5F5F5F5F5F5F5F5F5F5F5F5F5F5F5F5F5F5F5F5F5F5F5F5F5F5F5F5F5F5F5F5F5F5F5F5F5F5F5F5F5F5F5F5F5F5F5F5
310
F5F5F5F5F5F5F5F5F5F5F5F5F5F5F5F5F5F5F5F5F5F5F5F5F5F5F5F5F5F5F5F5F5F5F5F5F5F5F5F5F5F5F5F5F5F5F5F5F5F5F5F5F5F5F5F5F5F5F5F5F5F5F5F5F5F5F5F5F5F5F5F5F5F5F5F5F5F5F5F5F5F5F5F5F5F5F5F5F5F5F5F5F5F5F5F5F5F5F5F5F5F5F5F5F5F5F5F5F5F5F5F5F5F5F5F5F5F5F5F5F5F5F5F5F5F5F5
310
F5F5F5F5F5F5F5F5F5F5F5F5F5F5F5F5F5F5F5F5F5F5F5F5F5F5F5F5F5F5F5F5F5F5F5F5F5F5F5F5F5F5F5F5F5F5F5F5F5F5F5F5F5F5F5F5F5F5F5F5F5F5F5F5F5F5F5F5F5F5F5F5F5F5F5F5F5F5F5F5F5F5F5F5F5F5F5F5F5F5F5F5F5F5F5F5F5F5F5F5F5F5F5F5F5F5F5F5F5F5F5F5F5F5F5F5F5F5F5F5F5F5F5F5F5F5F5
310
F5F5F5F5F5F5F5F5F5F5F5F5F5F5F5F5F5F5F5F5F5F5F5F5F5F5F5F5F5F5F5F5F5F5F5F5F5F5F5F5F5F5F5F5F5F5F5F5F5F5F5F5F5F5F5F5F5F5F5F5F5F5F5F5F5F5F5F5F5F5F5F5F5F5F5F5F5F5F5F5F5F5F5F5F5F5F5F5F5F5F5F5F5F5F5F5F5F5F5F5F5F5F5F5F5F5F5F5F5F5F5F5F5F5F5F5F5F5F5F5F5F5F5F5F5F5F5
310
F5F5F5F5F5F5F5F5F5F5F5F5F5F5F5F5F5F5F5F5F5F5F5F5F5F5F5F5F5F5F5F5F5F5F5F5F5F5F5F5F5F5F5F5F5F5F5F5F5F5F5F5F5F5F5F5F5F5F5F5F5F5F5F5F5F5F5F5F5F5F5F5F5F5F5F5F5F5F5F5F5F5F5F5F5F5F5F5F5F5F5F5F5F5F5F5F5F5F5F5F5F5F5F5F5F5F5F5F5F5F5F5F5F5F5F5F5F5F5F5F5F5F5F5F5F5F5
310
F5F5F5F5F5F5F5F5F5F5F5F5F5F5F5F5F5F5F5F5F5F5F5F5F5F5F5F5F5F5F5F5F5F5F5F5F5F5F5F5F5F5F5F5F5F5F5F5F5F5F5F5F5F5F5F5F5F5F5F5F5F5F5F5F5F5F5F5F5F5F5F5F5F5F5F5F5F5F5F5F5F5F5F5F5F5F5F5F5F5F5F5F5F5F5F5F5F5F5F5F5F5F5F5F5F5F5F5F5F5F5F5F5F5F5F5F5F5F5F5F5F5F5F5F5F5F5
310
F5F5F5F5F5F5F5F5F5F5F5F5F5F5F5F5F5F5F5F5F5F5F5F5F5F5F5F5F5F5F5F5F5F5F5F5F5F5F5F5F5F5F5F5F5F5F5F5F5F5F5F5F5F5F5F5F5F5F5F5F5F5F5F5F5F5F5F5F5F5F5F5F5F5F5F5F5F5F5F5F5F5F5F5F5F5F5F5F5F5F5F5F5F5F5F5F5F5F5F5F5F5F5F5F5F5F5F5F5F5F5F5F5F5F5F5F5F5F5F5F5F5F5F5F5F5F5
310
F5F5F5F5F5F5F5F5F5F5F5F5F5F5F5F5F5F5F5F5F5F5F5F5F5F5F5F5F5F5F5F5F5F5F5F5F5F5F5F5F5F5F5F5F5F5F5F5F5F5F5F5F5F5F5F5F5F5F5F5F5F5F5F5F5F5F5F5F5F5F5F5F5F5F5F5F5F5F5F5F5F5F5F5F5F5F5F5F5F5F5F5F5F5F5F5F5F5F5F5F5F5F5F5F5F5F5F5F5F5F5F5F5F5F5F5F5F5F5F5F5F5F5F5F5F5F5
310
F5F5F5F5F5F5F5F5F5F5F5F5F5F5F5F5F5F5F5F5F5F5F5F5F5F5F5F5F5F5F5F5F5F5F5F5F5F5F5F5F5F5F5F5F5F5F5F5F5F5F5F5F5F5F5F5F5F5F5F5F5F5F5F5F5F5F5F5F5F5F5F5F5F5F5F5F5F5F5F5F5F5F5F5F5F5F5F5F5F5F5F5F5F5F5F5F5F5F5F5F5F5F5F5F5F5F5F5F5F5F5F5F5F5F5F5F5F5F5F5F5F5F5F5F5F5F5
310
F5F5F5F5F5F5F5F5F5F5F5F5F5F5F5F5F5F5F5F5F5F5F5F5F5F5F5F5F5F5F5F5F5F5F5F5F5F5F5F5F5F5F5F5F5F5F5F5F5F5F5F5F5F5F5F5F5F5F5F5F5F5F5F5F5F5F5F5F5F5F5F5F5F5F5F5F5F5F5F5F5F5F5F5F5F5F5F5F5F5F5F5F5F5F5F5F5F5F5F5F5F5F5F5F5F5F5F5F5F5F5F5F5F5F5F5F5F5F5F5F5F5F5F5F5F5F5
310
F5F5F5F5F5F5F5F5F5F5F5F5F5F5F5F5F5F5F5F5F5F5F5F5F5F5F5F5F5F5F5F5F5F5F5F5F5F5F5F5F5F5F5F5F5F5F5F5F5F5F5F5F5F5F5F5F5F5F5F5F5F5F5F5F5F5F5F5F5F5F5F5F5F5F5F5F5F5F5F5F5F5F5F5F5F5F5F5F5F5F5F5F5F5F5F5F5F5F5F5F5F5F5F5F5F5F5F5F5F5F5F5F5F5F5F5F5F5F5F5F5F5F5F5F5F5F5
310
F5F5F5F5F5F5F5F5F5F5F5F5F5F5F5F5F5F5F5F5F5F5F5F5F5F5F5F5F5F5F5F5F5F5F5F5F5F5F5F5F5F5F5F5F5F5F5F5F5F5F5F5F5F5F5F5F5F5F5F5F5F5F5F5F5F5F5F5F5F5F5F5F5F5F5F5F5F5F5F5F5F5F5F5F5F5F5F5F5F5F5F5F5F5F5F5F5F5F5F5F5F5F5F5F5F5F5F5F5F5F5F5F5F5F5F5F5F5F5F5F5F5F5F5F5F5F5
310
F5F5F5F5F5F5F5F5F5F5F5F5F5F5F5F5F5F5F5F5F5F5F5F5F5F5F5F5F5F5F5F5F5F5F5F5F5F5F5F5F5F5F5F5F5F5F5F5F5F5F5F5F5F5F5F5F5F5F5F5F5F5F5F5F5F5F5F5F5F5F5F5F5F5F5F5F5F5F5F5F5F5F5F5F5F5F5F5F5F5F5F5F5F5F5F5F5F5F5F5F5F5F5F5F5F5F5F5F5F5F5F5F5F5F5F5F5F5F5F5F5F5F5F5F5F5F5
310
F5F5F5F5F5F5F5F5F5F5F5F5F5F5F5F5F5F5F5F5F5F5F5F5F5F5F5F5F5F5F5F5F5F5F5F5F5F5F5F5F5F5F5F5F5F5F5F5F5F5F5F5F5F5F5F5F5F5F5F5F5F5F5F5F5F5F5F5F5F5F5F5F5F5F5F5F5F5F5F5F5F5F5F5F5F5F5F5F5F5F5F5F5F5F5F5F5F5F5F5F5F5F5F5F5F5F5F5F5F5F5F5F5F5F5F5F5F5F5F5F5F5F5F5F5F5F5
310
F5F5F5F5F5F5F5F5F5F5F5F5F5F5F5F5F5F5F5F5F5F5F5F5F5F5F5F5F5F5F5F5F5F5F5F5F5F5F5F5F5F5F5F5F5F5F5F5F5F5F5F5F5F5F5F5F5F5F5F5F5F5F5F5F5F5F5F5F5F5F5F5F5F5F5F5F5F5F5F5F5F5F5F5F5F5F5F5F5F5F5F5F5F5F5F5F5F5F5F5F5F5F5F5F5F5F5F5F5F5F5F5F5F5F5F5F5F5F5F5F5F5F5F5F5F5F5
310
F5F5F5F5F5F5F5F5F5F5F5F5F5F5F5F5F5F5F5F5F5F5F5F5F5F5F5F5F5F5F5F5F5F5F5F5F5F5F5F5F5F5F5F5F5F5F5F5F5F5F5F5F5F5F5F5F5F5F5F5F5F5F5F5F5F5F5F5F5F5F5F5F5F5F5F5F5F5F5F5F5F5F5F5F5F5F5F5F5F5F5F5F5F5F5F5F5F5F5F5F5F5F5F5F5F5F5F5F5F5F5F5F5F5F5F5F5F5F5F5F5F5F5F5F5F5F5
310
F5F5F5F5F5F5F5F5F5F5F5F5F5F5F5F5F5F5F5F5F5F5F5F5F5F5F5F5F5F5F5F5F5F5F5F5F5F5F5F5F5F5F5F5F5F5F5F5F5F5F5F5F5F5F5F5F5F5F5F5F5F5F5F5F5F5F5F5F5F5F5F5F5F5F5F5F5F5F5F5F5F5F5F5F5F5F5F5F5F5F5F5F5F5F5F5F5F5F5F5F5F5F5F5F5F5F5F5F5F5F5F5F5F5F5F5F5F5F5F5F5F5F5F5F5F5F5
310
F5F5F5F5F5F5F5F5F5F5F5F5F5F5F5F5F5F5F5F5F5F5F5F5F5F5F5F5F5F5F5F5F5F5F5F5F5F5F5F5F5F5F5F5F5F5F5F5F5F5F5F5F5F5F5F5F5F5F5F5F5F5F5F5F5F5F5F5F5F5F5F5F5F5F5F5F5F5F5F5F5F5F5F5F5F5F5F5F5F5F5F5F5F5F5F5F5F5F5F5F5F5F5F5F5F5F5F5F5F5F5F5F5F5F5F5F5F5F5F5F5F5F5F5F5F5F5
310
F5F5F5F5F5F5F5F5F5F5F5F5F5F5F5F5F5F5F5F5F5F5F5F5F5F5F5F5F5F5F5F5F5F5F5F5F5F5F5F5F5F5F5F5F5F5F5F5F5F5F5F5F5F5F5F5F5F5F5F5F5F5F5F5F5F5F5F5F5F5F5F5F5F5F5F5F5F5F5F5F5F5F5F5F5F5F5F5F5F5F5F5F5F5F5F5F5F5F5F5F5F5F5F5F5F5F5F5F5F5F5F5F5F5F5F5F5F5F5F5F5F5F5F5F5F5F5
310
F5F5F5F5F5F5F5F5F5F5F5F5F5F5F5F5F5F5F5F5F5F5F5F5F5F5F5F5F5F5F5F5F5F5F5F5F5F5F5F5F5F5F5F5F5F5F5F5F5F5F5F5F5F5F5F5F5F5F5F5F5F5F5F5F5F5F5F5F5F5F5F5F5F5F5F5F5F5F5F5F5F5F5F5F5F5F5F5F5F5F5F5F5F5F5F5F5F5F5F5F5F5F5F5F5F5F5F5F5F5F5F5F5F5F5F5F5F5F5F5F5F5F5F5F5F5F5
310
F5F5F5F5F5F5F5F5F5F5F5F5F5F5F5F5F5F5F5F5F5F5F5F5F5F5F5F5F5F5F5F5F5F5F5F5F5F5F5F5F5F5F5F5F5F5F5F5F5F5F5F5F5F5F5F5F5F5F5F5F5F5F5F5F5F5F5F5F5F5F5F5F5F5F5F5F5F5F5F5F5F5F5F5F5F5F5F5F5F5F5F5F5F5F5F5F5F5F5F5F5F5F5F5F5F5F5F5F5F5F5F5F5F5F5F5F5F5F5F5F5F5F5F5F5F5F5
310
F5F5F5F5F5F5F5F5F5F5F5F5F5F5F5F5F5F5F5F5F5F5F5F5F5F5F5F5F5F5F5F5F5F5F5F5F5F5F5F5F5F5F5F5F5F5F5F5F5F5F5F5F5F5F5F5F5F5F5F5F5F5F5F5F5F5F5F5F5F5F5F5F5F5F5F5F5F5F5F5F5F5F5F5F5F5F5F5F5F5F5F5F5F5F5F5F5F5F5F5F5F5F5F5F5F5F5F5F5F5F5F5F5F5F5F5F5F5F5F5F5F5F5F5F5F5F5
310
F5F5F5F5F5F5F5F5F5F5F5F5F5F5F5F5F5F5F5F5F5F5F5F5F5F5F5F5F5F5F5F5F5F5F5F5F5F5F5F5F5F5F5F5F5F5F5F5F5F5F5F5F5F5F5F5F5F5F5F5F5F5F5F5F5F5F5F5F5F5F5F5F5F5F5F5F5F5F5F5F5F5F5F5F5F5F5F5F5F5F5F5F5F5F5F5F5F5F5F5F5F5F5F5F5F5F5F5F5F5F5F5F5F5F5F5F5F5F5F5F5F5F5F5F5F5F5
310
F5F5F5F5F5F5F5F5F5F5F5F5F5F5F5F5F5F5F5F5F5F5F5F5F5F5F5F5F5F5F5F5F5F5F5F5F5F5F5F5F5F5F5F5F5F5F5F5F5F5F5F5F5F5F5F5F5F5F5F5F5F5F5F5F5F5F5F5F5F5F5F5F5F5F5F5F5F5F5F5F5F5F5F5F5F5F5F5F5F5F5F5F5F5F5F5F5F5F5F5F5F5F5F5F5F5F5F5F5F5F5F5F5F5F5F5F5F5F5F5F5F5F5F5F5F5F5
310
F5F5F5F5F5F5F5F5F5F5F5F5F5F5F5F5F5F5F5F5F5F5F5F5F5F5F5F5F5F5F5F5F5F5F5F5F5F5F5F5F5F5F5F5F5F5F5F5F5F5F5F5F5F5F5F5F5F5F5F5F5F5F5F5F5F5F5F5F5F5F5F5F5F5F5F5F5F5F5F5F5F5F5F5F5F5F5F5F5F5F5F5F5F5F5F5F5F5F5F5F5F5F5F5F5F5F5F5F5F5F5F5F5F5F5F5F5F5F5F5F5F5F5F5F5F5F5
310
F5F5F5F5F5F5F5F5F5F5F5F5F5F5F5F5F5F5F5F5F5F5F5F5F5F5F5F5F5F5F5F5F5F5F5F5F5F5F5F5F5F5F5F5F5F5F5F5F5F5F5F5F5F5F5F5F5F5F5F5F5F5F5F5F5F5F5F5F5F5F5F5F5F5F5F5F5F5F5F5F5F5F5F5F5F5F5F5F5F5F5F5F5F5F5F5F5F5F5F5F5F5F5F5F5F5F5F5F5F5F5F5F5F5F5F5F5F5F5F5F5F5F5F5F5F5F5
310
F5F5F5F5F5F5F5F5F5F5F5F5F5F5F5F5F5F5F5F5F5F5F5F5F5F5F5F5F5F5F5F5F5F5F5F5F5F5F5F5F5F5F5F5F5F5F5F5F5F5F5F5F5F5F5F5F5F5F5F5F5F5F5F5F5F5F5F5F5F5F5F5F5F5F5F5F5F5F5F5F5F5F5F5F5F5F5F5F5F5F5F5F5F5F5F5F5F5F5F5F5F5F5F5F5F5F5F5F5F5F5F5F5F5F5F5F5F5F5F5F5F5F5F5F5F5F5
310
F5F5F5F5F5F5F5F5F5F5F5F5F5F5F5F5F5F5F5F5F5F5F5F5F5F5F5F5F5F5F5F5F5F5F5F5F5F5F5F5F5F5F5F5F5F5F5F5F5F5F5F5F5F5F5F5F5F5F5F5F5F5F5F5F5F5F5F5F5F5F5F5F5F5F5F5F5F5F5F5F5F5F5F5F5F5F5F5F5F5F5F5F5F5F5F5F5F5F5F5F5F5F5F5F5F5F5F5F5F5F5F5F5F5F5F5F5F5F5F5F5F5F5F5F5F5F5
310
F5F5F5F5F5F5F5F5F5F5F5F5F5F5F5F5F5F5F5F5F5F5F5F5F5F5F5F5F5F5F5F5F5F5F5F5F5F5F5F5F5F5F5F5F5F5F5F5F5F5F5F5F5F5F5F5F5F5F5F5F5F5F5F5F5F5F5F5F5F5F5F5F5F5F5F5F5F5F5F5F5F5F5F5F5F5F5F5F5F5F5F5F5F5F5F5F5F5F5F5F5F5F5F5F5F5F5F5F5F5F5F5F5F5F5F5F5F5F5F5F5F5F5F5F5F5F5
310
F5F5F5F5F5F5F5F5F5F5F5F5F5F5F5F5F5F5F5F5F5F5F5F5F5F5F5F5F5F5F5F5F5F5F5F5F5F5F5F5F5F5F5F5F5F5F5F5F5F5F5F5F5F5F5F5F5F5F5F5F5F5F5F5F5F5F5F5F5F5F5F5F5F5F5F5F5F5F5F5F5F5F5F5F5F5F5F5F5F5F5F5F5F5F5F5F5F5F5F5F5F5F5F5F5F5F5F5F5F5F5F5F5F5F5F5F5F5F5F5F5F5F5F5F5F5F5
310
F5F5F5F5F5F5F5F5F5F5F5F5F5F5F5F5F5F5F5F5F5F5F5F5F5F5F5F5F5F5F5F5F5F5F5F5F5F5F5F5F5F5F5F5F5F5F5F5F5F5F5F5F5F5F5F5F5F5F5F5F5F5F5F5F5F5F5F5F5F5F5F5F5F5F5F5F5F5F5F5F5F5F5F5F5F5F5F5F5F5F5F5F5F5F5F5F5F5F5F5F5F5F5F5F5F5F5F5F5F5F5F5F5F5F5F5F5F5F5F5F5F5F5F5F5F5F5
310
F5F5F5F5F5F5F5F5F5F5F5F5F5F5F5F5F5F5F5F5F5F5F5F5F5F5F5F5F5F5F5F5F5F5F5F5F5F5F5F5F5F5F5F5F5F5F5F5F5F5F5F5F5F5F5F5F5F5F5F5F5F5F5F5F5F5F5F5F5F5F5F5F5F5F5F5F5F5F5F5F5F5F5F5F5F5F5F5F5F5F5F5F5F5F5F5F5F5F5F5F5F5F5F5F5F5F5F5F5F5F5F5F5F5F5F5F5F5F5F5F5F5F5F5F5F5F5
310
F5F5F5F5F5F5F5F5F5F5F5F5F5F5F5F5F5F5F5F5F5F5F5F5F5F5F5F5F5F5F5F5F5F5F5F5F5F5F5F5F5F5F5F5F5F5F5F5F5F5F5F5F5F5F5F5F5F5F5F5F5F5F5F5F5F5F5F5F5F5F5F5F5F5F5F5F5F5F5F5F5F5F5F5F5F5F5F5F5F5F5F5F5F5F5F5F5F5F5F5F5F5F5F5F5F5F5F5F5F5F5F5F5F5F5F5F5F5F5F5F5F5F5F5F5F5F5
310
F5F5F5F5F5F5F5F5F5F5F5F5F5F5F5F5F5F5F5F5F5F5F5F5F5F5F5F5F5F5F5F5F5F5F5F5F5F5F5F5F5F5F5F5F5F5F5F5F5F5F5F5F5F5F5F5F5F5F5F5F5F5F5F5F5F5F5F5F5F5F5F5F5F5F5F5F5F5F5F5F5F5F5F5F5F5F5F5F5F5F5F5F5F5F5F5F5F5F5F5F5F5F5F5F5F5F5F5F5F5F5F5F5F5F5F5F5F5F5F5F5F5F5F5F5F5F5
310
F5F5F5F5F5F5F5F5F5F5F5F5F5F5F5F5F5F5F5F5F5F5F5F5F5F5F5F5F5F5F5F5F5F5F5F5F5F5F5F5F5F5F5F5F5F5F5F5F5F5F5F5F5F5F5F5F5F5F5F5F5F5F5F5F5F5F5F5F5F5F5F5F5F5F5F5F5F5F5F5F5F5F5F5F5F5F5F5F5F5F5F5F5F5F5F5F5F5F5F5F5F5F5F5F5F5F5F5F5F5F5F5F5F5F5F5F5F5F5F5F5F5F5F5F5F5F5
310
F5F5F5F5F5F5F5F5F5F5F5F5F5F5F5F5F5F5F5F5F5F5F5F5F5F5F5F5F5F5F5F5F5F5F5F5F5F5F5F5F5F5F5F5F5F5F5F5F5F5F5F5F5F5F5F5F5F5F5F5F5F5F5F5F5F5F5F5F5F5F5F5F5F5F5F5F5F5F5F5F5F5F5F5F5F5F5F5F5F5F5F5F5F5F5F5F5F5F5F5F5F5F5F5F5F5F5F5F5F5F5F5F5F5F5F5F5F5F5F5F5F5F5F5F5F5F5
310
F5F5F5F5F5F5F5F5F5F5F5F5F5F5F5F5F5F5F5F5F5F5F5F5F5F5F5F5F5F5F5F5F5F5F5F5F5F5F5F5F5F5F5F5F5F5F5F5F5F5F5F5F5F5F5F5F5F5F5F5F5F5F5F5F5F5F5F5F5F5F5F5F5F5F5F5F5F5F5F5F5F5F5F5F5F5F5F5F5F5F5F5F5F5F5F5F5F5F5F5F5F5F5F5F5F5F5F5F5F5F5F5F5F5F5F5F5F5F5F5F5F5F5F5F5F5F5
310
F5F5F5F5F5F5F5F5F5F5F5F5F5F5F5F5F5F5F5F5F5F5F5F5F5F5F5F5F5F5F5F5F5F5F5F5F5F5F5F5F5F5F5F5F5F5F5F5F5F5F5F5F5F5F5F5F5F5F5F5F5F5F5F5F5F5F5F5F5F5F5F5F5F5F5F5F5F5F5F5F5F5F5F5F5F5F5F5F5F5F5F5F5F5F5F5F5F5F5F5F5F5F5F5F5F5F5F5F5F5F5F5F5F5F5F5F5F5F5F5F5F5F5F5F5F5F5
310
F5F5F5F5F5F5F5F5F5F5F5F5F5F5F5F5F5F5F5F5F5F5F5F5F5F5F5F5F5F5F5F5F5F5F5F5F5F5F5F5F5F5F5F5F5F5F5F5F5F5F5F5F5F5F5F5F5F5F5F5F5F5F5F5F5F5F5F5F5F5F5F5F5F5F5F5F5F5F5F5F5F5F5F5F5F5F5F5F5F5F5F5F5F5F5F5F5F5F5F5F5F5F5F5F5F5F5F5F5F5F5F5F5F5F5F5F5F5F5F5F5F5F5F5F5F5F5
310
F5F5F5F5F5F5F5F5F5F5F5F5F5F5F5F5F5F5F5F5F5F5F5F5F5F5F5F5F5F5F5F5F5F5F5F5F5F5F5F5F5F5F5F5F5F5F5F5F5F5F5F5F5F5F5F5F5F5F5F5F5F5F5F5F5F5F5F5F5F5F5F5F5F5F5F5F5F5F5F5F5F5F5F5F5F5F5F5F5F5F5F5F5F5F5F5F5F5F5F5F5F5F5F5F5F5F5F5F5F5F5F5F5F5F5F5F5F5F5F5F5F5F5F5F5F5F5
310
F5F5F5F5F5F5F5F5F5F5F5F5F5F5F5F5F5F5F5F5F5F5F5F5F5F5F5F5F5F5F5F5F5F5F5F5F5F5F5F5F5F5F5F5F5F5F5F5F5F5F5F5F5F5F5F5F5F5F5F5F5F5F5F5F5F5F5F5F5F5F5F5F5F5F5F5F5F5F5F5F5F5F5F5F5F5F5F5F5F5F5F5F5F5F5F5F5F5F5F5F5F5F5F5F5F5F5F5F5F5F5F5F5F5F5F5F5F5F5F5F5F5F5F5F5F5F5
310
F5F5F5F5F5F5F5F5F5F5F5F5F5F5F5F5F5F5F5F5F5F5F5F5F5F5F5F5F5F5F5F5F5F5F5F5F5F5F5F5F5F5F5F5F5F5F5F5F5F5F5F5F5F5F5F5F5F5F5F5F5F5F5F5F5F5F5F5F5F5F5F5F5F5F5F5F5F5F5F5F5F5F5F5F5F5F5F5F5F5F5F5F5F5F5F5F5F5F5F5F5F5F5F5F5F5F5F5F5F5F5F5F5F5F5F5F5F5F5F5F5F5F5F5F5F5F5
310
F5F5F5F5F5F5F5F5F5F5F5F5F5F5F5F5F5F5F5F5F5F5F5F5F5F5F5F5F5F5F5F5F5F5F5F5F5F5F5F5F5F5F5F5F5F5F5F5F5F5F5F5F5F5F5F5F5F5F5F5F5F5F5F5F5F5F5F5F5F5F5F5F5F5F5F5F5F5F5F5F5F5F5F5F5F5F5F5F5F5F5F5F5F5F5F5F5F5F5F5F5F5F5F5F5F5F5F5F5F5F5F5F5F5F5F5F5F5F5F5F5F5F5F5F5F5F5
310
F5F5F5F5F5F5F5F5F5F5F5F5F5F5F5F5F5F5F5F5F5F5F5F5F5F5F5F5F5F5F5F5F5F5F5F5F5F5F5F5F5F5F5F5F5F5F5F5F5F5F5F5F5F5F5F5F5F5F5F5F5F5F5F5F5F5F5F5F5F5F5F5F5F5F5F5F5F5F5F5F5F5F5F5F5F5F5F5F5F5F5F5F5F5F5F5F5F5F5F5F5F5F5F5F5F5F5F5F5F5F5F5F5F5F5F5F5F5F5F5F5F5F5F5F5F5F5
310
F5F5F5F5F5F5F5F5F5F5F5F5F5F5F5F5F5F5F5F5F5F5F5F5F5F5F5F5F5F5F5F5F5F5F5F5F5F5F5F5F5F5F5F5F5F5F5F5F5F5F5F5F5F5F5F5F5F5F5F5F5F5F5F5F5F5F5F5F5F5F5F5F5F5F5F5F5F5F5F5F5F5F5F5F5F5F5F5F5F5F5F5F5F5F5F5F5F5F5F5F5F5F5F5F5F5F5F5F5F5F5F5F5F5F5F5F5F5F5F5F5F5F5F5F5F5F5
310
F5F5F5F5F5F5F5F5F5F5F5F5F5F5F5F5F5F5F5F5F5F5F5F5F5F5F5F5F5F5F5F5F5F5F5F5F5F5F5F5F5F5F5F5F5F5F5F5F5F5F5F5F5F5F5F5F5F5F5F5F5F5F5F5F5F5F5F5F5F5F5F5F5F5F5F5F5F5F5F5F5F5F5F5F5F5F5F5F5F5F5F5F5F5F5F5F5F5F5F5F5F5F5F5F5F5F5F5F5F5F5F5F5F5F5F5F5F5F5F5F5F5F5F5F5F5F5
310
F5F5F5F5F5F5F5F5F5F5F5F5F5F5F5F5F5F5F5F5F5F5F5F5F5F5F5F5F5F5F5F5F5F5F5F5F5F5F5F5F5F5F5F5F5F5F5F5F5F5F5F5F5F5F5F5F5F5F5F5F5F5F5F5F5F5F5F5F5F5F5F5F5F5F5F5F5F5F5F5F5F5F5F5F5F5F5F5F5F5F5F5F5F5F5F5F5F5F5F5F5F5F5F5F5F5F5F5F5F5F5F5F5F5F5F5F5F5F5F5F5F5F5F5F5F5F5
310
F5F5F5F5F5F5F5F5F5F5F5F5F5F5F5F5F5F5F5F5F5F5F5F5F5F5F5F5F5F5F5F5F5F5F5F5F5F5F5F5F5F5F5F5F5F5F5F5F5F5F5F5F5F5F5F5F5F5F5F5F5F5F5F5F5F5F5F5F5F5F5F5F5F5F5F5F5F5F5F5F5F5F5F5F5F5F5F5F5F5F5F5F5F5F5F5F5F5F5F5F5F5F5F5F5F5F5F5F5F5F5F5F5F5F5F5F5F5F5F5F5F5F5F5F5F5F5
310
F5F5F5F5F5F5F5F5F5F5F5F5F5F5F5F5F5F5F5F5F5F5F5F5F5F5F5F5F5F5F5F5F5F5F5F5F5F5F5F5F5F5F5F5F5F5F5F5F5F5F5F5F5F5F5F5F5F5F5F5F5F5F5F5F5F5F5F5F5F5F5F5F5F5F5F5F5F5F5F5F5F5F5F5F5F5F5F5F5F5F5F5F5F5F5F5F5F5F5F5F5F5F5F5F5F5F5F5F5F5F5F5F5F5F5F5F5F5F5F5F5F5F5F5F5F5F5
310
F5F5F5F5F5F5F5F5F5F5F5F5F5F5F5F5F5F5F5F5F5F5F5F5F5F5F5F5F5F5F5F5F5F5F5F5F5F5F5F5F5F5F5F5F5F5F5F5F5F5F5F5F5F5F5F5F5F5F5F5F5F5F5F5F5F5F5F5F5F5F5F5F5F5F5F5F5F5F5F5F5F5F5F5F5F5F5F5F5F5F5F5F5F5F5F5F5F5F5F5F5F5F5F5F5F5F5F5F5F5F5F5F5F5F5F5F5F5F5F5F5F5F5F5F5F5F5
310
F5F5F5F5F5F5F5F5F5F5F5F5F5F5F5F5F5F5F5F5F5F5F5F5F5F5F5F5F5F5F5F5F5F5F5F5F5F5F5F5F5F5F5F5F5F5F5F5F5F5F5F5F5F5F5F5F5F5F5F5F5F5F5F5F5F5F5F5F5F5F5F5F5F5F5F5F5F5F5F5F5F5F5F5F5F5F5F5F5F5F5F5F5F5F5F5F5F5F5F5F5F5F5F5F5F5F5F5F5F5F5F5F5F5F5F5F5F5F5F5F5F5F5F5F5F5F5
310
F5F5F5F5F5F5F5F5F5F5F5F5F5F5F5F5F5F5F5F5F5F5F5F5F5F5F5F5F5F5F5F5F5F5F5F5F5F5F5F5F5F5F5F5F5F5F5F5F5F5F5F5F5F5F5F5F5F5F5F5F5F5F5F5F5F5F5F5F5F5F5F5F5F5F5F5F5F5F5F5F5F5F5F5F5F5F5F5F5F5F5F5F5F5F5F5F5F5F5F5F5F5F5F5F5F5F5F5F5F5F5F5F5F5F5F5F5F5F5F5F5F5F5F5F5F5F5
310
F5F5F5F5F5F5F5F5F5F5F5F5F5F5F5F5F5F5F5F5F5F5F5F5F5F5F5F5F5F5F5F5F5F5F5F5F5F5F5F5F5F5F5F5F5F5F5F5F5F5F5F5F5F5F5F5F5F5F5F5F5F5F5F5F5F5F5F5F5F5F5F5F5F5F5F5F5F5F5F5F5F5F5F5F5F5F5F5F5F5F5F5F5F5F5F5F5F5F5F5F5F5F5F5F5F5F5F5F5F5F5F5F5F5F5F5F5F5F5F5F5F5F5F5F5F5F5
310
F5F5F5F5F5F5F5F5F5F5F5F5F5F5F5F5F5F5F5F5F5F5F5F5F5F5F5F5F5F5F5F5F5F5F5F5F5F5F5F5F5F5F5F5F5F5F5F5F5F5F5F5F5F5F5F5F5F5F5F5F5F5F5F5F5F5F5F5F5F5F5F5F5F5F5F5F5F5F5F5F5F5F5F5F5F5F5F5F5F5F5F5F5F5F5F5F5F5F5F5F5F5F5F5F5F5F5F5F5F5F5F5F5F5F5F5F5F5F5F5F5F5F5F5F5F5F5
310
F5F5F5F5F5F5F5F5F5F5F5F5F5F5F5F5F5F5F5F5F5F5F5F5F5F5F5F5F5F5F5F5F5F5F5F5F5F5F5F5F5F5F5F5F5F5F5F5F5F5F5F5F5F5F5F5F5F5F5F5F5F5F5F5F5F5F5F5F5F5F5F5F5F5F5F5F5F5F5F5F5F5F5F5F5F5F5F5F5F5F5F5F5F5F5F5F5F5F5F5F5F5F5F5F5F5F5F5F5F5F5F5F5F5F5F5F5F5F5F5F5F5F5F5F5F5F5
310
F5F5F5F5F5F5F5F5F5F5F5F5F5F5F5F5F5F5F5F5F5F5F5F5F5F5F5F5F5F5F5F5F5F5F5F5F5F5F5F5F5F5F5F5F5F5F5F5F5F5F5F5F5F5F5F5F5F5F5F5F5F5F5F5F5F5F5F5F5F5F5F5F5F5F5F5F5F5F5F5F5F5F5F5F5F5F5F5F5F5F5F5F5F5F5F5F5F5F5F5F5F5F5F5F5F5F5F5F5F5F5F5F5F5F5F5F5F5F5F5F5F5F5F5F5F5F5
310
F5F5F5F5F5F5F5F5F5F5F5F5F5F5F5F5F5F5F5F5F5F5F5F5F5F5F5F5F5F5F5F5F5F5F5F5F5F5F5F5F5F5F5F5F5F5F5F5F5F5F5F5F5F5F5F5F5F5F5F5F5F5F5F5F5F5F5F5F5F5F5F5F5F5F5F5F5F5F5F5F5F5F5F5F5F5F5F5F5F5F5F5F5F5F5F5F5F5F5F5F5F5F5F5F5F5F5F5F5F5F5F5F5F5F5F5F5F5F5F5F5F5F5F5F5F5F5
310
F5F5F5F5F5F5F5F5F5F5F5F5F5F5F5F5F5F5F5F5F5F5F5F5F5F5F5F5F5F5F5F5F5F5F5F5F5F5F5F5F5F5F5F5F5F5F5F5F5F5F5F5F5F5F5F5F5F5F5F5F5F5F5F5F5F5F5F5F5F5F5F5F5F5F5F5F5F5F5F5F5F5F5F5F5F5F5F5F5F5F5F5F5F5F5F5F5F5F5F5F5F5F5F5F5F5F5F5F5F5F5F5F5F5F5F5F5F5F5F5F5F5F5F5F5F5F5
310
F5F5F5F5F5F5F5F5F5F5F5F5F5F5F5F5F5F5F5F5F5F5F5F5F5F5F5F5F5F5F5F5F5F5F5F5F5F5F5F5F5F5F5F5F5F5F5F5F5F5F5F5F5F5F5F5F5F5F5F5F5F5F5F5F5F5F5F5F5F5F5F5F5F5F5F5F5F5F5F5F5F5F5F5F5F5F5F5F5F5F5F5F5F5F5F5F5F5F5F5F5F5F5F5F5F5F5F5F5F5F5F5F5F5F5F5F5F5F5F5F5F5F5F5F5F5F5
310
F5F5F5F5F5F5F5F5F5F5F5F5F5F5F5F5F5F5F5F5F5F5F5F5F5F5F5F5F5F5F5F5F5F5F5F5F5F5F5F5F5F5F5F5F5F5F5F5F5F5F5F5F5F5F5F5F5F5F5F5F5F5F5F5F5F5F5F5F5F5F5F5F5F5F5F5F5F5F5F5F5F5F5F5F5F5F5F5F5F5F5F5F5F5F5F5F5F5F5F5F5F5F5F5F5F5F5F5F5F5F5F5F5F5F5F5F5F5F5F5F5F5F5F5F5F5F5
310
F5F5F5F5F5F5F5F5F5F5F5F5F5F5F5F5F5F5F5F5F5F5F5F5F5F5F5F5F5F5F5F5F5F5F5F5F5F5F5F5F5F5F5F5F5F5F5F5F5F5F5F5F5F5F5F5F5F5F5F5F5F5F5F5F5F5F5F5F5F5F5F5F5F5F5F5F5F5F5F5F5F5F5F5F5F5F5F5F5F5F5F5F5F5F5F5F5F5F5F5F5F5F5F5F5F5F5F5F5F5F5F5F5F5F5F5F5F5F5F5F5F5F5F5F5F5F5
310
F5F5F5F5F5F5F5F5F5F5F5F5F5F5F5F5F5F5F5F5F5F5F5F5F5F5F5F5F5F5F5F5F5F5F5F5F5F5F5F5F5F5F5F5F5F5F5F5F5F5F5F5F5F5F5F5F5F5F5F5F5F5F5F5F5F5F5F5F5F5F5F5F5F5F5F5F5F5F5F5F5F5F5F5F5F5F5F5F5F5F5F5F5F5F5F5F5F5F5F5F5F5F5F5F5F5F5F5F5F5F5F5F5F5F5F5F5F5F5F5F5F5F5F5F5F5F5
310
F5F5F5F5F5F5F5F5F5F5F5F5F5F5F5F5F5F5F5F5F5F5F5F5F5F5F5F5F5F5F5F5F5F5F5F5F5F5F5F5F5F5F5F5F5F5F5F5F5F5F5F5F5F5F5F5F5F5F5F5F5F5F5F5F5F5F5F5F5F5F5F5F5F5F5F5F5F5F5F5F5F5F5F5F5F5F5F5F5F5F5F5F5F5F5F5F5F5F5F5F5F5F5F5F5F5F5F5F5F5F5F5F5F5F5F5F5F5F5F5F5F5F5F5F5F5F5
310
F5F5F5F5F5F5F5F5F5F5F5F5F5F5F5F5F5F5F5F5F5F5F5F5F5F5F5F5F5F5F5F5F5F5F5F5F5F5F5F5F5F5F5F5F5F5F5F5F5F5F5F5F5F5F5F5F5F5F5F5F5F5F5F5F5F5F5F5F5F5F5F5F5F5F5F5F5F5F5F5F5F5F5F5F5F5F5F5F5F5F5F5F5F5F5F5F5F5F5F5F5F5F5F5F5F5F5F5F5F5F5F5F5F5F5F5F5F5F5F5F5F5F5F5F5F5F5
310
F5F5F5F5F5F5F5F5F5F5F5F5F5F5F5F5F5F5F5F5F5F5F5F5F5F5F5F5F5F5F5F5F5F5F5F5F5F5F5F5F5F5F5F5F5F5F5F5F5F5F5F5F5F5F5F5F5F5F5F5F5F5F5F5F5F5F5F5F5F5F5F5F5F5F5F5F5F5F5F5F5F5F5F5F5F5F5F5F5F5F5F5F5F5F5F5F5F5F5F5F5F5F5F5F5F5F5F5F5F5F5F5F5F5F5F5F5F5F5F5F5F5F5F5F5F5F5
310
F5F5F5F5F5F5F5F5F5F5F5F5F5F5F5F5F5F5F5F5F5F5F5F5F5F5F5F5F5F5F5F5F5F5F5F5F5F5F5F5F5F5F5F5F5F5F5F5F5F5F5F5F5F5F5F5F5F5F5F5F5F5F5F5F5F5F5F5F5F5F5F5F5F5F5F5F5F5F5F5F5F5F5F5F5F5F5F5F5F5F5F5F5F5F5F5F5F5F5F5F5F5F5F5F5F5F5F5F5F5F5F5F5F5F5F5F5F5F5F5F5F5F5F5F5F5F5
310
F5F5F5F5F5F5F5F5F5F5F5F5F5F5F5F5F5F5F5F5F5F5F5F5F5F5F5F5F5F5F5F5F5F5F5F5F5F5F5F5F5F5F5F5F5F5F5F5F5F5F5F5F5F5F5F5F5F5F5F5F5F5F5F5F5F5F5F5F5F5F5F5F5F5F5F5F5F5F5F5F5F5F5F5F5F5F5F5F5F5F5F5F5F5F5F5F5F5F5F5F5F5F5F5F5F5F5F5F5F5F5F5F5F5F5F5F5F5F5F5F5F5F5F5F5F5F5
310
F5F5F5F5F5F5F5F5F5F5F5F5F5F5F5F5F5F5F5F5F5F5F5F5F5F5F5F5F5F5F5F5F5F5F5F5F5F5F5F5F5F5F5F5F5F5F5F5F5F5F5F5F5F5F5F5F5F5F5F5F5F5F5F5F5F5F5F5F5F5F5F5F5F5F5F5F5F5F5F5F5F5F5F5F5F5F5F5F5F5F5F5F5F5F5F5F5F5F5F5F5F5F5F5F5F5F5F5F5F5F5F5F5F5F5F5F5F5F5F5F5F5F5F5F5F5F5
310
F5F5F5F5F5F5F5F5F5F5F5F5F5F5F5F5F5F5F5F5F5F5F5F5F5F5F5F5F5F5F5F5F5F5F5F5F5F5F5F5F5F5F5F5F5F5F5F5F5F5F5F5F5F5F5F5F5F5F5F5F5F5F5F5F5F5F5F5F5F5F5F5F5F5F5F5F5F5F5F5F5F5F5F5F5F5F5F5F5F5F5F5F5F5F5F5F5F5F5F5F5F5F5F5F5F5F5F5F5F5F5F5F5F5F5F5F5F5F5F5F5F5F5F5F5F5F5
310
F5F5F5F5F5F5F5F5F5F5F5F5F5F5F5F5F5F5F5F5F5F5F5F5F5F5F5F5F5F5F5F5F5F5F5F5F5F5F5F5F5F5F5F5F5F5F5F5F5F5F5F5F5F5F5F5F5F5F5F5F5F5F5F5F5F5F5F5F5F5F5F5F5F5F5F5F5F5F5F5F5F5F5F5F5F5F5F5F5F5F5F5F5F5F5F5F5F5F5F5F5F5F5F5F5F5F5F5F5F5F5F5F5F5F5F5F5F5F5F5F5F5F5F5F5F5F5
310
F5F5F5F5F5F5F5F5F5F5F5F5F5F5F5F5F5F5F5F5F5F5F5F5F5F5F5F5F5F5F5F5F5F5F5F5F5F5F5F5F5F5F5F5F5F5F5F5F5F5F5F5F5F5F5F5F5F5F5F5F5F5F5F5F5F5F5F5F5F5F5F5F5F5F5F5F5F5F5F5F5F5F5F5F5F5F5F5F5F5F5F5F5F5F5F5F5F5F5F5F5F5F5F5F5F5F5F5F5F5F5F5F5F5F5F5F5F5F5F5F5F5F5F5F5F5F5
310
F5F5F5F5F5F5F5F5F5F5F5F5F5F5F5F5F5F5F5F5F5F5F5F5F5F5F5F5F5F5F5F5F5F5F5F5F5F5F5F5F5F5F5F5F5F5F5F5F5F5F5F5F5F5F5F5F5F5F5F5F5F5F5F5F5F5F5F5F5F5F5F5F5F5F5F5F5F5F5F5F5F5F5F5F5F5F5F5F5F5F5F5F5F5F5F5F5F5F5F5F5F5F5F5F5F5F5F5F5F5F5F5F5F5F5F5F5F5F5F5F5F5F5F5F5F5F5
310
F5F5F5F5F5F5F5F5F5F5F5F5F5F5F5F5F5F5F5F5F5F5F5F5F5F5F5F5F5F5F5F5F5F5F5F5F5F5F5F5F5F5F5F5F5F5F5F5F5F5F5F5F5F5F5F5F5F5F5F5F5F5F5F5F5F5F5F5F5F5F5F5F5F5F5F5F5F5F5F5F5F5F5F5F5F5F5F5F5F5F5F5F5F5F5F5F5F5F5F5F5F5F5F5F5F5F5F5F5F5F5F5F5F5F5F5F5F5F5F5F5F5F5F5F5F5F5
310
F5F5F5F5F5F5F5F5F5F5F5F5F5F5F5F5F5F5F5F5F5F5F5F5F5F5F5F5F5F5F5F5F5F5F5F5F5F5F5F5F5F5F5F5F5F5F5F5F5F5F5F5F5F5F5F5F5F5F5F5F5F5F5F5F5F5F5F5F5F5F5F5F5F5F5F5F5F5F5F5F5F5F5F5F5F5F5F5F5F5F5F5F5F5F5F5F5F5F5F5F5F5F5F5F5F5F5F5F5F5F5F5F5F5F5F5F5F5F5F5F5F5F5F5F5F5F5
310
F5F5F5F5F5F5F5F5F5F5F5F5F5F5F5F5F5F5F5F5F5F5F5F5F5F5F5F5F5F5F5F5F5F5F5F5F5F5F5F5F5F5F5F5F5F5F5F5F5F5F5F5F5F5F5F5F5F5F5F5F5F5F5F5F5F5F5F5F5F5F5F5F5F5F5F5F5F5F5F5F5F5F5F5F5F5F5F5F5F5F5F5F5F5F5F5F5F5F5F5F5F5F5F5F5F5F5F5F5F5F5F5F5F5F5F5F5F5F5F5F5F5F5F5F5F5F5
310
F5F5F5F5F5F5F5F5F5F5F5F5F5F5F5F5F5F5F5F5F5F5F5F5F5F5F5F5F5F5F5F5F5F5F5F5F5F5F5F5F5F5F5F5F5F5F5F5F5F5F5F5F5F5F5F5F5F5F5F5F5F5F5F5F5F5F5F5F5F5F5F5F5F5F5F5F5F5F5F5F5F5F5F5F5F5F5F5F5F5F5F5F5F5F5F5F5F5F5F5F5F5F5F5F5F5F5F5F5F5F5F5F5F5F5F5F5F5F5F5F5F5F5F5F5F5F5
310
F5F5F5F5F5F5F5F5F5F5F5F5F5F5F5F5F5F5F5F5F5F5F5F5F5F5F5F5F5F5F5F5F5F5F5F5F5F5F5F5F5F5F5F5F5F5F5F5F5F5F5F5F5F5F5F5F5F5F5F5F5F5F5F5F5F5F5F5F5F5F5F5F5F5F5F5F5F5F5F5F5F5F5F5F5F5F5F5F5F5F5F5F5F5F5F5F5F5F5F5F5F5F5F5F5F5F5F5F5F5F5F5F5F5F5F5F5F5F5F5F5F5F5F5F5F5F5
310
F5F5F5F5F5F5F5F5F5F5F5F5F5F5F5F5F5F5F5F5F5F5F5F5F5F5F5F5F5F5F5F5F5F5F5F5F5F5F5F5F5F5F5F5F5F5F5F5F5F5F5F5F5F5F5F5F5F5F5F5F5F5F5F5F5F5F5F5F5F5F5F5F5F5F5F5F5F5F5F5F5F5F5F5F5F5F5F5F5F5F5F5F5F5F5F5F5F5F5F5F5F5F5F5F5F5F5F5F5F5F5F5F5F5F5F5F5F5F5F5F5F5F5F5F5F5F5
310
F5F5F5F5F5F5F5F5F5F5F5F5F5F5F5F5F5F5F5F5F5F5F5F5F5F5F5F5F5F5F5F5F5F5F5F5F5F5F5F5F5F5F5F5F5F5F5F5F5F5F5F5F5F5F5F5F5F5F5F5F5F5F5F5F5F5F5F5F5F5F5F5F5F5F5F5F5F5F5F5F5F5F5F5F5F5F5F5F5F5F5F5F5F5F5F5F5F5F5F5F5F5F5F5F5F5F5F5F5F5F5F5F5F5F5F5F5F5F5F5F5F5F5F5F5F5F5
310
F5F5F5F5F5F5F5F5F5F5F5F5F5F5F5F5F5F5F5F5F5F5F5F5F5F5F5F5F5F5F5F5F5F5F5F5F5F5F5F5F5F5F5F5F5F5F5F5F5F5F5F5F5F5F5F5F5F5F5F5F5F5F5F5F5F5F5F5F5F5F5F5F5F5F5F5F5F5F5F5F5F5F5F5F5F5F5F5F5F5F5F5F5F5F5F5F5F5F5F5F5F5F5F5F5F5F5F5F5F5F5F5F5F5F5F5F5F5F5F5F5F5F5F5F5F5F5
310
F5F5F5F5F5F5F5F5F5F5F5F5F5F5F5F5F5F5F5F5F5F5F5F5F5F5F5F5F5F5F5F5F5F5F5F5F5F5F5F5F5F5F5F5F5F5F5F5F5F5F5F5F5F5F5F5F5F5F5F5F5F5F5F5F5F5F5F5F5F5F5F5F5F5F5F5F5F5F5F5F5F5F5F5F5F5F5F5F5F5F5F5F5F5F5F5F5F5F5F5F5F5F5F5F5F5F5F5F5F5F5F5F5F5F5F5F5F5F5F5F5F5F5F5F5F5F5
310
F5F5F5F5F5F5F5F5F5F5F5F5F5F5F5F5F5F5F5F5F5F5F5F5F5F5F5F5F5F5F5F5F5F5F5F5F5F5F5F5F5F5F5F5F5F5F5F5F5F5F5F5F5F5F5F5F5F5F5F5F5F5F5F5F5F5F5F5F5F5F5F5F5F5F5F5F5F5F5F5F5F5F5F5F5F5F5F5F5F5F5F5F5F5F5F5F5F5F5F5F5F5F5F5F5F5F5F5F5F5F5F5F5F5F5F5F5F5F5F5F5F5F5F5F5F5F5
310
F5F5F5F5F5F5F5F5F5F5F5F5F5F5F5F5F5F5F5F5F5F5F5F5F5F5F5F5F5F5F5F5F5F5F5F5F5F5F5F5F5F5F5F5F5F5F5F5F5F5F5F5F5F5F5F5F5F5F5F5F5F5F5F5F5F5F5F5F5F5F5F5F5F5F5F5F5F5F5F5F5F5F5F5F5F5F5F5F5F5F5F5F5F5F5F5F5F5F5F5F5F5F5F5F5F5F5F5F5F5F5F5F5F5F5F5F5F5F5F5F5F5F5F5F5F5F5
310
F5F5F5F5F5F5F5F5F5F5F5F5F5F5F5F5F5F5F5F5F5F5F5F5F5F5F5F5F5F5F5F5F5F5F5F5F5F5F5F5F5F5F5F5F5F5F5F5F5F5F5F5F5F5F5F5F5F5F5F5F5F5F5F5F5F5F5F5F5F5F5F5F5F5F5F5F5F5F5F5F5F5F5F5F5F5F5F5F5F5F5F5F5F5F5F5F5F5F5F5F5F5F5F5F5F5F5F5F5F5F5F5F5F5F5F5F5F5F5F5F5F5F5F5F5F5F5
310
F5F5F5F5F5F5F5F5F5F5F5F5F5F5F5F5F5F5F5F5F5F5F5F5F5F5F5F5F5F5F5F5F5F5F5F5F5F5F5F5F5F5F5F5F5F5F5F5F5F5F5F5F5F5F5F5F5F5F5F5F5F5F5F5F5F5F5F5F5F5F5F5F5F5F5F5F5F5F5F5F5F5F5F5F5F5F5F5F5F5F5F5F5F5F5F5F5F5F5F5F5F5F5F5F5F5F5F5F5F5F5F5F5F5F5F5F5F5F5F5F5F5F5F5F5F5F5
310
F5F5F5F5F5F5F5F5F5F5F5F5F5F5F5F5F5F5F5F5F5F5F5F5F5F5F5F5F5F5F5F5F5F5F5F5F5F5F5F5F5F5F5F5F5F5F5F5F5F5F5F5F5F5F5F5F5F5F5F5F5F5F5F5F5F5F5F5F5F5F5F5F5F5F5F5F5F5F5F5F5F5F5F5F5F5F5F5F5F5F5F5F5F5F5F5F5F5F5F5F5F5F5F5F5F5F5F5F5F5F5F5F5F5F5F5F5F5F5F5F5F5F5F5F5F5F5
310
F5F5F5F5F5F5F5F5F5F5F5F5F5F5F5F5F5F5F5F5F5F5F5F5F5F5F5F5F5F5F5F5F5F5F5F5F5F5F5F5F5F5F5F5F5F5F5F5F5F5F5F5F5F5F5F5F5F5F5F5F5F5F5F5F5F5F5F5F5F5F5F5F5F5F5F5F5F5F5F5F5F5F5F5F5F5F5F5F5F5F5F5F5F5F5F5F5F5F5F5F5F5F5F5F5F5F5F5F5F5F5F5F5F5F5F5F5F5F5F5F5F5F5F5F5F5F5
310
F5F5F5F5F5F5F5F5F5F5F5F5F5F5F5F5F5F5F5F5F5F5F5F5F5F5F5F5F5F5F5F5F5F5F5F5F5F5F5F5F5F5F5F5F5F5F5F5F5F5F5F5F5F5F5F5F5F5F5F5F5F5F5F5F5F5F5F5F5F5F5F5F5F5F5F5F5F5F5F5F5F5F5F5F5F5F5F5F5F5F5F5F5F5F5F5F5F5F5F5F5F5F5F5F5F5F5F5F5F5F5F5F5F5F5F5F5F5F5F5F5F5F5F5F5F5F5
310
F5F5F5F5F5F5F5F5F5F5F5F5F5F5F5F5F5F5F5F5F5F5F5F5F5F5F5F5F5F5F5F5F5F5F5F5F5F5F5F5F5F5F5F5F5F5F5F5F5F5F5F5F5F5F5F5F5F5F5F5F5F5F5F5F5F5F5F5F5F5F5F5F5F5F5F5F5F5F5F5F5F5F5F5F5F5F5F5F5F5F5F5F5F5F5F5F5F5F5F5F5F5F5F5F5F5F5F5F5F5F5F5F5F5F5F5F5F5F5F5F5F5F5F5F5F5F5
310
F5F5F5F5F5F5F5F5F5F5F5F5F5F5F5F5F5F5F5F5F5F5F5F5F5F5F5F5F5F5F5F5F5F5F5F5F5F5F5F5F5F5F5F5F5F5F5F5F5F5F5F5F5F5F5F5F5F5F5F5F5F5F5F5F5F5F5F5F5F5F5F5F5F5F5F5F5F5F5F5F5F5F5F5F5F5F5F5F5F5F5F5F5F5F5F5F5F5F5F5F5F5F5F5F5F5F5F5F5F5F5F5F5F5F5F5F5F5F5F5F5F5F5F5F5F5F5
310
F5F5F5F5F5F5F5F5F5F5F5F5F5F5F5F5F5F5F5F5F5F5F5F5F5F5F5F5F5F5F5F5F5F5F5F5F5F5F5F5F5F5F5F5F5F5F5F5F5F5F5F5F5F5F5F5F5F5F5F5F5F5F5F5F5F5F5F5F5F5F5F5F5F5F5F5F5F5F5F5F5F5F5F5F5F5F5F5F5F5F5F5F5F5F5F5F5F5F5F5F5F5F5F5F5F5F5F5F5F5F5F5F5F5F5F5F5F5F5F5F5F5F5F5F5F5F5
310
F5F5F5F5F5F5F5F5F5F5F5F5F5F5F5F5F5F5F5F5F5F5F5F5F5F5F5F5F5F5F5F5F5F5F5F5F5F5F5F5F5F5F5F5F5F5F5F5F5F5F5F5F5F5F5F5F5F5F5F5F5F5F5F5F5F5F5F5F5F5F5F5F5F5F5F5F5F5F5F5F5F5F5F5F5F5F5F5F5F5F5F5F5F5F5F5F5F5F5F5F5F5F5F5F5F5F5F5F5F5F5F5F5F5F5F5F5F5F5F5F5F5F5F5F5F5F5
310
F5F5F5F5F5F5F5F5F5F5F5F5F5F5F5F5F5F5F5F5F5F5F5F5F5F5F5F5F5F5F5F5F5F5F5F5F5F5F5F5F5F5F5F5F5F5F5F5F5F5F5F5F5F5F5F5F5F5F5F5F5F5F5F5F5F5F5F5F5F5F5F5F5F5F5F5F5F5F5F5F5F5F5F5F5F5F5F5F5F5F5F5F5F5F5F5F5F5F5F5F5F5F5F5F5F5F5F5F5F5F5F5F5F5F5F5F5F5F5F5F5F5F5F5F5F5F5
310
F5F5F5F5F5F5F5F5F5F5F5F5F5F5F5F5F5F5F5F5F5F5F5F5F5F5F5F5F5F5F5F5F5F5F5F5F5F5F5F5F5F5F5F5F5F5F5F5F5F5F5F5F5F5F5F5F5F5F5F5F5F5F5F5F5F5F5F5F5F5F5F5F5F5F5F5F5F5F5F5F5F5F5F5F5F5F5F5F5F5F5F5F5F5F5F5F5F5F5F5F5F5F5F5F5F5F5F5F5F5F5F5F5F5F5F5F5F5F5F5F5F5F5F5F5F5F5
310
F5F5F5F5F5F5F5F5F5F5F5F5F5F5F5F5F5F5F5F5F5F5F5F5F5F5F5F5F5F5F5F5F5F5F5F5F5F5F5F5F5F5F5F5F5F5F5F5F5F5F5F5F5F5F5F5F5F5F5F5F5F5F5F5F5F5F5F5F5F5F5F5F5F5F5F5F5F5F5F5F5F5F5F5F5F5F5F5F5F5F5F5F5F5F5F5F5F5F5F5F5F5F5F5F5F5F5F5F5F5F5F5F5F5F5F5F5F5F5F5F5F5F5F5F5F5F5
310
F5F5F5F5F5F5F5F5F5F5F5F5F5F5F5F5F5F5F5F5F5F5F5F5F5F5F5F5F5F5F5F5F5F5F5F5F5F5F5F5F5F5F5F5F5F5F5F5F5F5F5F5F5F5F5F5F5F5F5F5F5F5F5F5F5F5F5F5F5F5F5F5F5F5F5F5F5F5F5F5F5F5F5F5F5F5F5F5F5F5F5F5F5F5F5F5F5F5F5F5F5F5F5F5F5F5F5F5F5F5F5F5F5F5F5F5F5F5F5F5F5F5F5F5F5F5F5
310
F5F5F5F5F5F5F5F5F5F5F5F5F5F5F5F5F5F5F5F5F5F5F5F5F5F5F5F5F5F5F5F5F5F5F5F5F5F5F5F5F5F5F5F5F5F5F5F5F5F5F5F5F5F5F5F5F5F5F5F5F5F5F5F5F5F5F5F5F5F5F5F5F5F5F5F5F5F5F5F5F5F5F5F5F5F5F5F5F5F5F5F5F5F5F5F5F5F5F5F5F5F5F5F5F5F5F5F5F5F5F5F5F5F5F5F5F5F5F5F5F5F5F5F5F5F5F5
310
F5F5F5F5F5F5F5F5F5F5F5F5F5F5F5F5F5F5F5F5F5F5F5F5F5F5F5F5F5F5F5F5F5F5F5F5F5F5F5F5F5F5F5F5F5F5F5F5F5F5F5F5F5F5F5F5F5F5F5F5F5F5F5F5F5F5F5F5F5F5F5F5F5F5F5F5F5F5F5F5F5F5F5F5F5F5F5F5F5F5F5F5F5F5F5F5F5F5F5F5F5F5F5F5F5F5F5F5F5F5F5F5F5F5F5F5F5F5F5F5F5F5F5F5F5F5F5
310
F5F5F5F5F5F5F5F5F5F5F5F5F5F5F5F5F5F5F5F5F5F5F5F5F5F5F5F5F5F5F5F5F5F5F5F5F5F5F5F5F5F5F5F5F5F5F5F5F5F5F5F5F5F5F5F5F5F5F5F5F5F5F5F5F5F5F5F5F5F5F5F5F5F5F5F5F5F5F5F5F5F5F5F5F5F5F5F5F5F5F5F5F5F5F5F5F5F5F5F5F5F5F5F5F5F5F5F5F5F5F5F5F5F5F5F5F5F5F5F5F5F5F5F5F5F5F5
310
F5F5F5F5F5F5F5F5F5F5F5F5F5F5F5F5F5F5F5F5F5F5F5F5F5F5F5F5F5F5F5F5F5F5F5F5F5F5F5F5F5F5F5F5F5F5F5F5F5F5F5F5F5F5F5F5F5F5F5F5F5F5F5F5F5F5F5F5F5F5F5F5F5F5F5F5F5F5F5F5F5F5F5F5F5F5F5F5F5F5F5F5F5F5F5F5F5F5F5F5F5F5F5F5F5F5F5F5F5F5F5F5F5F5F5F5F5F5F5F5F5F5F5F5F5F5F5
310
F5F5F5F5F5F5F5F5F5F5F5F5F5F5F5F5F5F5F5F5F5F5F5F5F5F5F5F5F5F5F5F5F5F5F5F5F5F5F5F5F5F5F5F5F5F5F5F5F5F5F5F5F5F5F5F5F5F5F5F5F5F5F5F5F5F5F5F5F5F5F5F5F5F5F5F5F5F5F5F5F5F5F5F5F5F5F5F5F5F5F5F5F5F5F5F5F5F5F5F5F5F5F5F5F5F5F5F5F5F5F5F5F5F5F5F5F5F5F5F5F5F5F5F5F5F5F5
310
F5F5F5F5F5F5F5F5F5F5F5F5F5F5F5F5F5F5F5F5F5F5F5F5F5F5F5F5F5F5F5F5F5F5F5F5F5F5F5F5F5F5F5F5F5F5F5F5F5F5F5F5F5F5F5F5F5F5F5F5F5F5F5F5F5F5F5F5F5F5F5F5F5F5F5F5F5F5F5F5F5F5F5F5F5F5F5F5F5F5F5F5F5F5F5F5F5F5F5F5F5F5F5F5F5F5F5F5F5F5F5F5F5F5F5F5F5F5F5F5F5F5F5F5F5F5F5
310
F5F5F5F5F5F5F5F5F5F5F5F5F5F5F5F5F5F5F5F5F5F5F5F5F5F5F5F5F5F5F5F5F5F5F5F5F5F5F5F5F5F5F5F5F5F5F5F5F5F5F5F5F5F5F5F5F5F5F5F5F5F5F5F5F5F5F5F5F5F5F5F5F5F5F5F5F5F5F5F5F5F5F5F5F5F5F5F5F5F5F5F5F5F5F5F5F5F5F5F5F5F5F5F5F5F5F5F5F5F5F5F5F5F5F5F5F5F5F5F5F5F5F5F5F5F5F5
310
F5F5F5F5F5F5F5F5F5F5F5F5F5F5F5F5F5F5F5F5F5F5F5F5F5F5F5F5F5F5F5F5F5F5F5F5F5F5F5F5F5F5F5F5F5F5F5F5F5F5F5F5F5F5F5F5F5F5F5F5F5F5F5F5F5F5F5F5F5F5F5F5F5F5F5F5F5F5F5F5F5F5F5F5F5F5F5F5F5F5F5F5F5F5F5F5F5F5F5F5F5F5F5F5F5F5F5F5F5F5F5F5F5F5F5F5F5F5F5F5F5F5F5F5F5F5F5
310
F5F5F5F5F5F5F5F5F5F5F5F5F5F5F5F5F5F5F5F5F5F5F5F5F5F5F5F5F5F5F5F5F5F5F5F5F5F5F5F5F5F5F5F5F5F5F5F5F5F5F5F5F5F5F5F5F5F5F5F5F5F5F5F5F5F5F5F5F5F5F5F5F5F5F5F5F5F5F5F5F5F5F5F5F5F5F5F5F5F5F5F5F5F5F5F5F5F5F5F5F5F5F5F5F5F5F5F5F5F5F5F5F5F5F5F5F5F5F5F5F5F5F5F5F5F5F5
310
F5F5F5F5F5F5F5F5F5F5F5F5F5F5F5F5F5F5F5F5F5F5F5F5F5F5F5F5F5F5F5F5F5F5F5F5F5F5F5F5F5F5F5F5F5F5F5F5F5F5F5F5F5F5F5F5F5F5F5F5F5F5F5F5F5F5F5F5F5F5F5F5F5F5F5F5F5F5F5F5F5F5F5F5F5F5F5F5F5F5F5F5F5F5F5F5F5F5F5F5F5F5F5F5F5F5F5F5F5F5F5F5F5F5F5F5F5F5F5F5F5F5F5F5F5F5F5
310
F5F5F5F5F5F5F5F5F5F5F5F5F5F5F5F5F5F5F5F5F5F5F5F5F5F5F5F5F5F5F5F5F5F5F5F5F5F5F5F5F5F5F5F5F5F5F5F5F5F5F5F5F5F5F5F5F5F5F5F5F5F5F5F5F5F5F5F5F5F5F5F5F5F5F5F5F5F5F5F5F5F5F5F5F5F5F5F5F5F5F5F5F5F5F5F5F5F5F5F5F5F5F5F5F5F5F5F5F5F5F5F5F5F5F5F5F5F5F5F5F5F5F5F5F5F5F5
310
F5F5F5F5F5F5F5F5F5F5F5F5F5F5F5F5F5F5F5F5F5F5F5F5F5F5F5F5F5F5F5F5F5F5F5F5F5F5F5F5F5F5F5F5F5F5F5F5F5F5F5F5F5F5F5F5F5F5F5F5F5F5F5F5F5F5F5F5F5F5F5F5F5F5F5F5F5F5F5F5F5F5F5F5F5F5F5F5F5F5F5F5F5F5F5F5F5F5F5F5F5F5F5F5F5F5F5F5F5F5F5F5F5F5F5F5F5F5F5F5F5F5F5F5F5F5F5
310
F5F5F5F5F5F5F5F5F5F5F5F5F5F5F5F5F5F5F5F5F5F5F5F5F5F5F5F5F5F5F5F5F5F5F5F5F5F5F5F5F5F5F5F5F5F5F5F5F5F5F5F5F5F5F5F5F5F5F5F5F5F5F5F5F5F5F5F5F5F5F5F5F5F5F5F5F5F5F5F5F5F5F5F5F5F5F5F5F5F5F5F5F5F5F5F5F5F5F5F5F5F5F5F5F5F5F5F5F5F5F5F5F5F5F5F5F5F5F5F5F5F5F5F5F5F5F5
310
F5F5F5F5F5F5F5F5F5F5F5F5F5F5F5F5F5F5F5F5F5F5F5F5F5F5F5F5F5F5F5F5F5F5F5F5F5F5F5F5F5F5F5F5F5F5F5F5F5F5F5F5F5F5F5F5F5F5F5F5F5F5F5F5F5F5F5F5F5F5F5F5F5F5F5F5F5F5F5F5F5F5F5F5F5F5F5F5F5F5F5F5F5F5F5F5F5F5F5F5F5F5F5F5F5F5F5F5F5F5F5F5F5F5F5F5F5F5F5F5F5F5F5F5F5F5F5
310
F5F5F5F5F5F5F5F5F5F5F5F5F5F5F5F5F5F5F5F5F5F5F5F5F5F5F5F5F5F5F5F5F5F5F5F5F5F5F5F5F5F5F5F5F5F5F5F5F5F5F5F5F5F5F5F5F5F5F5F5F5F5F5F5F5F5F5F5F5F5F5F5F5F5F5F5F5F5F5F5F5F5F5F5F5F5F5F5F5F5F5F5F5F5F5F5F5F5F5F5F5F5F5F5F5F5F5F5F5F5F5F5F5F5F5F5F5F5F5F5F5F5F5F5F5F5F5
310
F5F5F5F5F5F5F5F5F5F5F5F5F5F5F5F5F5F5F5F5F5F5F5F5F5F5F5F5F5F5F5F5F5F5F5F5F5F5F5F5F5F5F5F5F5F5F5F5F5F5F5F5F5F5F5F5F5F5F5F5F5F5F5F5F5F5F5F5F5F5F5F5F5F5F5F5F5F5F5F5F5F5F5F5F5F5F5F5F5F5F5F5F5F5F5F5F5F5F5F5F5F5F5F5F5F5F5F5F5F5F5F5F5F5F5F5F5F5F5F5F5F5F5F5F5F5F5
310
F5F5F5F5F5F5F5F5F5F5F5F5F5F5F5F5F5F5F5F5F5F5F5F5F5F5F5F5F5F5F5F5F5F5F5F5F5F5F5F5F5F5F5F5F5F5F5F5F5F5F5F5F5F5F5F5F5F5F5F5F5F5F5F5F5F5F5F5F5F5F5F5F5F5F5F5F5F5F5F5F5F5F5F5F5F5F5F5F5F5F5F5F5F5F5F5F5F5F5F5F5F5F5F5F5F5F5F5F5F5F5F5F5F5F5F5F5F5F5F5F5F5F5F5F5F5F5
310
F5F5F5F5F5F5F5F5F5F5F5F5F5F5F5F5F5F5F5F5F5F5F5F5F5F5F5F5F5F5F5F5F5F5F5F5F5F5F5F5F5F5F5F5F5F5F5F5F5F5F5F5F5F5F5F5F5F5F5F5F5F5F5F5F5F5F5F5F5F5F5F5F5F5F5F5F5F5F5F5F5F5F5F5F5F5F5F5F5F5F5F5F5F5F5F5F5F5F5F5F5F5F5F5F5F5F5F5F5F5F5F5F5F5F5F5F5F5F5F5F5F5F5F5F5F5F5
310
F5F5F5F5F5F5F5F5F5F5F5F5F5F5F5F5F5F5F5F5F5F5F5F5F5F5F5F5F5F5F5F5F5F5F5F5F5F5F5F5F5F5F5F5F5F5F5F5F5F5F5F5F5F5F5F5F5F5F5F5F5F5F5F5F5F5F5F5F5F5F5F5F5F5F5F5F5F5F5F5F5F5F5F5F5F5F5F5F5F5F5F5F5F5F5F5F5F5F5F5F5F5F5F5F5F5F5F5F5F5F5F5F5F5F5F5F5F5F5F5F5F5F5F5F5F5F5
310
F5F5F5F5F5F5F5F5F5F5F5F5F5F5F5F5F5F5F5F5F5F5F5F5F5F5F5F5F5F5F5F5F5F5F5F5F5F5F5F5F5F5F5F5F5F5F5F5F5F5F5F5F5F5F5F5F5F5F5F5F5F5F5F5F5F5F5F5F5F5F5F5F5F5F5F5F5F5F5F5F5F5F5F5F5F5F5F5F5F5F5F5F5F5F5F5F5F5F5F5F5F5F5F5F5F5F5F5F5F5F5F5F5F5F5F5F5F5F5F5F5F5F5F5F5F5F5
310
F5F5F5F5F5F5F5F5F5F5F5F5F5F5F5F5F5F5F5F5F5F5F5F5F5F5F5F5F5F5F5F5F5F5F5F5F5F5F5F5F5F5F5F5F5F5F5F5F5F5F5F5F5F5F5F5F5F5F5F5F5F5F5F5F5F5F5F5F5F5F5F5F5F5F5F5F5F5F5F5F5F5F5F5F5F5F5F5F5F5F5F5F5F5F5F5F5F5F5F5F5F5F5F5F5F5F5F5F5F5F5F5F5F5F5F5F5F5F5F5F5F5F5F5F5F5F5
310
F5F5F5F5F5F5F5F5F5F5F5F5F5F5F5F5F5F5F5F5F5F5F5F5F5F5F5F5F5F5F5F5F5F5F5F5F5F5F5F5F5F5F5F5F5F5F5F5F5F5F5F5F5F5F5F5F5F5F5F5F5F5F5F5F5F5F5F5F5F5F5F5F5F5F5F5F5F5F5F5F5F5F5F5F5F5F5F5F5F5F5F5F5F5F5F5F5F5F5F5F5F5F5F5F5F5F5F5F5F5F5F5F5F5F5F5F5F5F5F5F5F5F5F5F5F5F5
310
F5F5F5F5F5F5F5F5F5F5F5F5F5F5F5F5F5F5F5F5F5F5F5F5F5F5F5F5F5F5F5F5F5F5F5F5F5F5F5F5F5F5F5F5F5F5F5F5F5F5F5F5F5F5F5F5F5F5F5F5F5F5F5F5F5F5F5F5F5F5F5F5F5F5F5F5F5F5F5F5F5F5F5F5F5F5F5F5F5F5F5F5F5F5F5F5F5F5F5F5F5F5F5F5F5F5F5F5F5F5F5F5F5F5F5F5F5F5F5F5F5F5F5F5F5F5F5
310
F5F5F5F5F5F5F5F5F5F5F5F5F5F5F5F5F5F5F5F5F5F5F5F5F5F5F5F5F5F5F5F5F5F5F5F5F5F5F5F5F5F5F5F5F5F5F5F5F5F5F5F5F5F5F5F5F5F5F5F5F5F5F5F5F5F5F5F5F5F5F5F5F5F5F5F5F5F5F5F5F5F5F5F5F5F5F5F5F5F5F5F5F5F5F5F5F5F5F5F5F5F5F5F5F5F5F5F5F5F5F5F5F5F5F5F5F5F5F5F5F5F5F5F5F5F5F5
310
F5F5F5F5F5F5F5F5F5F5F5F5F5F5F5F5F5F5F5F5F5F5F5F5F5F5F5F5F5F5F5F5F5F5F5F5F5F5F5F5F5F5F5F5F5F5F5F5F5F5F5F5F5F5F5F5F5F5F5F5F5F5F5F5F5F5F5F5F5F5F5F5F5F5F5F5F5F5F5F5F5F5F5F5F5F5F5F5F5F5F5F5F5F5F5F5F5F5F5F5F5F5F5F5F5F5F5F5F5F5F5F5F5F5F5F5F5F5F5F5F5F5F5F5F5F5F5
310
F5F5F5F5F5F5F5F5F5F5F5F5F5F5F5F5F5F5F5F5F5F5F5F5F5F5F5F5F5F5F5F5F5F5F5F5F5F5F5F5F5F5F5F5F5F5F5F5F5F5F5F5F5F5F5F5F5F5F5F5F5F5F5F5F5F5F5F5F5F5F5F5F5F5F5F5F5F5F5F5F5F5F5F5F5F5F5F5F5F5F5F5F5F5F5F5F5F5F5F5F5F5F5F5F5F5F5F5F5F5F5F5F5F5F5F5F5F5F5F5F5F5F5F5F5F5F5
310
F5F5F5F5F5F5F5F5F5F5F5F5F5F5F5F5F5F5F5F5F5F5F5F5F5F5F5F5F5F5F5F5F5F5F5F5F5F5F5F5F5F5F5F5F5F5F5F5F5F5F5F5F5F5F5F5F5F5F5F5F5F5F5F5F5F5F5F5F5F5F5F5F5F5F5F5F5F5F5F5F5F5F5F5F5F5F5F5F5F5F5F5F5F5F5F5F5F5F5F5F5F5F5F5F5F5F5F5F5F5F5F5F5F5F5F5F5F5F5F5F5F5F5F5F5F5F5
310
F5F5F5F5F5F5F5F5F5F5F5F5F5F5F5F5F5F5F5F5F5F5F5F5F5F5F5F5F5F5F5F5F5F5F5F5F5F5F5F5F5F5F5F5F5F5F5F5F5F5F5F5F5F5F5F5F5F5F5F5F5F5F5F5F5F5F5F5F5F5F5F5F5F5F5F5F5F5F5F5F5F5F5F5F5F5F5F5F5F5F5F5F5F5F5F5F5F5F5F5F5F5F5F5F5F5F5F5F5F5F5F5F5F5F5F5F5F5F5F5F5F5F5F5F5F5F5
310
F5F5F5F5F5F5F5F5F5F5F5F5F5F5F5F5F5F5F5F5F5F5F5F5F5F5F5F5F5F5F5F5F5F5F5F5F5F5F5F5F5F5F5F5F5F5F5F5F5F5F5F5F5F5F5F5F5F5F5F5F5F5F5F5F5F5F5F5F5F5F5F5F5F5F5F5F5F5F5F5F5F5F5F5F5F5F5F5F5F5F5F5F5F5F5F5F5F5F5F5F5F5F5F5F5F5F5F5F5F5F5F5F5F5F5F5F5F5F5F5F5F5F5F5F5F5F5
310
F5F5F5F5F5F5F5F5F5F5F5F5F5F5F5F5F5F5F5F5F5F5F5F5F5F5F5F5F5F5F5F5F5F5F5F5F5F5F5F5F5F5F5F5F5F5F5F5F5F5F5F5F5F5F5F5F5F5F5F5F5F5F5F5F5F5F5F5F5F5F5F5F5F5F5F5F5F5F5F5F5F5F5F5F5F5F5F5F5F5F5F5F5F5F5F5F5F5F5F5F5F5F5F5F5F5F5F5F5F5F5F5F5F5F5F5F5F5F5F5F5F5F5F5F5F5F5
310
F5F5F5F5F5F5F5F5F5F5F5F5F5F5F5F5F5F5F5F5F5F5F5F5F5F5F5F5F5F5F5F5F5F5F5F5F5F5F5F5F5F5F5F5F5F5F5F5F5F5F5F5F5F5F5F5F5F5F5F5F5F5F5F5F5F5F5F5F5F5F5F5F5F5F5F5F5F5F5F5F5F5F5F5F5F5F5F5F5F5F5F5F5F5F5F5F5F5F5F5F5F5F5F5F5F5F5F5F5F5F5F5F5F5F5F5F5F5F5F5F5F5F5F5F5F5F5
310
F5F5F5F5F5F5F5F5F5F5F5F5F5F5F5F5F5F5F5F5F5F5F5F5F5F5F5F5F5F5F5F5F5F5F5F5F5F5F5F5F5F5F5F5F5F5F5F5F5F5F5F5F5F5F5F5F5F5F5F5F5F5F5F5F5F5F5F5F5F5F5F5F5F5F5F5F5F5F5F5F5F5F5F5F5F5F5F5F5F5F5F5F5F5F5F5F5F5F5F5F5F5F5F5F5F5F5F5F5F5F5F5F5F5F5F5F5F5F5F5F5F5F5F5F5F5F5
310
F5F5F5F5F5F5F5F5F5F5F5F5F5F5F5F5F5F5F5F5F5F5F5F5F5F5F5F5F5F5F5F5F5F5F5F5F5F5F5F5F5F5F5F5F5F5F5F5F5F5F5F5F5F5F5F5F5F5F5F5F5F5F5F5F5F5F5F5F5F5F5F5F5F5F5F5F5F5F5F5F5F5F5F5F5F5F5F5F5F5F5F5F5F5F5F5F5F5F5F5F5F5F5F5F5F5F5F5F5F5F5F5F5F5F5F5F5F5F5F5F5F5F5F5F5F5F5
310
F5F5F5F5F5F5F5F5F5F5F5F5F5F5F5F5F5F5F5F5F5F5F5F5F5F5F5F5F5F5F5F5F5F5F5F5F5F5F5F5F5F5F5F5F5F5F5F5F5F5F5F5F5F5F5F5F5F5F5F5F5F5F5F5F5F5F5F5F5F5F5F5F5F5F5F5F5F5F5F5F5F5F5F5F5F5F5F5F5F5F5F5F5F5F5F5F5F5F5F5F5F5F5F5F5F5F5F5F5F5F5F5F5F5F5F5F5F5F5F5F5F5F5F5F5F5F5
310
F5F5F5F5F5F5F5F5F5F5F5F5F5F5F5F5F5F5F5F5F5F5F5F5F5F5F5F5F5F5F5F5F5F5F5F5F5F5F5F5F5F5F5F5F5F5F5F5F5F5F5F5F5F5F5F5F5F5F5F5F5F5F5F5F5F5F5F5F5F5F5F5F5F5F5F5F5F5F5F5F5F5F5F5F5F5F5F5F5F5F5F5F5F5F5F5F5F5F5F5F5F5F5F5F5F5F5F5F5F5F5F5F5F5F5F5F5F5F5F5F5F5F5F5F5F5F5
310
F5F5F5F5F5F5F5F5F5F5F5F5F5F5F5F5F5F5F5F5F5F5F5F5F5F5F5F5F5F5F5F5F5F5F5F5F5F5F5F5F5F5F5F5F5F5F5F5F5F5F5F5F5F5F5F5F5F5F5F5F5F5F5F5F5F5F5F5F5F5F5F5F5F5F5F5F5F5F5F5F5F5F5F5F5F5F5F5F5F5F5F5F5F5F5F5F5F5F5F5F5F5F5F5F5F5F5F5F5F5F5F5F5F5F5F5F5F5F5F5F5F5F5F5F5F5F5
310
F5F5F5F5F5F5F5F5F5F5F5F5F5F5F5F5F5F5F5F5F5F5F5F5F5F5F5F5F5F5F5F5F5F5F5F5F5F5F5F5F5F5F5F5F5F5F5F5F5F5F5F5F5F5F5F5F5F5F5F5F5F5F5F5F5F5F5F5F5F5F5F5F5F5F5F5F5F5F5F5F5F5F5F5F5F5F5F5F5F5F5F5F5F5F5F5F5F5F5F5F5F5F5F5F5F5F5F5F5F5F5F5F5F5F5F5F5F5F5F5F5F5F5F5F5F5F5
310
F5F5F5F5F5F5F5F5F5F5F5F5F5F5F5F5F5F5F5F5F5F5F5F5F5F5F5F5F5F5F5F5F5F5F5F5F5F5F5F5F5F5F5F5F5F5F5F5F5F5F5F5F5F5F5F5F5F5F5F5F5F5F5F5F5F5F5F5F5F5F5F5F5F5F5F5F5F5F5F5F5F5F5F5F5F5F5F5F5F5F5F5F5F5F5F5F5F5F5F5F5F5F5F5F5F5F5F5F5F5F5F5F5F5F5F5F5F5F5F5F5F5F5F5F5F5F5
310
F5F5F5F5F5F5F5F5F5F5F5F5F5F5F5F5F5F5F5F5F5F5F5F5F5F5F5F5F5F5F5F5F5F5F5F5F5F5F5F5F5F5F5F5F5F5F5F5F5F5F5F5F5F5F5F5F5F5F5F5F5F5F5F5F5F5F5F5F5F5F5F5F5F5F5F5F5F5F5F5F5F5F5F5F5F5F5F5F5F5F5F5F5F5F5F5F5F5F5F5F5F5F5F5F5F5F5F5F5F5F5F5F5F5F5F5F5F5F5F5F5F5F5F5F5F5F5
310
F5F5F5F5F5F5F5F5F5F5F5F5F5F5F5F5F5F5F5F5F5F5F5F5F5F5F5F5F5F5F5F5F5F5F5F5F5F5F5F5F5F5F5F5F5F5F5F5F5F5F5F5F5F5F5F5F5F5F5F5F5F5F5F5F5F5F5F5F5F5F5F5F5F5F5F5F5F5F5F5F5F5F5F5F5F5F5F5F5F5F5F5F5F5F5F5F5F5F5F5F5F5F5F5F5F5F5F5F5F5F5F5F5F5F5F5F5F5F5F5F5F5F5F5F5F5F5
310
F5F5F5F5F5F5F5F5F5F5F5F5F5F5F5F5F5F5F5F5F5F5F5F5F5F5F5F5F5F5F5F5F5F5F5F5F5F5F5F5F5F5F5F5F5F5F5F5F5F5F5F5F5F5F5F5F5F5F5F5F5F5F5F5F5F5F5F5F5F5F5F5F5F5F5F5F5F5F5F5F5F5F5F5F5F5F5F5F5F5F5F5F5F5F5F5F5F5F5F5F5F5F5F5F5F5F5F5F5F5F5F5F5F5F5F5F5F5F5F5F5F5F5F5F5F5F5
310
F5F5F5F5F5F5F5F5F5F5F5F5F5F5F5F5F5F5F5F5F5F5F5F5F5F5F5F5F5F5F5F5F5F5F5F5F5F5F5F5F5F5F5F5F5F5F5F5F5F5F5F5F5F5F5F5F5F5F5F5F5F5F5F5F5F5F5F5F5F5F5F5F5F5F5F5F5F5F5F5F5F5F5F5F5F5F5F5F5F5F5F5F5F5F5F5F5F5F5F5F5F5F5F5F5F5F5F5F5F5F5F5F5F5F5F5F5F5F5F5F5F5F5F5F5F5F5
310
F5F5F5F5F5F5F5F5F5F5F5F5F5F5F5F5F5F5F5F5F5F5F5F5F5F5F5F5F5F5F5F5F5F5F5F5F5F5F5F5F5F5F5F5F5F5F5F5F5F5F5F5F5F5F5F5F5F5F5F5F5F5F5F5F5F5F5F5F5F5F5F5F5F5F5F5F5F5F5F5F5F5F5F5F5F5F5F5F5F5F5F5F5F5F5F5F5F5F5F5F5F5F5F5F5F5F5F5F5F5F5F5F5F5F5F5F5F5F5F5F5F5F5F5F5F5F5
310
F5F5F5F5F5F5F5F5F5F5F5F5F5F5F5F5F5F5F5F5F5F5F5F5F5F5F5F5F5F5F5F5F5F5F5F5F5F5F5F5F5F5F5F5F5F5F5F5F5F5F5F5F5F5F5F5F5F5F5F5F5F5F5F5F5F5F5F5F5F5F5F5F5F5F5F5F5F5F5F5F5F5F5F5F5F5F5F5F5F5F5F5F5F5F5F5F5F5F5F5F5F5F5F5F5F5F5F5F5F5F5F5F5F5F5F5F5F5F5F5F5F5F5F5F5F5F5
310
F5F5F5F5F5F5F5F5F5F5F5F5F5F5F5F5F5F5F5F5F5F5F5F5F5F5F5F5F5F5F5F5F5F5F5F5F5F5F5F5F5F5F5F5F5F5F5F5F5F5F5F5F5F5F5F5F5F5F5F5F5F5F5F5F5F5F5F5F5F5F5F5F5F5F5F5F5F5F5F5F5F5F5F5F5F5F5F5F5F5F5F5F5F5F5F5F5F5F5F5F5F5F5F5F5F5F5F5F5F5F5F5F5F5F5F5F5F5F5F5F5F5F5F5F5F5F5
310
F5F5F5F5F5F5F5F5F5F5F5F5F5F5F5F5F5F5F5F5F5F5F5F5F5F5F5F5F5F5F5F5F5F5F5F5F5F5F5F5F5F5F5F5F5F5F5F5F5F5F5F5F5F5F5F5F5F5F5F5F5F5F5F5F5F5F5F5F5F5F5F5F5F5F5F5F5F5F5F5F5F5F5F5F5F5F5F5F5F5F5F5F5F5F5F5F5F5F5F5F5F5F5F5F5F5F5F5F5F5F5F5F5F5F5F5F5F5F5F5F5F5F5F5F5F5F5
310
F5F5F5F5F5F5F5F5F5F5F5F5F5F5F5F5F5F5F5F5F5F5F5F5F5F5F5F5F5F5F5F5F5F5F5F5F5F5F5F5F5F5F5F5F5F5F5F5F5F5F5F5F5F5F5F5F5F5F5F5F5F5F5F5F5F5F5F5F5F5F5F5F5F5F5F5F5F5F5F5F5F5F5F5F5F5F5F5F5F5F5F5F5F5F5F5F5F5F5F5F5F5F5F5F5F5F5F5F5F5F5F5F5F5F5F5F5F5F5F5F5F5F5F5F5F5F5
310
F5F5F5F5F5F5F5F5F5F5F5F5F5F5F5F5F5F5F5F5F5F5F5F5F5F5F5F5F5F5F5F5F5F5F5F5F5F5F5F5F5F5F5F5F5F5F5F5F5F5F5F5F5F5F5F5F5F5F5F5F5F5F5F5F5F5F5F5F5F5F5F5F5F5F5F5F5F5F5F5F5F5F5F5F5F5F5F5F5F5F5F5F5F5F5F5F5F5F5F5F5F5F5F5F5F5F5F5F5F5F5F5F5F5F5F5F5F5F5F5F5F5F5F5F5F5F5
310
F5F5F5F5F5F5F5F5F5F5F5F5F5F5F5F5F5F5F5F5F5F5F5F5F5F5F5F5F5F5F5F5F5F5F5F5F5F5F5F5F5F5F5F5F5F5F5F5F5F5F5F5F5F5F5F5F5F5F5F5F5F5F5F5F5F5F5F5F5F5F5F5F5F5F5F5F5F5F5F5F5F5F5F5F5F5F5F5F5F5F5F5F5F5F5F5F5F5F5F5F5F5F5F5F5F5F5F5F5F5F5F5F5F5F5F5F5F5F5F5F5F5F5F5F5F5F5
310
F5F5F5F5F5F5F5F5F5F5F5F5F5F5F5F5F5F5F5F5F5F5F5F5F5F5F5F5F5F5F5F5F5F5F5F5F5F5F5F5F5F5F5F5F5F5F5F5F5F5F5F5F5F5F5F5F5F5F5F5F5F5F5F5F5F5F5F5F5F5F5F5F5F5F5F5F5F5F5F5F5F5F5F5F5F5F5F5F5F5F5F5F5F5F5F5F5F5F5F5F5F5F5F5F5F5F5F5F5F5F5F5F5F5F5F5F5F5F5F5F5F5F5F5F5F5F5
310
F5F5F5F5F5F5F5F5F5F5F5F5F5F5F5F5F5F5F5F5F5F5F5F5F5F5F5F5F5F5F5F5F5F5F5F5F5F5F5F5F5F5F5F5F5F5F5F5F5F5F5F5F5F5F5F5F5F5F5F5F5F5F5F5F5F5F5F5F5F5F5F5F5F5F5F5F5F5F5F5F5F5F5F5F5F5F5F5F5F5F5F5F5F5F5F5F5F5F5F5F5F5F5F5F5F5F5F5F5F5F5F5F5F5F5F5F5F5F5F5F5F5F5F5F5F5F5
310
F5F5F5F5F5F5F5F5F5F5F5F5F5F5F5F5F5F5F5F5F5F5F5F5F5F5F5F5F5F5F5F5F5F5F5F5F5F5F5F5F5F5F5F5F5F5F5F5F5F5F5F5F5F5F5F5F5F5F5F5F5F5F5F5F5F5F5F5F5F5F5F5F5F5F5F5F5F5F5F5F5F5F5F5F5F5F5F5F5F5F5F5F5F5F5F5F5F5F5F5F5F5F5F5F5F5F5F5F5F5F5F5F5F5F5F5F5F5F5F5F5F5F5F5F5F5F5
310
F5F5F5F5F5F5F5F5F5F5F5F5F5F5F5F5F5F5F5F5F5F5F5F5F5F5F5F5F5F5F5F5F5F5F5F5F5F5F5F5F5F5F5F5F5F5F5F5F5F5F5F5F5F5F5F5F5F5F5F5F5F5F5F5F5F5F5F5F5F5F5F5F5F5F5F5F5F5F5F5F5F5F5F5F5F5F5F5F5F5F5F5F5F5F5F5F5F5F5F5F5F5F5F5F5F5F5F5F5F5F5F5F5F5F5F5F5F5F5F5F5F5F5F5F5F5F5
310
F5F5F5F5F5F5F5F5F5F5F5F5F5F5F5F5F5F5F5F5F5F5F5F5F5F5F5F5F5F5F5F5F5F5F5F5F5F5F5F5F5F5F5F5F5F5F5F5F5F5F5F5F5F5F5F5F5F5F5F5F5F5F5F5F5F5F5F5F5F5F5F5F5F5F5F5F5F5F5F5F5F5F5F5F5F5F5F5F5F5F5F5F5F5F5F5F5F5F5F5F5F5F5F5F5F5F5F5F5F5F5F5F5F5F5F5F5F5F5F5F5F5F5F5F5F5F5
310
F5F5F5F5F5F5F5F5F5F5F5F5F5F5F5F5F5F5F5F5F5F5F5F5F5F5F5F5F5F5F5F5F5F5F5F5F5F5F5F5F5F5F5F5F5F5F5F5F5F5F5F5F5F5F5F5F5F5F5F5F5F5F5F5F5F5F5F5F5F5F5F5F5F5F5F5F5F5F5F5F5F5F5F5F5F5F5F5F5F5F5F5F5F5F5F5F5F5F5F5F5F5F5F5F5F5F5F5F5F5F5F5F5F5F5F5F5F5F5F5F5F5F5F5F5F5F5
310
F5F5F5F5F5F5F5F5F5F5F5F5F5F5F5F5F5F5F5F5F5F5F5F5F5F5F5F5F5F5F5F5F5F5F5F5F5F5F5F5F5F5F5F5F5F5F5F5F5F5F5F5F5F5F5F5F5F5F5F5F5F5F5F5F5F5F5F5F5F5F5F5F5F5F5F5F5F5F5F5F5F5F5F5F5F5F5F5F5F5F5F5F5F5F5F5F5F5F5F5F5F5F5F5F5F5F5F5F5F5F5F5F5F5F5F5F5F5F5F5F5F5F5F5F5F5F5
310
F5F5F5F5F5F5F5F5F5F5F5F5F5F5F5F5F5F5F5F5F5F5F5F5F5F5F5F5F5F5F5F5F5F5F5F5F5F5F5F5F5F5F5F5F5F5F5F5F5F5F5F5F5F5F5F5F5F5F5F5F5F5F5F5F5F5F5F5F5F5F5F5F5F5F5F5F5F5F5F5F5F5F5F5F5F5F5F5F5F5F5F5F5F5F5F5F5F5F5F5F5F5F5F5F5F5F5F5F5F5F5F5F5F5F5F5F5F5F5F5F5F5F5F5F5F5F5
310
F5F5F5F5F5F5F5F5F5F5F5F5F5F5F5F5F5F5F5F5F5F5F5F5F5F5F5F5F5F5F5F5F5F5F5F5F5F5F5F5F5F5F5F5F5F5F5F5F5F5F5F5F5F5F5F5F5F5F5F5F5F5F5F5F5F5F5F5F5F5F5F5F5F5F5F5F5F5F5F5F5F5F5F5F5F5F5F5F5F5F5F5F5F5F5F5F5F5F5F5F5F5F5F5F5F5F5F5F5F5F5F5F5F5F5F5F5F5F5F5F5F5F5F5F5F5F5
310
F5F5F5F5F5F5F5F5F5F5F5F5F5F5F5F5F5F5F5F5F5F5F5F5F5F5F5F5F5F5F5F5F5F5F5F5F5F5F5F5F5F5F5F5F5F5F5F5F5F5F5F5F5F5F5F5F5F5F5F5F5F5F5F5F5F5F5F5F5F5F5F5F5F5F5F5F5F5F5F5F5F5F5F5F5F5F5F5F5F5F5F5F5F5F5F5F5F5F5F5F5F5F5F5F5F5F5F5F5F5F5F5F5F5F5F5F5F5F5F5F5F5F5F5F5F5F5
310
F5F5F5F5F5F5F5F5F5F5F5F5F5F5F5F5F5F5F5F5F5F5F5F5F5F5F5F5F5F5F5F5F5F5F5F5F5F5F5F5F5F5F5F5F5F5F5F5F5F5F5F5F5F5F5F5F5F5F5F5F5F5F5F5F5F5F5F5F5F5F5F5F5F5F5F5F5F5F5F5F5F5F5F5F5F5F5F5F5F5F5F5F5F5F5F5F5F5F5F5F5F5F5F5F5F5F5F5F5F5F5F5F5F5F5F5F5F5F5F5F5F5F5F5F5F5F5
310
F5F5F5F5F5F5F5F5F5F5F5F5F5F5F5F5F5F5F5F5F5F5F5F5F5F5F5F5F5F5F5F5F5F5F5F5F5F5F5F5F5F5F5F5F5F5F5F5F5F5F5F5F5F5F5F5F5F5F5F5F5F5F5F5F5F5F5F5F5F5F5F5F5F5F5F5F5F5F5F5F5F5F5F5F5F5F5F5F5F5F5F5F5F5F5F5F5F5F5F5F5F5F5F5F5F5F5F5F5F5F5F5F5F5F5F5F5F5F5F5F5F5F5F5F5F5F5
310
F5F5F5F5F5F5F5F5F5F5F5F5F5F5F5F5F5F5F5F5F5F5F5F5F5F5F5F5F5F5F5F5F5F5F5F5F5F5F5F5F5F5F5F5F5F5F5F5F5F5F5F5F5F5F5F5F5F5F5F5F5F5F5F5F5F5F5F5F5F5F5F5F5F5F5F5F5F5F5F5F5F5F5F5F5F5F5F5F5F5F5F5F5F5F5F5F5F5F5F5F5F5F5F5F5F5F5F5F5F5F5F5F5F5F5F5F5F5F5F5F5F5F5F5F5F5F5
310
F5F5F5F5F5F5F5F5F5F5F5F5F5F5F5F5F5F5F5F5F5F5F5F5F5F5F5F5F5F5F5F5F5F5F5F5F5F5F5F5F5F5F5F5F5F5F5F5F5F5F5F5F5F5F5F5F5F5F5F5F5F5F5F5F5F5F5F5F5F5F5F5F5F5F5F5F5F5F5F5F5F5F5F5F5F5F5F5F5F5F5F5F5F5F5F5F5F5F5F5F5F5F5F5F5F5F5F5F5F5F5F5F5F5F5F5F5F5F5F5F5F5F5F5F5F5F5
310
F5F5F5F5F5F5F5F5F5F5F5F5F5F5F5F5F5F5F5F5F5F5F5F5F5F5F5F5F5F5F5F5F5F5F5F5F5F5F5F5F5F5F5F5F5F5F5F5F5F5F5F5F5F5F5F5F5F5F5F5F5F5F5F5F5F5F5F5F5F5F5F5F5F5F5F5F5F5F5F5F5F5F5F5F5F5F5F5F5F5F5F5F5F5F5F5F5F5F5F5F5F5F5F5F5F5F5F5F5F5F5F5F5F5F5F5F5F5F5F5F5F5F5F5F5F5F5
310
F5F5F5F5F5F5F5F5F5F5F5F5F5F5F5F5F5F5F5F5F5F5F5F5F5F5F5F5F5F5F5F5F5F5F5F5F5F5F5F5F5F5F5F5F5F5F5F5F5F5F5F5F5F5F5F5F5F5F5F5F5F5F5F5F5F5F5F5F5F5F5F5F5F5F5F5F5F5F5F5F5F5F5F5F5F5F5F5F5F5F5F5F5F5F5F5F5F5F5F5F5F5F5F5F5F5F5F5F5F5F5F5F5F5F5F5F5F5F5F5F5F5F5F5F5F5F5
310
F5F5F5F5F5F5F5F5F5F5F5F5F5F5F5F5F5F5F5F5F5F5F5F5F5F5F5F5F5F5F5F5F5F5F5F5F5F5F5F5F5F5F5F5F5F5F5F5F5F5F5F5F5F5F5F5F5F5F5F5F5F5F5F5F5F5F5F5F5F5F5F5F5F5F5F5F5F5F5F5F5F5F5F5F5F5F5F5F5F5F5F5F5F5F5F5F5F5F5F5F5F5F5F5F5F5F5F5F5F5F5F5F5F5F5F5F5F5F5F5F5F5F5F5F5F5F5
310
F5F5F5F5F5F5F5F5F5F5F5F5F5F5F5F5F5F5F5F5F5F5F5F5F5F5F5F5F5F5F5F5F5F5F5F5F5F5F5F5F5F5F5F5F5F5F5F5F5F5F5F5F5F5F5F5F5F5F5F5F5F5F5F5F5F5F5F5F5F5F5F5F5F5F5F5F5F5F5F5F5F5F5F5F5F5F5F5F5F5F5F5F5F5F5F5F5F5F5F5F5F5F5F5F5F5F5F5F5F5F5F5F5F5F5F5F5F5F5F5F5F5F5F5F5F5F5
310
F5F5F5F5F5F5F5F5F5F5F5F5F5F5F5F5F5F5F5F5F5F5F5F5F5F5F5F5F5F5F5F5F5F5F5F5F5F5F5F5F5F5F5F5F5F5F5F5F5F5F5F5F5F5F5F5F5F5F5F5F5F5F5F5F5F5F5F5F5F5F5F5F5F5F5F5F5F5F5F5F5F5F5F5F5F5F5F5F5F5F5F5F5F5F5F5F5F5F5F5F5F5F5F5F5F5F5F5F5F5F5F5F5F5F5F5F5F5F5F5F5F5F5F5F5F5F5
310
F5F5F5F5F5F5F5F5F5F5F5F5F5F5F5F5F5F5F5F5F5F5F5F5F5F5F5F5F5F5F5F5F5F5F5F5F5F5F5F5F5F5F5F5F5F5F5F5F5F5F5F5F5F5F5F5F5F5F5F5F5F5F5F5F5F5F5F5F5F5F5F5F5F5F5F5F5F5F5F5F5F5F5F5F5F5F5F5F5F5F5F5F5F5F5F5F5F5F5F5F5F5F5F5F5F5F5F5F5F5F5F5F5F5F5F5F5F5F5F5F5F5F5F5F5F5F5
310
F5F5F5F5F5F5F5F5F5F5F5F5F5F5F5F5F5F5F5F5F5F5F5F5F5F5F5F5F5F5F5F5F5F5F5F5F5F5F5F5F5F5F5F5F5F5F5F5F5F5F5F5F5F5F5F5F5F5F5F5F5F5F5F5F5F5F5F5F5F5F5F5F5F5F5F5F5F5F5F5F5F5F5F5F5F5F5F5F5F5F5F5F5F5F5F5F5F5F5F5F5F5F5F5F5F5F5F5F5F5F5F5F5F5F5F5F5F5F5F5F5F5F5F5F5F5F5
310
F5F5F5F5F5F5F5F5F5F5F5F5F5F5F5F5F5F5F5F5F5F5F5F5F5F5F5F5F5F5F5F5F5F5F5F5F5F5F5F5F5F5F5F5F5F5F5F5F5F5F5F5F5F5F5F5F5F5F5F5F5F5F5F5F5F5F5F5F5F5F5F5F5F5F5F5F5F5F5F5F5F5F5F5F5F5F5F5F5F5F5F5F5F5F5F5F5F5F5F5F5F5F5F5F5F5F5F5F5F5F5F5F5F5F5F5F5F5F5F5F5F5F5F5F5F5F5
310
F5F5F5F5F5F5F5F5F5F5F5F5F5F5F5F5F5F5F5F5F5F5F5F5F5F5F5F5F5F5F5F5F5F5F5F5F5F5F5F5F5F5F5F5F5F5F5F5F5F5F5F5F5F5F5F5F5F5F5F5F5F5F5F5F5F5F5F5F5F5F5F5F5F5F5F5F5F5F5F5F5F5F5F5F5F5F5F5F5F5F5F5F5F5F5F5F5F5F5F5F5F5F5F5F5F5F5F5F5F5F5F5F5F5F5F5F5F5F5F5F5F5F5F5F5F5F5
310
F5F5F5F5F5F5F5F5F5F5F5F5F5F5F5F5F5F5F5F5F5F5F5F5F5F5F5F5F5F5F5F5F5F5F5F5F5F5F5F5F5F5F5F5F5F5F5F5F5F5F5F5F5F5F5F5F5F5F5F5F5F5F5F5F5F5F5F5F5F5F5F5F5F5F5F5F5F5F5F5F5F5F5F5F5F5F5F5F5F5F5F5F5F5F5F5F5F5F5F5F5F5F5F5F5F5F5F5F5F5F5F5F5F5F5F5F5F5F5F5F5F5F5F5F5F5F5
310
F5F5F5F5F5F5F5F5F5F5F5F5F5F5F5F5F5F5F5F5F5F5F5F5F5F5F5F5F5F5F5F5F5F5F5F5F5F5F5F5F5F5F5F5F5F5F5F5F5F5F5F5F5F5F5F5F5F5F5F5F5F5F5F5F5F5F5F5F5F5F5F5F5F5F5F5F5F5F5F5F5F5F5F5F5F5F5F5F5F5F5F5F5F5F5F5F5F5F5F5F5F5F5F5F5F5F5F5F5F5F5F5F5F5F5F5F5F5F5F5F5F5F5F5F5F5F5
310
F5F5F5F5F5F5F5F5F5F5F5F5F5F5F5F5F5F5F5F5F5F5F5F5F5F5F5F5F5F5F5F5F5F5F5F5F5F5F5F5F5F5F5F5F5F5F5F5F5F5F5F5F5F5F5F5F5F5F5F5F5F5F5F5F5F5F5F5F5F5F5F5F5F5F5F5F5F5F5F5F5F5F5F5F5F5F5F5F5F5F5F5F5F5F5F5F5F5F5F5F5F5F5F5F5F5F5F5F5F5F5F5F5F5F5F5F5F5F5F5F5F5F5F5F5F5F5
310
F5F5F5F5F5F5F5F5F5F5F5F5F5F5F5F5F5F5F5F5F5F5F5F5F5F5F5F5F5F5F5F5F5F5F5F5F5F5F5F5F5F5F5F5F5F5F5F5F5F5F5F5F5F5F5F5F5F5F5F5F5F5F5F5F5F5F5F5F5F5F5F5F5F5F5F5F5F5F5F5F5F5F5F5F5F5F5F5F5F5F5F5F5F5F5F5F5F5F5F5F5F5F5F5F5F5F5F5F5F5F5F5F5F5F5F5F5F5F5F5F5F5F5F5F5F5F5
310
F5F5F5F5F5F5F5F5F5F5F5F5F5F5F5F5F5F5F5F5F5F5F5F5F5F5F5F5F5F5F5F5F5F5F5F5F5F5F5F5F5F5F5F5F5F5F5F5F5F5F5F5F5F5F5F5F5F5F5F5F5F5F5F5F5F5F5F5F5F5F5F5F5F5F5F5F5F5F5F5F5F5F5F5F5F5F5F5F5F5F5F5F5F5F5F5F5F5F5F5F5F5F5F5F5F5F5F5F5F5F5F5F5F5F5F5F5F5F5F5F5F5F5F5F5F5F5
310
F5F5F5F5F5F5F5F5F5F5F5F5F5F5F5F5F5F5F5F5F5F5F5F5F5F5F5F5F5F5F5F5F5F5F5F5F5F5F5F5F5F5F5F5F5F5F5F5F5F5F5F5F5F5F5F5F5F5F5F5F5F5F5F5F5F5F5F5F5F5F5F5F5F5F5F5F5F5F5F5F5F5F5F5F5F5F5F5F5F5F5F5F5F5F5F5F5F5F5F5F5F5F5F5F5F5F5F5F5F5F5F5F5F5F5F5F5F5F5F5F5F5F5F5F5F5F5
310
F5F5F5F5F5F5F5F5F5F5F5F5F5F5F5F5F5F5F5F5F5F5F5F5F5F5F5F5F5F5F5F5F5F5F5F5F5F5F5F5F5F5F5F5F5F5F5F5F5F5F5F5F5F5F5F5F5F5F5F5F5F5F5F5F5F5F5F5F5F5F5F5F5F5F5F5F5F5F5F5F5F5F5F5F5F5F5F5F5F5F5F5F5F5F5F5F5F5F5F5F5F5F5F5F5F5F5F5F5F5F5F5F5F5F5F5F5F5F5F5F5F5F5F5F5F5F5
310
F5F5F5F5F5F5F5F5F5F5F5F5F5F5F5F5F5F5F5F5F5F5F5F5F5F5F5F5F5F5F5F5F5F5F5F5F5F5F5F5F5F5F5F5F5F5F5F5F5F5F5F5F5F5F5F5F5F5F5F5F5F5F5F5F5F5F5F5F5F5F5F5F5F5F5F5F5F5F5F5F5F5F5F5F5F5F5F5F5F5F5F5F5F5F5F5F5F5F5F5F5F5F5F5F5F5F5F5F5F5F5F5F5F5F5F5F5F5F5F5F5F5F5F5F5F5F5
310
F5F5F5F5F5F5F5F5F5F5F5F5F5F5F5F5F5F5F5F5F5F5F5F5F5F5F5F5F5F5F5F5F5F5F5F5F5F5F5F5F5F5F5F5F5F5F5F5F5F5F5F5F5F5F5F5F5F5F5F5F5F5F5F5F5F5F5F5F5F5F5F5F5F5F5F5F5F5F5F5F5F5F5F5F5F5F5F5F5F5F5F5F5F5F5F5F5F5F5F5F5F5F5F5F5F5F5F5F5F5F5F5F5F5F5F5F5F5F5F5F5F5F5F5F5F5F5
310
F5F5F5F5F5F5F5F5F5F5F5F5F5F5F5F5F5F5F5F5F5F5F5F5F5F5F5F5F5F5F5F5F5F5F5F5F5F5F5F5F5F5F5F5F5F5F5F5F5F5F5F5F5F5F5F5F5F5F5F5F5F5F5F5F5F5F5F5F5F5F5F5F5F5F5F5F5F5F5F5F5F5F5F5F5F5F5F5F5F5F5F5F5F5F5F5F5F5F5F5F5F5F5F5F5F5F5F5F5F5F5F5F5F5F5F5F5F5F5F5F5F5F5F5F5F5F5
310
F5F5F5F5F5F5F5F5F5F5F5F5F5F5F5F5F5F5F5F5F5F5F5F5F5F5F5F5F5F5F5F5F5F5F5F5F5F5F5F5F5F5F5F5F5F5F5F5F5F5F5F5F5F5F5F5F5F5F5F5F5F5F5F5F5F5F5F5F5F5F5F5F5F5F5F5F5F5F5F5F5F5F5F5F5F5F5F5F5F5F5F5F5F5F5F5F5F5F5F5F5F5F5F5F5F5F5F5F5F5F5F5F5F5F5F5F5F5F5F5F5F5F5F5F5F5F5
310
F5F5F5F5F5F5F5F5F5F5F5F5F5F5F5F5F5F5F5F5F5F5F5F5F5F5F5F5F5F5F5F5F5F5F5F5F5F5F5F5F5F5F5F5F5F5F5F5F5F5F5F5F5F5F5F5F5F5F5F5F5F5F5F5F5F5F5F5F5F5F5F5F5F5F5F5F5F5F5F5F5F5F5F5F5F5F5F5F5F5F5F5F5F5F5F5F5F5F5F5F5F5F5F5F5F5F5F5F5F5F5F5F5F5F5F5F5F5F5F5F5F5F5F5F5F5F5
310
F5F5F5F5F5F5F5F5F5F5F5F5F5F5F5F5F5F5F5F5F5F5F5F5F5F5F5F5F5F5F5F5F5F5F5F5F5F5F5F5F5F5F5F5F5F5F5F5F5F5F5F5F5F5F5F5F5F5F5F5F5F5F5F5F5F5F5F5F5F5F5F5F5F5F5F5F5F5F5F5F5F5F5F5F5F5F5F5F5F5F5F5F5F5F5F5F5F5F5F5F5F5F5F5F5F5F5F5F5F5F5F5F5F5F5F5F5F5F5F5F5F5F5F5F5F5F5
310
F5F5F5F5F5F5F5F5F5F5F5F5F5F5F5F5F5F5F5F5F5F5F5F5F5F5F5F5F5F5F5F5F5F5F5F5F5F5F5F5F5F5F5F5F5F5F5F5F5F5F5F5F5F5F5F5F5F5F5F5F5F5F5F5F5F5F5F5F5F5F5F5F5F5F5F5F5F5F5F5F5F5F5F5F5F5F5F5F5F5F5F5F5F5F5F5F5F5F5F5F5F5F5F5F5F5F5F5F5F5F5F5F5F5F5F5F5F5F5F5F5F5F5F5F5F5F5
310
F5F5F5F5F5F5F5F5F5F5F5F5F5F5F5F5F5F5F5F5F5F5F5F5F5F5F5F5F5F5F5F5F5F5F5F5F5F5F5F5F5F5F5F5F5F5F5F5F5F5F5F5F5F5F5F5F5F5F5F5F5F5F5F5F5F5F5F5F5F5F5F5F5F5F5F5F5F5F5F5F5F5F5F5F5F5F5F5F5F5F5F5F5F5F5F5F5F5F5F5F5F5F5F5F5F5F5F5F5F5F5F5F5F5F5F5F5F5F5F5F5F5F5F5F5F5F5
310
F5F5F5F5F5F5F5F5F5F5F5F5F5F5F5F5F5F5F5F5F5F5F5F5F5F5F5F5F5F5F5F5F5F5F5F5F5F5F5F5F5F5F5F5F5F5F5F5F5F5F5F5F5F5F5F5F5F5F5F5F5F5F5F5F5F5F5F5F5F5F5F5F5F5F5F5F5F5F5F5F5F5F5F5F5F5F5F5F5F5F5F5F5F5F5F5F5F5F5F5F5F5F5F5F5F5F5F5F5F5F5F5F5F5F5F5F5F5F5F5F5F5F5F5F5F5F5
310
F5F5F5F5F5F5F5F5F5F5F5F5F5F5F5F5F5F5F5F5F5F5F5F5F5F5F5F5F5F5F5F5F5F5F5F5F5F5F5F5F5F5F5F5F5F5F5F5F5F5F5F5F5F5F5F5F5F5F5F5F5F5F5F5F5F5F5F5F5F5F5F5F5F5F5F5F5F5F5F5F5F5F5F5F5F5F5F5F5F5F5F5F5F5F5F5F5F5F5F5F5F5F5F5F5F5F5F5F5F5F5F5F5F5F5F5F5F5F5F5F5F5F5F5F5F5F5
310
F5F5F5F5F5F5F5F5F5F5F5F5F5F5F5F5F5F5F5F5F5F5F5F5F5F5F5F5F5F5F5F5F5F5F5F5F5F5F5F5F5F5F5F5F5F5F5F5F5F5F5F5F5F5F5F5F5F5F5F5F5F5F5F5F5F5F5F5F5F5F5F5F5F5F5F5F5F5F5F5F5F5F5F5F5F5F5F5F5F5F5F5F5F5F5F5F5F5F5F5F5F5F5F5F5F5F5F5F5F5F5F5F5F5F5F5F5F5F5F5F5F5F5F5F5F5F5
310
F5F5F5F5F5F5F5F5F5F5F5F5F5F5F5F5F5F5F5F5F5F5F5F5F5F5F5F5F5F5F5F5F5F5F5F5F5F5F5F5F5F5F5F5F5F5F5F5F5F5F5F5F5F5F5F5F5F5F5F5F5F5F5F5F5F5F5F5F5F5F5F5F5F5F5F5F5F5F5F5F5F5F5F5F5F5F5F5F5F5F5F5F5F5F5F5F5F5F5F5F5F5F5F5F5F5F5F5F5F5F5F5F5F5F5F5F5F5F5F5F5F5F5F5F5F5F5
310
F5F5F5F5F5F5F5F5F5F5F5F5F5F5F5F5F5F5F5F5F5F5F5F5F5F5F5F5F5F5F5F5F5F5F5F5F5F5F5F5F5F5F5F5F5F5F5F5F5F5F5F5F5F5F5F5F5F5F5F5F5F5F5F5F5F5F5F5F5F5F5F5F5F5F5F5F5F5F5F5F5F5F5F5F5F5F5F5F5F5F5F5F5F5F5F5F5F5F5F5F5F5F5F5F5F5F5F5F5F5F5F5F5F5F5F5F5F5F5F5F5F5F5F5F5F5F5
310
F5F5F5F5F5F5F5F5F5F5F5F5F5F5F5F5F5F5F5F5F5F5F5F5F5F5F5F5F5F5F5F5F5F5F5F5F5F5F5F5F5F5F5F5F5F5F5F5F5F5F5F5F5F5F5F5F5F5F5F5F5F5F5F5F5F5F5F5F5F5F5F5F5F5F5F5F5F5F5F5F5F5F5F5F5F5F5F5F5F5F5F5F5F5F5F5F5F5F5F5F5F5F5F5F5F5F5F5F5F5F5F5F5F5F5F5F5F5F5F5F5F5F5F5F5F5F5
310
F5F5F5F5F5F5F5F5F5F5F5F5F5F5F5F5F5F5F5F5F5F5F5F5F5F5F5F5F5F5F5F5F5F5F5F5F5F5F5F5F5F5F5F5F5F5F5F5F5F5F5F5F5F5F5F5F5F5F5F5F5F5F5F5F5F5F5F5F5F5F5F5F5F5F5F5F5F5F5F5F5F5F5F5F5F5F5F5F5F5F5F5F5F5F5F5F5F5F5F5F5F5F5F5F5F5F5F5F5F5F5F5F5F5F5F5F5F5F5F5F5F5F5F5F5F5F5
310
F5F5F5F5F5F5F5F5F5F5F5F5F5F5F5F5F5F5F5F5F5F5F5F5F5F5F5F5F5F5F5F5F5F5F5F5F5F5F5F5F5F5F5F5F5F5F5F5F5F5F5F5F5F5F5F5F5F5F5F5F5F5F5F5F5F5F5F5F5F5F5F5F5F5F5F5F5F5F5F5F5F5F5F5F5F5F5F5F5F5F5F5F5F5F5F5F5F5F5F5F5F5F5F5F5F5F5F5F5F5F5F5F5F5F5F5F5F5F5F5F5F5F5F5F5F5F5
310
F5F5F5F5F5F5F5F5F5F5F5F5F5F5F5F5F5F5F5F5F5F5F5F5F5F5F5F5F5F5F5F5F5F5F5F5F5F5F5F5F5F5F5F5F5F5F5F5F5F5F5F5F5F5F5F5F5F5F5F5F5F5F5F5F5F5F5F5F5F5F5F5F5F5F5F5F5F5F5F5F5F5F5F5F5F5F5F5F5F5F5F5F5F5F5F5F5F5F5F5F5F5F5F5F5F5F5F5F5F5F5F5F5F5F5F5F5F5F5F5F5F5F5F5F5F5F5
310
F5F5F5F5F5F5F5F5F5F5F5F5F5F5F5F5F5F5F5F5F5F5F5F5F5F5F5F5F5F5F5F5F5F5F5F5F5F5F5F5F5F5F5F5F5F5F5F5F5F5F5F5F5F5F5F5F5F5F5F5F5F5F5F5F5F5F5F5F5F5F5F5F5F5F5F5F5F5F5F5F5F5F5F5F5F5F5F5F5F5F5F5F5F5F5F5F5F5F5F5F5F5F5F5F5F5F5F5F5F5F5F5F5F5F5F5F5F5F5F5F5F5F5F5F5F5F5
310
F5F5F5F5F5F5F5F5F5F5F5F5F5F5F5F5F5F5F5F5F5F5F5F5F5F5F5F5F5F5F5F5F5F5F5F5F5F5F5F5F5F5F5F5F5F5F5F5F5F5F5F5F5F5F5F5F5F5F5F5F5F5F5F5F5F5F5F5F5F5F5F5F5F5F5F5F5F5F5F5F5F5F5F5F5F5F5F5F5F5F5F5F5F5F5F5F5F5F5F5F5F5F5F5F5F5F5F5F5F5F5F5F5F5F5F5F5F5F5F5F5F5F5F5F5F5F5
310
F5F5F5F5F5F5F5F5F5F5F5F5F5F5F5F5F5F5F5F5F5F5F5F5F5F5F5F5F5F5F5F5F5F5F5F5F5F5F5F5F5F5F5F5F5F5F5F5F5F5F5F5F5F5F5F5F5F5F5F5F5F5F5F5F5F5F5F5F5F5F5F5F5F5F5F5F5F5F5F5F5F5F5F5F5F5F5F5F5F5F5F5F5F5F5F5F5F5F5F5F5F5F5F5F5F5F5F5F5F5F5F5F5F5F5F5F5F5F5F5F5F5F5F5F5F5F5
310
F5F5F5F5F5F5F5F5F5F5F5F5F5F5F5F5F5F5F5F5F5F5F5F5F5F5F5F5F5F5F5F5F5F5F5F5F5F5F5F5F5F5F5F5F5F5F5F5F5F5F5F5F5F5F5F5F5F5F5F5F5F5F5F5F5F5F5F5F5F5F5F5F5F5F5F5F5F5F5F5F5F5F5F5F5F5F5F5F5F5F5F5F5F5F5F5F5F5F5F5F5F5F5F5F5F5F5F5F5F5F5F5F5F5F5F5F5F5F5F5F5F5F5F5F5F5F5
310
F5F5F5F5F5F5F5F5F5F5F5F5F5F5F5F5F5F5F5F5F5F5F5F5F5F5F5F5F5F5F5F5F5F5F5F5F5F5F5F5F5F5F5F5F5F5F5F5F5F5F5F5F5F5F5F5F5F5F5F5F5F5F5F5F5F5F5F5F5F5F5F5F5F5F5F5F5F5F5F5F5F5F5F5F5F5F5F5F5F5F5F5F5F5F5F5F5F5F5F5F5F5F5F5F5F5F5F5F5F5F5F5F5F5F5F5F5F5F5F5F5F5F5F5F5F5F5
310
F5F5F5F5F5F5F5F5F5F5F5F5F5F5F5F5F5F5F5F5F5F5F5F5F5F5F5F5F5F5F5F5F5F5F5F5F5F5F5F5F5F5F5F5F5F5F5F5F5F5F5F5F5F5F5F5F5F5F5F5F5F5F5F5F5F5F5F5F5F5F5F5F5F5F5F5F5F5F5F5F5F5F5F5F5F5F5F5F5F5F5F5F5F5F5F5F5F5F5F5F5F5F5F5F5F5F5F5F5F5F5F5F5F5F5F5F5F5F5F5F5F5F5F5F5F5F5
310
F5F5F5F5F5F5F5F5F5F5F5F5F5F5F5F5F5F5F5F5F5F5F5F5F5F5F5F5F5F5F5F5F5F5F5F5F5F5F5F5F5F5F5F5F5F5F5F5F5F5F5F5F5F5F5F5F5F5F5F5F5F5F5F5F5F5F5F5F5F5F5F5F5F5F5F5F5F5F5F5F5F5F5F5F5F5F5F5F5F5F5F5F5F5F5F5F5F5F5F5F5F5F5F5F5F5F5F5F5F5F5F5F5F5F5F5F5F5F5F5F5F5F5F5F5F5F5
310
F5F5F5F5F5F5F5F5F5F5F5F5F5F5F5F5F5F5F5F5F5F5F5F5F5F5F5F5F5F5F5F5F5F5F5F5F5F5F5F5F5F5F5F5F5F5F5F5F5F5F5F5F5F5F5F5F5F5F5F5F5F5F5F5F5F5F5F5F5F5F5F5F5F5F5F5F5F5F5F5F5F5F5F5F5F5F5F5F5F5F5F5F5F5F5F5F5F5F5F5F5F5F5F5F5F5F5F5F5F5F5F5F5F5F5F5F5F5F5F5F5F5F5F5F5F5F5
310
F5F5F5F5F5F5F5F5F5F5F5F5F5F5F5F5F5F5F5F5F5F5F5F5F5F5F5F5F5F5F5F5F5F5F5F5F5F5F5F5F5F5F5F5F5F5F5F5F5F5F5F5F5F5F5F5F5F5F5F5F5F5F5F5F5F5F5F5F5F5F5F5F5F5F5F5F5F5F5F5F5F5F5F5F5F5F5F5F5F5F5F5F5F5F5F5F5F5F5F5F5F5F5F5F5F5F5F5F5F5F5F5F5F5F5F5F5F5F5F5F5F5F5F5F5F5F5
310
F5F5F5F5F5F5F5F5F5F5F5F5F5F5F5F5F5F5F5F5F5F5F5F5F5F5F5F5F5F5F5F5F5F5F5F5F5F5F5F5F5F5F5F5F5F5F5F5F5F5F5F5F5F5F5F5F5F5F5F5F5F5F5F5F5F5F5F5F5F5F5F5F5F5F5F5F5F5F5F5F5F5F5F5F5F5F5F5F5F5F5F5F5F5F5F5F5F5F5F5F5F5F5F5F5F5F5F5F5F5F5F5F5F5F5F5F5F5F5F5F5F5F5F5F5F5F5
310
F5F5F5F5F5F5F5F5F5F5F5F5F5F5F5F5F5F5F5F5F5F5F5F5F5F5F5F5F5F5F5F5F5F5F5F5F5F5F5F5F5F5F5F5F5F5F5F5F5F5F5F5F5F5F5F5F5F5F5F5F5F5F5F5F5F5F5F5F5F5F5F5F5F5F5F5F5F5F5F5F5F5F5F5F5F5F5F5F5F5F5F5F5F5F5F5F5F5F5F5F5F5F5F5F5F5F5F5F5F5F5F5F5F5F5F5F5F5F5F5F5F5F5F5F5F5F5
310
F5F5F5F5F5F5F5F5F5F5F5F5F5F5F5F5F5F5F5F5F5F5F5F5F5F5F5F5F5F5F5F5F5F5F5F5F5F5F5F5F5F5F5F5F5F5F5F5F5F5F5F5F5F5F5F5F5F5F5F5F5F5F5F5F5F5F5F5F5F5F5F5F5F5F5F5F5F5F5F5F5F5F5F5F5F5F5F5F5F5F5F5F5F5F5F5F5F5F5F5F5F5F5F5F5F5F5F5F5F5F5F5F5F5F5F5F5F5F5F5F5F5F5F5F5F5F5
310
F5F5F5F5F5F5F5F5F5F5F5F5F5F5F5F5F5F5F5F5F5F5F5F5F5F5F5F5F5F5F5F5F5F5F5F5F5F5F5F5F5F5F5F5F5F5F5F5F5F5F5F5F5F5F5F5F5F5F5F5F5F5F5F5F5F5F5F5F5F5F5F5F5F5F5F5F5F5F5F5F5F5F5F5F5F5F5F5F5F5F5F5F5F5F5F5F5F5F5F5F5F5F5F5F5F5F5F5F5F5F5F5F5F5F5F5F5F5F5F5F5F5F5F5F5F5F5
310
F5F5F5F5F5F5F5F5F5F5F5F5F5F5F5F5F5F5F5F5F5F5F5F5F5F5F5F5F5F5F5F5F5F5F5F5F5F5F5F5F5F5F5F5F5F5F5F5F5F5F5F5F5F5F5F5F5F5F5F5F5F5F5F5F5F5F5F5F5F5F5F5F5F5F5F5F5F5F5F5F5F5F5F5F5F5F5F5F5F5F5F5F5F5F5F5F5F5F5F5F5F5F5F5F5F5F5F5F5F5F5F5F5F5F5F5F5F5F5F5F5F5F5F5F5F5F5
310
F5F5F5F5F5F5F5F5F5F5F5F5F5F5F5F5F5F5F5F5F5F5F5F5F5F5F5F5F5F5F5F5F5F5F5F5F5F5F5F5F5F5F5F5F5F5F5F5F5F5F5F5F5F5F5F5F5F5F5F5F5F5F5F5F5F5F5F5F5F5F5F5F5F5F5F5F5F5F5F5F5F5F5F5F5F5F5F5F5F5F5F5F5F5F5F5F5F5F5F5F5F5F5F5F5F5F5F5F5F5F5F5F5F5F5F5F5F5F5F5F5F5F5F5F5F5F5
310
F5F5F5F5F5F5F5F5F5F5F5F5F5F5F5F5F5F5F5F5F5F5F5F5F5F5F5F5F5F5F5F5F5F5F5F5F5F5F5F5F5F5F5F5F5F5F5F5F5F5F5F5F5F5F5F5F5F5F5F5F5F5F5F5F5F5F5F5F5F5F5F5F5F5F5F5F5F5F5F5F5F5F5F5F5F5F5F5F5F5F5F5F5F5F5F5F5F5F5F5F5F5F5F5F5F5F5F5F5F5F5F5F5F5F5F5F5F5F5F5F5F5F5F5F5F5F5
310
F5F5F5F5F5F5F5F5F5F5F5F5F5F5F5F5F5F5F5F5F5F5F5F5F5F5F5F5F5F5F5F5F5F5F5F5F5F5F5F5F5F5F5F5F5F5F5F5F5F5F5F5F5F5F5F5F5F5F5F5F5F5F5F5F5F5F5F5F5F5F5F5F5F5F5F5F5F5F5F5F5F5F5F5F5F5F5F5F5F5F5F5F5F5F5F5F5F5F5F5F5F5F5F5F5F5F5F5F5F5F5F5F5F5F5F5F5F5F5F5F5F5F5F5F5F5F5
310
F5F5F5F5F5F5F5F5F5F5F5F5F5F5F5F5F5F5F5F5F5F5F5F5F5F5F5F5F5F5F5F5F5F5F5F5F5F5F5F5F5F5F5F5F5F5F5F5F5F5F5F5F5F5F5F5F5F5F5F5F5F5F5F5F5F5F5F5F5F5F5F5F5F5F5F5F5F5F5F5F5F5F5F5F5F5F5F5F5F5F5F5F5F5F5F5F5F5F5F5F5F5F5F5F5F5F5F5F5F5F5F5F5F5F5F5F5F5F5F5F5F5F5F5F5F5F5
310
F5F5F5F5F5F5F5F5F5F5F5F5F5F5F5F5F5F5F5F5F5F5F5F5F5F5F5F5F5F5F5F5F5F5F5F5F5F5F5F5F5F5F5F5F5F5F5F5F5F5F5F5F5F5F5F5F5F5F5F5F5F5F5F5F5F5F5F5F5F5F5F5F5F5F5F5F5F5F5F5F5F5F5F5F5F5F5F5F5F5F5F5F5F5F5F5F5F5F5F5F5F5F5F5F5F5F5F5F5F5F5F5F5F5F5F5F5F5F5F5F5F5F5F5F5F5F5
310
F5F5F5F5F5F5F5F5F5F5F5F5F5F5F5F5F5F5F5F5F5F5F5F5F5F5F5F5F5F5F5F5F5F5F5F5F5F5F5F5F5F5F5F5F5F5F5F5F5F5F5F5F5F5F5F5F5F5F5F5F5F5F5F5F5F5F5F5F5F5F5F5F5F5F5F5F5F5F5F5F5F5F5F5F5F5F5F5F5F5F5F5F5F5F5F5F5F5F5F5F5F5F5F5F5F5F5F5F5F5F5F5F5F5F5F5F5F5F5F5F5F5F5F5F5F5F5
310
F5F5F5F5F5F5F5F5F5F5F5F5F5F5F5F5F5F5F5F5F5F5F5F5F5F5F5F5F5F5F5F5F5F5F5F5F5F5F5F5F5F5F5F5F5F5F5F5F5F5F5F5F5F5F5F5F5F5F5F5F5F5F5F5F5F5F5F5F5F5F5F5F5F5F5F5F5F5F5F5F5F5F5F5F5F5F5F5F5F5F5F5F5F5F5F5F5F5F5F5F5F5F5F5F5F5F5F5F5F5F5F5F5F5F5F5F5F5F5F5F5F5F5F5F5F5F5
310
F5F5F5F5F5F5F5F5F5F5F5F5F5F5F5F5F5F5F5F5F5F5F5F5F5F5F5F5F5F5F5F5F5F5F5F5F5F5F5F5F5F5F5F5F5F5F5F5F5F5F5F5F5F5F5F5F5F5F5F5F5F5F5F5F5F5F5F5F5F5F5F5F5F5F5F5F5F5F5F5F5F5F5F5F5F5F5F5F5F5F5F5F5F5F5F5F5F5F5F5F5F5F5F5F5F5F5F5F5F5F5F5F5F5F5F5F5F5F5F5F5F5F5F5F5F5F5
310
F5F5F5F5F5F5F5F5F5F5F5F5F5F5F5F5F5F5F5F5F5F5F5F5F5F5F5F5F5F5F5F5F5F5F5F5F5F5F5F5F5F5F5F5F5F5F5F5F5F5F5F5F5F5F5F5F5F5F5F5F5F5F5F5F5F5F5F5F5F5F5F5F5F5F5F5F5F5F5F5F5F5F5F5F5F5F5F5F5F5F5F5F5F5F5F5F5F5F5F5F5F5F5F5F5F5F5F5F5F5F5F5F5F5F5F5F5F5F5F5F5F5F5F5F5F5F5
310
F5F5F5F5F5F5F5F5F5F5F5F5F5F5F5F5F5F5F5F5F5F5F5F5F5F5F5F5F5F5F5F5F5F5F5F5F5F5F5F5F5F5F5F5F5F5F5F5F5F5F5F5F5F5F5F5F5F5F5F5F5F5F5F5F5F5F5F5F5F5F5F5F5F5F5F5F5F5F5F5F5F5F5F5F5F5F5F5F5F5F5F5F5F5F5F5F5F5F5F5F5F5F5F5F5F5F5F5F5F5F5F5F5F5F5F5F5F5F5F5F5F5F5F5F5F5F5
310
F5F5F5F5F5F5F5F5F5F5F5F5F5F5F5F5F5F5F5F5F5F5F5F5F5F5F5F5F5F5F5F5F5F5F5F5F5F5F5F5F5F5F5F5F5F5F5F5F5F5F5F5F5F5F5F5F5F5F5F5F5F5F5F5F5F5F5F5F5F5F5F5F5F5F5F5F5F5F5F5F5F5F5F5F5F5F5F5F5F5F5F5F5F5F5F5F5F5F5F5F5F5F5F5F5F5F5F5F5F5F5F5F5F5F5F5F5F5F5F5F5F5F5F5F5F5F5
310
F5F5F5F5F5F5F5F5F5F5F5F5F5F5F5F5F5F5F5F5F5F5F5F5F5F5F5F5F5F5F5F5F5F5F5F5F5F5F5F5F5F5F5F5F5F5F5F5F5F5F5F5F5F5F5F5F5F5F5F5F5F5F5F5F5F5F5F5F5F5F5F5F5F5F5F5F5F5F5F5F5F5F5F5F5F5F5F5F5F5F5F5F5F5F5F5F5F5F5F5F5F5F5F5F5F5F5F5F5F5F5F5F5F5F5F5F5F5F5F5F5F5F5F5F5F5F5
310
F5F5F5F5F5F5F5F5F5F5F5F5F5F5F5F5F5F5F5F5F5F5F5F5F5F5F5F5F5F5F5F5F5F5F5F5F5F5F5F5F5F5F5F5F5F5F5F5F5F5F5F5F5F5F5F5F5F5F5F5F5F5F5F5F5F5F5F5F5F5F5F5F5F5F5F5F5F5F5F5F5F5F5F5F5F5F5F5F5F5F5F5F5F5F5F5F5F5F5F5F5F5F5F5F5F5F5F5F5F5F5F5F5F5F5F5F5F5F5F5F5F5F5F5F5F5F5
310
F5F5F5F5F5F5F5F5F5F5F5F5F5F5F5F5F5F5F5F5F5F5F5F5F5F5F5F5F5F5F5F5F5F5F5F5F5F5F5F5F5F5F5F5F5F5F5F5F5F5F5F5F5F5F5F5F5F5F5F5F5F5F5F5F5F5F5F5F5F5F5F5F5F5F5F5F5F5F5F5F5F5F5F5F5F5F5F5F5F5F5F5F5F5F5F5F5F5F5F5F5F5F5F5F5F5F5F5F5F5F5F5F5F5F5F5F5F5F5F5F5F5F5F5F5F5F5
310
F5F5F5F5F5F5F5F5F5F5F5F5F5F5F5F5F5F5F5F5F5F5F5F5F5F5F5F5F5F5F5F5F5F5F5F5F5F5F5F5F5F5F5F5F5F5F5F5F5F5F5F5F5F5F5F5F5F5F5F5F5F5F5F5F5F5F5F5F5F5F5F5F5F5F5F5F5F5F5F5F5F5F5F5F5F5F5F5F5F5F5F5F5F5F5F5F5F5F5F5F5F5F5F5F5F5F5F5F5F5F5F5F5F5F5F5F5F5F5F5F5F5F5F5F5F5F5
310
F5F5F5F5F5F5F5F5F5F5F5F5F5F5F5F5F5F5F5F5F5F5F5F5F5F5F5F5F5F5F5F5F5F5F5F5F5F5F5F5F5F5F5F5F5F5F5F5F5F5F5F5F5F5F5F5F5F5F5F5F5F5F5F5F5F5F5F5F5F5F5F5F5F5F5F5F5F5F5F5F5F5F5F5F5F5F5F5F5F5F5F5F5F5F5F5F5F5F5F5F5F5F5F5F5F5F5F5F5F5F5F5F5F5F5F5F5F5F5F5F5F5F5F5F5F5F5
310
F5F5F5F5F5F5F5F5F5F5F5F5F5F5F5F5F5F5F5F5F5F5F5F5F5F5F5F5F5F5F5F5F5F5F5F5F5F5F5F5F5F5F5F5F5F5F5F5F5F5F5F5F5F5F5F5F5F5F5F5F5F5F5F5F5F5F5F5F5F5F5F5F5F5F5F5F5F5F5F5F5F5F5F5F5F5F5F5F5F5F5F5F5F5F5F5F5F5F5F5F5F5F5F5F5F5F5F5F5F5F5F5F5F5F5F5F5F5F5F5F5F5F5F5F5F5F5
310
F5F5F5F5F5F5F5F5F5F5F5F5F5F5F5F5F5F5F5F5F5F5F5F5F5F5F5F5F5F5F5F5F5F5F5F5F5F5F5F5F5F5F5F5F5F5F5F5F5F5F5F5F5F5F5F5F5F5F5F5F5F5F5F5F5F5F5F5F5F5F5F5F5F5F5F5F5F5F5F5F5F5F5F5F5F5F5F5F5F5F5F5F5F5F5F5F5F5F5F5F5F5F5F5F5F5F5F5F5F5F5F5F5F5F5F5F5F5F5F5F5F5F5F5F5F5F5
310
F5F5F5F5F5F5F5F5F5F5F5F5F5F5F5F5F5F5F5F5F5F5F5F5F5F5F5F5F5F5F5F5F5F5F5F5F5F5F5F5F5F5F5F5F5F5F5F5F5F5F5F5F5F5F5F5F5F5F5F5F5F5F5F5F5F5F5F5F5F5F5F5F5F5F5F5F5F5F5F5F5F5F5F5F5F5F5F5F5F5F5F5F5F5F5F5F5F5F5F5F5F5F5F5F5F5F5F5F5F5F5F5F5F5F5F5F5F5F5F5F5F5F5F5F5F5F5
310
F5F5F5F5F5F5F5F5F5F5F5F5F5F5F5F5F5F5F5F5F5F5F5F5F5F5F5F5F5F5F5F5F5F5F5F5F5F5F5F5F5F5F5F5F5F5F5F5F5F5F5F5F5F5F5F5F5F5F5F5F5F5F5F5F5F5F5F5F5F5F5F5F5F5F5F5F5F5F5F5F5F5F5F5F5F5F5F5F5F5F5F5F5F5F5F5F5F5F5F5F5F5F5F5F5F5F5F5F5F5F5F5F5F5F5F5F5F5F5F5F5F5F5F5F5F5F5
310
F5F5F5F5F5F5F5F5F5F5F5F5F5F5F5F5F5F5F5F5F5F5F5F5F5F5F5F5F5F5F5F5F5F5F5F5F5F5F5F5F5F5F5F5F5F5F5F5F5F5F5F5F5F5F5F5F5F5F5F5F5F5F5F5F5F5F5F5F5F5F5F5F5F5F5F5F5F5F5F5F5F5F5F5F5F5F5F5F5F5F5F5F5F5F5F5F5F5F5F5F5F5F5F5F5F5F5F5F5F5F5F5F5F5F5F5F5F5F5F5F5F5F5F5F5F5F5
310
F5F5F5F5F5F5F5F5F5F5F5F5F5F5F5F5F5F5F5F5F5F5F5F5F5F5F5F5F5F5F5F5F5F5F5F5F5F5F5F5F5F5F5F5F5F5F5F5F5F5F5F5F5F5F5F5F5F5F5F5F5F5F5F5F5F5F5F5F5F5F5F5F5F5F5F5F5F5F5F5F5F5F5F5F5F5F5F5F5F5F5F5F5F5F5F5F5F5F5F5F5F5F5F5F5F5F5F5F5F5F5F5F5F5F5F5F5F5F5F5F5F5F5F5F5F5F5
310
F5F5F5F5F5F5F5F5F5F5F5F5F5F5F5F5F5F5F5F5F5F5F5F5F5F5F5F5F5F5F5F5F5F5F5F5F5F5F5F5F5F5F5F5F5F5F5F5F5F5F5F5F5F5F5F5F5F5F5F5F5F5F5F5F5F5F5F5F5F5F5F5F5F5F5F5F5F5F5F5F5F5F5F5F5F5F5F5F5F5F5F5F5F5F5F5F5F5F5F5F5F5F5F5F5F5F5F5F5F5F5F5F5F5F5F5F5F5F5F5F5F5F5F5F5F5F5
310
F5F5F5F5F5F5F5F5F5F5F5F5F5F5F5F5F5F5F5F5F5F5F5F5F5F5F5F5F5F5F5F5F5F5F5F5F5F5F5F5F5F5F5F5F5F5F5F5F5F5F5F5F5F5F5F5F5F5F5F5F5F5F5F5F5F5F5F5F5F5F5F5F5F5F5F5F5F5F5F5F5F5F5F5F5F5F5F5F5F5F5F5F5F5F5F5F5F5F5F5F5F5F5F5F5F5F5F5F5F5F5F5F5F5F5F5F5F5F5F5F5F5F5F5F5F5F5
310
F5F5F5F5F5F5F5F5F5F5F5F5F5F5F5F5F5F5F5F5F5F5F5F5F5F5F5F5F5F5F5F5F5F5F5F5F5F5F5F5F5F5F5F5F5F5F5F5F5F5F5F5F5F5F5F5F5F5F5F5F5F5F5F5F5F5F5F5F5F5F5F5F5F5F5F5F5F5F5F5F5F5F5F5F5F5F5F5F5F5F5F5F5F5F5F5F5F5F5F5F5F5F5F5F5F5F5F5F5F5F5F5F5F5F5F5F5F5F5F5F5F5F5F5F5F5F5
310
F5F5F5F5F5F5F5F5F5F5F5F5F5F5F5F5F5F5F5F5F5F5F5F5F5F5F5F5F5F5F5F5F5F5F5F5F5F5F5F5F5F5F5F5F5F5F5F5F5F5F5F5F5F5F5F5F5F5F5F5F5F5F5F5F5F5F5F5F5F5F5F5F5F5F5F5F5F5F5F5F5F5F5F5F5F5F5F5F5F5F5F5F5F5F5F5F5F5F5F5F5F5F5F5F5F5F5F5F5F5F5F5F5F5F5F5F5F5F5F5F5F5F5F5F5F5F5
310
F5F5F5F5F5F5F5F5F5F5F5F5F5F5F5F5F5F5F5F5F5F5F5F5F5F5F5F5F5F5F5F5F5F5F5F5F5F5F5F5F5F5F5F5F5F5F5F5F5F5F5F5F5F5F5F5F5F5F5F5F5F5F5F5F5F5F5F5F5F5F5F5F5F5F5F5F5F5F5F5F5F5F5F5F5F5F5F5F5F5F5F5F5F5F5F5F5F5F5F5F5F5F5F5F5F5F5F5F5F5F5F5F5F5F5F5F5F5F5F5F5F5F5F5F5F5F5
310
F5F5F5F5F5F5F5F5F5F5F5F5F5F5F5F5F5F5F5F5F5F5F5F5F5F5F5F5F5F5F5F5F5F5F5F5F5F5F5F5F5F5F5F5F5F5F5F5F5F5F5F5F5F5F5F5F5F5F5F5F5F5F5F5F5F5F5F5F5F5F5F5F5F5F5F5F5F5F5F5F5F5F5F5F5F5F5F5F5F5F5F5F5F5F5F5F5F5F5F5F5F5F5F5F5F5F5F5F5F5F5F5F5F5F5F5F5F5F5F5F5F5F5F5F5F5F5
310
F5F5F5F5F5F5F5F5F5F5F5F5F5F5F5F5F5F5F5F5F5F5F5F5F5F5F5F5F5F5F5F5F5F5F5F5F5F5F5F5F5F5F5F5F5F5F5F5F5F5F5F5F5F5F5F5F5F5F5F5F5F5F5F5F5F5F5F5F5F5F5F5F5F5F5F5F5F5F5F5F5F5F5F5F5F5F5F5F5F5F5F5F5F5F5F5F5F5F5F5F5F5F5F5F5F5F5F5F5F5F5F5F5F5F5F5F5F5F5F5F5F5F5F5F5F5F5
310
F5F5F5F5F5F5F5F5F5F5F5F5F5F5F5F5F5F5F5F5F5F5F5F5F5F5F5F5F5F5F5F5F5F5F5F5F5F5F5F5F5F5F5F5F5F5F5F5F5F5F5F5F5F5F5F5F5F5F5F5F5F5F5F5F5F5F5F5F5F5F5F5F5F5F5F5F5F5F5F5F5F5F5F5F5F5F5F5F5F5F5F5F5F5F5F5F5F5F5F5F5F5F5F5F5F5F5F5F5F5F5F5F5F5F5F5F5F5F5F5F5F5F5F5F5F5F5
310
F5F5F5F5F5F5F5F5F5F5F5F5F5F5F5F5F5F5F5F5F5F5F5F5F5F5F5F5F5F5F5F5F5F5F5F5F5F5F5F5F5F5F5F5F5F5F5F5F5F5F5F5F5F5F5F5F5F5F5F5F5F5F5F5F5F5F5F5F5F5F5F5F5F5F5F5F5F5F5F5F5F5F5F5F5F5F5F5F5F5F5F5F5F5F5F5F5F5F5F5F5F5F5F5F5F5F5F5F5F5F5F5F5F5F5F5F5F5F5F5F5F5F5F5F5F5F5
310
F5F5F5F5F5F5F5F5F5F5F5F5F5F5F5F5F5F5F5F5F5F5F5F5F5F5F5F5F5F5F5F5F5F5F5F5F5F5F5F5F5F5F5F5F5F5F5F5F5F5F5F5F5F5F5F5F5F5F5F5F5F5F5F5F5F5F5F5F5F5F5F5F5F5F5F5F5F5F5F5F5F5F5F5F5F5F5F5F5F5F5F5F5F5F5F5F5F5F5F5F5F5F5F5F5F5F5F5F5F5F5F5F5F5F5F5F5F5F5F5F5F5F5F5F5F5F5
310
F5F5F5F5F5F5F5F5F5F5F5F5F5F5F5F5F5F5F5F5F5F5F5F5F5F5F5F5F5F5F5F5F5F5F5F5F5F5F5F5F5F5F5F5F5F5F5F5F5F5F5F5F5F5F5F5F5F5F5F5F5F5F5F5F5F5F5F5F5F5F5F5F5F5F5F5F5F5F5F5F5F5F5F5F5F5F5F5F5F5F5F5F5F5F5F5F5F5F5F5F5F5F5F5F5F5F5F5F5F5F5F5F5F5F5F5F5F5F5F5F5F5F5F5F5F5F5
310
F5F5F5F5F5F5F5F5F5F5F5F5F5F5F5F5F5F5F5F5F5F5F5F5F5F5F5F5F5F5F5F5F5F5F5F5F5F5F5F5F5F5F5F5F5F5F5F5F5F5F5F5F5F5F5F5F5F5F5F5F5F5F5F5F5F5F5F5F5F5F5F5F5F5F5F5F5F5F5F5F5F5F5F5F5F5F5F5F5F5F5F5F5F5F5F5F5F5F5F5F5F5F5F5F5F5F5F5F5F5F5F5F5F5F5F5F5F5F5F5F5F5F5F5F5F5F5
310
F5F5F5F5F5F5F5F5F5F5F5F5F5F5F5F5F5F5F5F5F5F5F5F5F5F5F5F5F5F5F5F5F5F5F5F5F5F5F5F5F5F5F5F5F5F5F5F5F5F5F5F5F5F5F5F5F5F5F5F5F5F5F5F5F5F5F5F5F5F5F5F5F5F5F5F5F5F5F5F5F5F5F5F5F5F5F5F5F5F5F5F5F5F5F5F5F5F5F5F5F5F5F5F5F5F5F5F5F5F5F5F5F5F5F5F5F5F5F5F5F5F5F5F5F5F5F5
310
F5F5F5F5F5F5F5F5F5F5F5F5F5F5F5F5F5F5F5F5F5F5F5F5F5F5F5F5F5F5F5F5F5F5F5F5F5F5F5F5F5F5F5F5F5F5F5F5F5F5F5F5F5F5F5F5F5F5F5F5F5F5F5F5F5F5F5F5F5F5F5F5F5F5F5F5F5F5F5F5F5F5F5F5F5F5F5F5F5F5F5F5F5F5F5F5F5F5F5F5F5F5F5F5F5F5F5F5F5F5F5F5F5F5F5F5F5F5F5F5F5F5F5F5F5F5F5
310
F5F5F5F5F5F5F5F5F5F5F5F5F5F5F5F5F5F5F5F5F5F5F5F5F5F5F5F5F5F5F5F5F5F5F5F5F5F5F5F5F5F5F5F5F5F5F5F5F5F5F5F5F5F5F5F5F5F5F5F5F5F5F5F5F5F5F5F5F5F5F5F5F5F5F5F5F5F5F5F5F5F5F5F5F5F5F5F5F5F5F5F5F5F5F5F5F5F5F5F5F5F5F5F5F5F5F5F5F5F5F5F5F5F5F5F5F5F5F5F5F5F5F5F5F5F5F5
310
F5F5F5F5F5F5F5F5F5F5F5F5F5F5F5F5F5F5F5F5F5F5F5F5F5F5F5F5F5F5F5F5F5F5F5F5F5F5F5F5F5F5F5F5F5F5F5F5F5F5F5F5F5F5F5F5F5F5F5F5F5F5F5F5F5F5F5F5F5F5F5F5F5F5F5F5F5F5F5F5F5F5F5F5F5F5F5F5F5F5F5F5F5F5F5F5F5F5F5F5F5F5F5F5F5F5F5F5F5F5F5F5F5F5F5F5F5F5F5F5F5F5F5F5F5F5F5
310
F5F5F5F5F5F5F5F5F5F5F5F5F5F5F5F5F5F5F5F5F5F5F5F5F5F5F5F5F5F5F5F5F5F5F5F5F5F5F5F5F5F5F5F5F5F5F5F5F5F5F5F5F5F5F5F5F5F5F5F5F5F5F5F5F5F5F5F5F5F5F5F5F5F5F5F5F5F5F5F5F5F5F5F5F5F5F5F5F5F5F5F5F5F5F5F5F5F5F5F5F5F5F5F5F5F5F5F5F5F5F5F5F5F5F5F5F5F5F5F5F5F5F5F5F5F5F5
310
F5F5F5F5F5F5F5F5F5F5F5F5F5F5F5F5F5F5F5F5F5F5F5F5F5F5F5F5F5F5F5F5F5F5F5F5F5F5F5F5F5F5F5F5F5F5F5F5F5F5F5F5F5F5F5F5F5F5F5F5F5F5F5F5F5F5F5F5F5F5F5F5F5F5F5F5F5F5F5F5F5F5F5F5F5F5F5F5F5F5F5F5F5F5F5F5F5F5F5F5F5F5F5F5F5F5F5F5F5F5F5F5F5F5F5F5F5F5F5F5F5F5F5F5F5F5F5
310
F5F5F5F5F5F5F5F5F5F5F5F5F5F5F5F5F5F5F5F5F5F5F5F5F5F5F5F5F5F5F5F5F5F5F5F5F5F5F5F5F5F5F5F5F5F5F5F5F5F5F5F5F5F5F5F5F5F5F5F5F5F5F5F5F5F5F5F5F5F5F5F5F5F5F5F5F5F5F5F5F5F5F5F5F5F5F5F5F5F5F5F5F5F5F5F5F5F5F5F5F5F5F5F5F5F5F5F5F5F5F5F5F5F5F5F5F5F5F5F5F5F5F5F5F5F5F5
310
F5F5F5F5F5F5F5F5F5F5F5F5F5F5F5F5F5F5F5F5F5F5F5F5F5F5F5F5F5F5F5F5F5F5F5F5F5F5F5F5F5F5F5F5F5F5F5F5F5F5F5F5F5F5F5F5F5F5F5F5F5F5F5F5F5F5F5F5F5F5F5F5F5F5F5F5F5F5F5F5F5F5F5F5F5F5F5F5F5F5F5F5F5F5F5F5F5F5F5F5F5F5F5F5F5F5F5F5F5F5F5F5F5F5F5F5F5F5F5F5F5F5F5F5F5F5F5
310
F5F5F5F5F5F5F5F5F5F5F5F5F5F5F5F5F5F5F5F5F5F5F5F5F5F5F5F5F5F5F5F5F5F5F5F5F5F5F5F5F5F5F5F5F5F5F5F5F5F5F5F5F5F5F5F5F5F5F5F5F5F5F5F5F5F5F5F5F5F5F5F5F5F5F5F5F5F5F5F5F5F5F5F5F5F5F5F5F5F5F5F5F5F5F5F5F5F5F5F5F5F5F5F5F5F5F5F5F5F5F5F5F5F5F5F5F5F5F5F5F5F5F5F5F5F5F5
310
F5F5F5F5F5F5F5F5F5F5F5F5F5F5F5F5F5F5F5F5F5F5F5F5F5F5F5F5F5F5F5F5F5F5F5F5F5F5F5F5F5F5F5F5F5F5F5F5F5F5F5F5F5F5F5F5F5F5F5F5F5F5F5F5F5F5F5F5F5F5F5F5F5F5F5F5F5F5F5F5F5F5F5F5F5F5F5F5F5F5F5F5F5F5F5F5F5F5F5F5F5F5F5F5F5F5F5F5F5F5F5F5F5F5F5F5F5F5F5F5F5F5F5F5F5F5F5
310
F5F5F5F5F5F5F5F5F5F5F5F5F5F5F5F5F5F5F5F5F5F5F5F5F5F5F5F5F5F5F5F5F5F5F5F5F5F5F5F5F5F5F5F5F5F5F5F5F5F5F5F5F5F5F5F5F5F5F5F5F5F5F5F5F5F5F5F5F5F5F5F5F5F5F5F5F5F5F5F5F5F5F5F5F5F5F5F5F5F5F5F5F5F5F5F5F5F5F5F5F5F5F5F5F5F5F5F5F5F5F5F5F5F5F5F5F5F5F5F5F5F5F5F5F5F5F5
310
F5F5F5F5F5F5F5F5F5F5F5F5F5F5F5F5F5F5F5F5F5F5F5F5F5F5F5F5F5F5F5F5F5F5F5F5F5F5F5F5F5F5F5F5F5F5F5F5F5F5F5F5F5F5F5F5F5F5F5F5F5F5F5F5F5F5F5F5F5F5F5F5F5F5F5F5F5F5F5F5F5F5F5F5F5F5F5F5F5F5F5F5F5F5F5F5F5F5F5F5F5F5F5F5F5F5F5F5F5F5F5F5F5F5F5F5F5F5F5F5F5F5F5F5F5F5F5
310
F5F5F5F5F5F5F5F5F5F5F5F5F5F5F5F5F5F5F5F5F5F5F5F5F5F5F5F5F5F5F5F5F5F5F5F5F5F5F5F5F5F5F5F5F5F5F5F5F5F5F5F5F5F5F5F5F5F5F5F5F5F5F5F5F5F5F5F5F5F5F5F5F5F5F5F5F5F5F5F5F5F5F5F5F5F5F5F5F5F5F5F5F5F5F5F5F5F5F5F5F5F5F5F5F5F5F5F5F5F5F5F5F5F5F5F5F5F5F5F5F5F5F5F5F5F5F5
310
F5F5F5F5F5F5F5F5F5F5F5F5F5F5F5F5F5F5F5F5F5F5F5F5F5F5F5F5F5F5F5F5F5F5F5F5F5F5F5F5F5F5F5F5F5F5F5F5F5F5F5F5F5F5F5F5F5F5F5F5F5F5F5F5F5F5F5F5F5F5F5F5F5F5F5F5F5F5F5F5F5F5F5F5F5F5F5F5F5F5F5F5F5F5F5F5F5F5F5F5F5F5F5F5F5F5F5F5F5F5F5F5F5F5F5F5F5F5F5F5F5F5F5F5F5F5F5
310
F5F5F5F5F5F5F5F5F5F5F5F5F5F5F5F5F5F5F5F5F5F5F5F5F5F5F5F5F5F5F5F5F5F5F5F5F5F5F5F5F5F5F5F5F5F5F5F5F5F5F5F5F5F5F5F5F5F5F5F5F5F5F5F5F5F5F5F5F5F5F5F5F5F5F5F5F5F5F5F5F5F5F5F5F5F5F5F5F5F5F5F5F5F5F5F5F5F5F5F5F5F5F5F5F5F5F5F5F5F5F5F5F5F5F5F5F5F5F5F5F5F5F5F5F5F5F5
310
F5F5F5F5F5F5F5F5F5F5F5F5F5F5F5F5F5F5F5F5F5F5F5F5F5F5F5F5F5F5F5F5F5F5F5F5F5F5F5F5F5F5F5F5F5F5F5F5F5F5F5F5F5F5F5F5F5F5F5F5F5F5F5F5F5F5F5F5F5F5F5F5F5F5F5F5F5F5F5F5F5F5F5F5F5F5F5F5F5F5F5F5F5F5F5F5F5F5F5F5F5F5F5F5F5F5F5F5F5F5F5F5F5F5F5F5F5F5F5F5F5F5F5F5F5F5F5
310
F5F5F5F5F5F5F5F5F5F5F5F5F5F5F5F5F5F5F5F5F5F5F5F5F5F5F5F5F5F5F5F5F5F5F5F5F5F5F5F5F5F5F5F5F5F5F5F5F5F5F5F5F5F5F5F5F5F5F5F5F5F5F5F5F5F5F5F5F5F5F5F5F5F5F5F5F5F5F5F5F5F5F5F5F5F5F5F5F5F5F5F5F5F5F5F5F5F5F5F5F5F5F5F5F5F5F5F5F5F5F5F5F5F5F5F5F5F5F5F5F5F5F5F5F5F5F5
310
F5F5F5F5F5F5F5F5F5F5F5F5F5F5F5F5F5F5F5F5F5F5F5F5F5F5F5F5F5F5F5F5F5F5F5F5F5F5F5F5F5F5F5F5F5F5F5F5F5F5F5F5F5F5F5F5F5F5F5F5F5F5F5F5F5F5F5F5F5F5F5F5F5F5F5F5F5F5F5F5F5F5F5F5F5F5F5F5F5F5F5F5F5F5F5F5F5F5F5F5F5F5F5F5F5F5F5F5F5F5F5F5F5F5F5F5F5F5F5F5F5F5F5F5F5F5F5
310
F5F5F5F5F5F5F5F5F5F5F5F5F5F5F5F5F5F5F5F5F5F5F5F5F5F5F5F5F5F5F5F5F5F5F5F5F5F5F5F5F5F5F5F5F5F5F5F5F5F5F5F5F5F5F5F5F5F5F5F5F5F5F5F5F5F5F5F5F5F5F5F5F5F5F5F5F5F5F5F5F5F5F5F5F5F5F5F5F5F5F5F5F5F5F5F5F5F5F5F5F5F5F5F5F5F5F5F5F5F5F5F5F5F5F5F5F5F5F5F5F5F5F5F5F5F5F5
310
F5F5F5F5F5F5F5F5F5F5F5F5F5F5F5F5F5F5F5F5F5F5F5F5F5F5F5F5F5F5F5F5F5F5F5F5F5F5F5F5F5F5F5F5F5F5F5F5F5F5F5F5F5F5F5F5F5F5F5F5F5F5F5F5F5F5F5F5F5F5F5F5F5F5F5F5F5F5F5F5F5F5F5F5F5F5F5F5F5F5F5F5F5F5F5F5F5F5F5F5F5F5F5F5F5F5F5F5F5F5F5F5F5F5F5F5F5F5F5F5F5F5F5F5F5F5F5
310
F5F5F5F5F5F5F5F5F5F5F5F5F5F5F5F5F5F5F5F5F5F5F5F5F5F5F5F5F5F5F5F5F5F5F5F5F5F5F5F5F5F5F5F5F5F5F5F5F5F5F5F5F5F5F5F5F5F5F5F5F5F5F5F5F5F5F5F5F5F5F5F5F5F5F5F5F5F5F5F5F5F5F5F5F5F5F5F5F5F5F5F5F5F5F5F5F5F5F5F5F5F5F5F5F5F5F5F5F5F5F5F5F5F5F5F5F5F5F5F5F5F5F5F5F5F5F5
310
F5F5F5F5F5F5F5F5F5F5F5F5F5F5F5F5F5F5F5F5F5F5F5F5F5F5F5F5F5F5F5F5F5F5F5F5F5F5F5F5F5F5F5F5F5F5F5F5F5F5F5F5F5F5F5F5F5F5F5F5F5F5F5F5F5F5F5F5F5F5F5F5F5F5F5F5F5F5F5F5F5F5F5F5F5F5F5F5F5F5F5F5F5F5F5F5F5F5F5F5F5F5F5F5F5F5F5F5F5F5F5F5F5F5F5F5F5F5F5F5F5F5F5F5F5F5F5
310
F5F5F5F5F5F5F5F5F5F5F5F5F5F5F5F5F5F5F5F5F5F5F5F5F5F5F5F5F5F5F5F5F5F5F5F5F5F5F5F5F5F5F5F5F5F5F5F5F5F5F5F5F5F5F5F5F5F5F5F5F5F5F5F5F5F5F5F5F5F5F5F5F5F5F5F5F5F5F5F5F5F5F5F5F5F5F5F5F5F5F5F5F5F5F5F5F5F5F5F5F5F5F5F5F5F5F5F5F5F5F5F5F5F5F5F5F5F5F5F5F5F5F5F5F5F5F5
310
F5F5F5F5F5F5F5F5F5F5F5F5F5F5F5F5F5F5F5F5F5F5F5F5F5F5F5F5F5F5F5F5F5F5F5F5F5F5F5F5F5F5F5F5F5F5F5F5F5F5F5F5F5F5F5F5F5F5F5F5F5F5F5F5F5F5F5F5F5F5F5F5F5F5F5F5F5F5F5F5F5F5F5F5F5F5F5F5F5F5F5F5F5F5F5F5F5F5F5F5F5F5F5F5F5F5F5F5F5F5F5F5F5F5F5F5F5F5F5F5F5F5F5F5F5F5F5
310
F5F5F5F5F5F5F5F5F5F5F5F5F5F5F5F5F5F5F5F5F5F5F5F5F5F5F5F5F5F5F5F5F5F5F5F5F5F5F5F5F5F5F5F5F5F5F5F5F5F5F5F5F5F5F5F5F5F5F5F5F5F5F5F5F5F5F5F5F5F5F5F5F5F5F5F5F5F5F5F5F5F5F5F5F5F5F5F5F5F5F5F5F5F5F5F5F5F5F5F5F5F5F5F5F5F5F5F5F5F5F5F5F5F5F5F5F5F5F5F5F5F5F5F5F5F5F5
310
F5F5F5F5F5F5F5F5F5F5F5F5F5F5F5F5F5F5F5F5F5F5F5F5F5F5F5F5F5F5F5F5F5F5F5F5F5F5F5F5F5F5F5F5F5F5F5F5F5F5F5F5F5F5F5F5F5F5F5F5F5F5F5F5F5F5F5F5F5F5F5F5F5F5F5F5F5F5F5F5F5F5F5F5F5F5F5F5F5F5F5F5F5F5F5F5F5F5F5F5F5F5F5F5F5F5F5F5F5F5F5F5F5F5F5F5F5F5F5F5F5F5F5F5F5F5F5
310
F5F5F5F5F5F5F5F5F5F5F5F5F5F5F5F5F5F5F5F5F5F5F5F5F5F5F5F5F5F5F5F5F5F5F5F5F5F5F5F5F5F5F5F5F5F5F5F5F5F5F5F5F5F5F5F5F5F5F5F5F5F5F5F5F5F5F5F5F5F5F5F5F5F5F5F5F5F5F5F5F5F5F5F5F5F5F5F5F5F5F5F5F5F5F5F5F5F5F5F5F5F5F5F5F5F5F5F5F5F5F5F5F5F5F5F5F5F5F5F5F5F5F5F5F5F5F5
310
F5F5F5F5F5F5F5F5F5F5F5F5F5F5F5F5F5F5F5F5F5F5F5F5F5F5F5F5F5F5F5F5F5F5F5F5F5F5F5F5F5F5F5F5F5F5F5F5F5F5F5F5F5F5F5F5F5F5F5F5F5F5F5F5F5F5F5F5F5F5F5F5F5F5F5F5F5F5F5F5F5F5F5F5F5F5F5F5F5F5F5F5F5F5F5F5F5F5F5F5F5F5F5F5F5F5F5F5F5F5F5F5F5F5F5F5F5F5F5F5F5F5F5F5F5F5F5
310
F5F5F5F5F5F5F5F5F5F5F5F5F5F5F5F5F5F5F5F5F5F5F5F5F5F5F5F5F5F5F5F5F5F5F5F5F5F5F5F5F5F5F5F5F5F5F5F5F5F5F5F5F5F5F5F5F5F5F5F5F5F5F5F5F5F5F5F5F5F5F5F5F5F5F5F5F5F5F5F5F5F5F5F5F5F5F5F5F5F5F5F5F5F5F5F5F5F5F5F5F5F5F5F5F5F5F5F5F5F5F5F5F5F5F5F5F5F5F5F5F5F5F5F5F5F5F5
310
F5F5F5F5F5F5F5F5F5F5F5F5F5F5F5F5F5F5F5F5F5F5F5F5F5F5F5F5F5F5F5F5F5F5F5F5F5F5F5F5F5F5F5F5F5F5F5F5F5F5F5F5F5F5F5F5F5F5F5F5F5F5F5F5F5F5F5F5F5F5F5F5F5F5F5F5F5F5F5F5F5F5F5F5F5F5F5F5F5F5F5F5F5F5F5F5F5F5F5F5F5F5F5F5F5F5F5F5F5F5F5F5F5F5F5F5F5F5F5F5F5F5F5F5F5F5F5
310
F5F5F5F5F5F5F5F5F5F5F5F5F5F5F5F5F5F5F5F5F5F5F5F5F5F5F5F5F5F5F5F5F5F5F5F5F5F5F5F5F5F5F5F5F5F5F5F5F5F5F5F5F5F5F5F5F5F5F5F5F5F5F5F5F5F5F5F5F5F5F5F5F5F5F5F5F5F5F5F5F5F5F5F5F5F5F5F5F5F5F5F5F5F5F5F5F5F5F5F5F5F5F5F5F5F5F5F5F5F5F5F5F5F5F5F5F5F5F5F5F5F5F5F5F5F5F5
310
F5F5F5F5F5F5F5F5F5F5F5F5F5F5F5F5F5F5F5F5F5F5F5F5F5F5F5F5F5F5F5F5F5F5F5F5F5F5F5F5F5F5F5F5F5F5F5F5F5F5F5F5F5F5F5F5F5F5F5F5F5F5F5F5F5F5F5F5F5F5F5F5F5F5F5F5F5F5F5F5F5F5F5F5F5F5F5F5F5F5F5F5F5F5F5F5F5F5F5F5F5F5F5F5F5F5F5F5F5F5F5F5F5F5F5F5F5F5F5F5F5F5F5F5F5F5F5
310
F5F5F5F5F5F5F5F5F5F5F5F5F5F5F5F5F5F5F5F5F5F5F5F5F5F5F5F5F5F5F5F5F5F5F5F5F5F5F5F5F5F5F5F5F5F5F5F5F5F5F5F5F5F5F5F5F5F5F5F5F5F5F5F5F5F5F5F5F5F5F5F5F5F5F5F5F5F5F5F5F5F5F5F5F5F5F5F5F5F5F5F5F5F5F5F5F5F5F5F5F5F5F5F5F5F5F5F5F5F5F5F5F5F5F5F5F5F5F5F5F5F5F5F5F5F5F5
310
F5F5F5F5F5F5F5F5F5F5F5F5F5F5F5F5F5F5F5F5F5F5F5F5F5F5F5F5F5F5F5F5F5F5F5F5F5F5F5F5F5F5F5F5F5F5F5F5F5F5F5F5F5F5F5F5F5F5F5F5F5F5F5F5F5F5F5F5F5F5F5F5F5F5F5F5F5F5F5F5F5F5F5F5F5F5F5F5F5F5F5F5F5F5F5F5F5F5F5F5F5F5F5F5F5F5F5F5F5F5F5F5F5F5F5F5F5F5F5F5F5F5F5F5F5F5F5
310
F5F5F5F5F5F5F5F5F5F5F5F5F5F5F5F5F5F5F5F5F5F5F5F5F5F5F5F5F5F5F5F5F5F5F5F5F5F5F5F5F5F5F5F5F5F5F5F5F5F5F5F5F5F5F5F5F5F5F5F5F5F5F5F5F5F5F5F5F5F5F5F5F5F5F5F5F5F5F5F5F5F5F5F5F5F5F5F5F5F5F5F5F5F5F5F5F5F5F5F5F5F5F5F5F5F5F5F5F5F5F5F5F5F5F5F5F5F5F5F5F5F5F5F5F5F5F5
310
F5F5F5F5F5F5F5F5F5F5F5F5F5F5F5F5F5F5F5F5F5F5F5F5F5F5F5F5F5F5F5F5F5F5F5F5F5F5F5F5F5F5F5F5F5F5F5F5F5F5F5F5F5F5F5F5F5F5F5F5F5F5F5F5F5F5F5F5F5F5F5F5F5F5F5F5F5F5F5F5F5F5F5F5F5F5F5F5F5F5F5F5F5F5F5F5F5F5F5F5F5F5F5F5F5F5F5F5F5F5F5F5F5F5F5F5F5F5F5F5F5F5F5F5F5F5F5
310
F5F5F5F5F5F5F5F5F5F5F5F5F5F5F5F5F5F5F5F5F5F5F5F5F5F5F5F5F5F5F5F5F5F5F5F5F5F5F5F5F5F5F5F5F5F5F5F5F5F5F5F5F5F5F5F5F5F5F5F5F5F5F5F5F5F5F5F5F5F5F5F5F5F5F5F5F5F5F5F5F5F5F5F5F5F5F5F5F5F5F5F5F5F5F5F5F5F5F5F5F5F5F5F5F5F5F5F5F5F5F5F5F5F5F5F5F5F5F5F5F5F5F5F5F5F5F5
310
F5F5F5F5F5F5F5F5F5F5F5F5F5F5F5F5F5F5F5F5F5F5F5F5F5F5F5F5F5F5F5F5F5F5F5F5F5F5F5F5F5F5F5F5F5F5F5F5F5F5F5F5F5F5F5F5F5F5F5F5F5F5F5F5F5F5F5F5F5F5F5F5F5F5F5F5F5F5F5F5F5F5F5F5F5F5F5F5F5F5F5F5F5F5F5F5F5F5F5F5F5F5F5F5F5F5F5F5F5F5F5F5F5F5F5F5F5F5F5F5F5F5F5F5F5F5F5
310
F5F5F5F5F5F5F5F5F5F5F5F5F5F5F5F5F5F5F5F5F5F5F5F5F5F5F5F5F5F5F5F5F5F5F5F5F5F5F5F5F5F5F5F5F5F5F5F5F5F5F5F5F5F5F5F5F5F5F5F5F5F5F5F5F5F5F5F5F5F5F5F5F5F5F5F5F5F5F5F5F5F5F5F5F5F5F5F5F5F5F5F5F5F5F5F5F5F5F5F5F5F5F5F5F5F5F5F5F5F5F5F5F5F5F5F5F5F5F5F5F5F5F5F5F5F5F5
310
F5F5F5F5F5F5F5F5F5F5F5F5F5F5F5F5F5F5F5F5F5F5F5F5F5F5F5F5F5F5F5F5F5F5F5F5F5F5F5F5F5F5F5F5F5F5F5F5F5F5F5F5F5F5F5F5F5F5F5F5F5F5F5F5F5F5F5F5F5F5F5F5F5F5F5F5F5F5F5F5F5F5F5F5F5F5F5F5F5F5F5F5F5F5F5F5F5F5F5F5F5F5F5F5F5F5F5F5F5F5F5F5F5F5F5F5F5F5F5F5F5F5F5F5F5F5F5
310
F5F5F5F5F5F5F5F5F5F5F5F5F5F5F5F5F5F5F5F5F5F5F5F5F5F5F5F5F5F5F5F5F5F5F5F5F5F5F5F5F5F5F5F5F5F5F5F5F5F5F5F5F5F5F5F5F5F5F5F5F5F5F5F5F5F5F5F5F5F5F5F5F5F5F5F5F5F5F5F5F5F5F5F5F5F5F5F5F5F5F5F5F5F5F5F5F5F5F5F5F5F5F5F5F5F5F5F5F5F5F5F5F5F5F5F5F5F5F5F5F5F5F5F5F5F5F5
310
F5F5F5F5F5F5F5F5F5F5F5F5F5F5F5F5F5F5F5F5F5F5F5F5F5F5F5F5F5F5F5F5F5F5F5F5F5F5F5F5F5F5F5F5F5F5F5F5F5F5F5F5F5F5F5F5F5F5F5F5F5F5F5F5F5F5F5F5F5F5F5F5F5F5F5F5F5F5F5F5F5F5F5F5F5F5F5F5F5F5F5F5F5F5F5F5F5F5F5F5F5F5F5F5F5F5F5F5F5F5F5F5F5F5F5F5F5F5F5F5F5F5F5F5F5F5F5
310
F5F5F5F5F5F5F5F5F5F5F5F5F5F5F5F5F5F5F5F5F5F5F5F5F5F5F5F5F5F5F5F5F5F5F5F5F5F5F5F5F5F5F5F5F5F5F5F5F5F5F5F5F5F5F5F5F5F5F5F5F5F5F5F5F5F5F5F5F5F5F5F5F5F5F5F5F5F5F5F5F5F5F5F5F5F5F5F5F5F5F5F5F5F5F5F5F5F5F5F5F5F5F5F5F5F5F5F5F5F5F5F5F5F5F5F5F5F5F5F5F5F5F5F5F5F5F5
310
F5F5F5F5F5F5F5F5F5F5F5F5F5F5F5F5F5F5F5F5F5F5F5F5F5F5F5F5F5F5F5F5F5F5F5F5F5F5F5F5F5F5F5F5F5F5F5F5F5F5F5F5F5F5F5F5F5F5F5F5F5F5F5F5F5F5F5F5F5F5F5F5F5F5F5F5F5F5F5F5F5F5F5F5F5F5F5F5F5F5F5F5F5F5F5F5F5F5F5F5F5F5F5F5F5F5F5F5F5F5F5F5F5F5F5F5F5F5F5F5F5F5F5F5F5F5F5
310
F5F5F5F5F5F5F5F5F5F5F5F5F5F5F5F5F5F5F5F5F5F5F5F5F5F5F5F5F5F5F5F5F5F5F5F5F5F5F5F5F5F5F5F5F5F5F5F5F5F5F5F5F5F5F5F5F5F5F5F5F5F5F5F5F5F5F5F5F5F5F5F5F5F5F5F5F5F5F5F5F5F5F5F5F5F5F5F5F5F5F5F5F5F5F5F5F5F5F5F5F5F5F5F5F5F5F5F5F5F5F5F5F5F5F5F5F5F5F5F5F5F5F5F5F5F5F5
310
F5F5F5F5F5F5F5F5F5F5F5F5F5F5F5F5F5F5F5F5F5F5F5F5F5F5F5F5F5F5F5F5F5F5F5F5F5F5F5F5F5F5F5F5F5F5F5F5F5F5F5F5F5F5F5F5F5F5F5F5F5F5F5F5F5F5F5F5F5F5F5F5F5F5F5F5F5F5F5F5F5F5F5F5F5F5F5F5F5F5F5F5F5F5F5F5F5F5F5F5F5F5F5F5F5F5F5F5F5F5F5F5F5F5F5F5F5F5F5F5F5F5F5F5F5F5F5
310
F5F5F5F5F5F5F5F5F5F5F5F5F5F5F5F5F5F5F5F5F5F5F5F5F5F5F5F5F5F5F5F5F5F5F5F5F5F5F5F5F5F5F5F5F5F5F5F5F5F5F5F5F5F5F5F5F5F5F5F5F5F5F5F5F5F5F5F5F5F5F5F5F5F5F5F5F5F5F5F5F5F5F5F5F5F5F5F5F5F5F5F5F5F5F5F5F5F5F5F5F5F5F5F5F5F5F5F5F5F5F5F5F5F5F5F5F5F5F5F5F5F5F5F5F5F5F5
310
F5F5F5F5F5F5F5F5F5F5F5F5F5F5F5F5F5F5F5F5F5F5F5F5F5F5F5F5F5F5F5F5F5F5F5F5F5F5F5F5F5F5F5F5F5F5F5F5F5F5F5F5F5F5F5F5F5F5F5F5F5F5F5F5F5F5F5F5F5F5F5F5F5F5F5F5F5F5F5F5F5F5F5F5F5F5F5F5F5F5F5F5F5F5F5F5F5F5F5F5F5F5F5F5F5F5F5F5F5F5F5F5F5F5F5F5F5F5F5F5F5F5F5F5F5F5F5
310
F5F5F5F5F5F5F5F5F5F5F5F5F5F5F5F5F5F5F5F5F5F5F5F5F5F5F5F5F5F5F5F5F5F5F5F5F5F5F5F5F5F5F5F5F5F5F5F5F5F5F5F5F5F5F5F5F5F5F5F5F5F5F5F5F5F5F5F5F5F5F5F5F5F5F5F5F5F5F5F5F5F5F5F5F5F5F5F5F5F5F5F5F5F5F5F5F5F5F5F5F5F5F5F5F5F5F5F5F5F5F5F5F5F5F5F5F5F5F5F5F5F5F5F5F5F5F5
310
F5F5F5F5F5F5F5F5F5F5F5F5F5F5F5F5F5F5F5F5F5F5F5F5F5F5F5F5F5F5F5F5F5F5F5F5F5F5F5F5F5F5F5F5F5F5F5F5F5F5F5F5F5F5F5F5F5F5F5F5F5F5F5F5F5F5F5F5F5F5F5F5F5F5F5F5F5F5F5F5F5F5F5F5F5F5F5F5F5F5F5F5F5F5F5F5F5F5F5F5F5F5F5F5F5F5F5F5F5F5F5F5F5F5F5F5F5F5F5F5F5F5F5F5F5F5F5
310
F5F5F5F5F5F5F5F5F5F5F5F5F5F5F5F5F5F5F5F5F5F5F5F5F5F5F5F5F5F5F5F5F5F5F5F5F5F5F5F5F5F5F5F5F5F5F5F5F5F5F5F5F5F5F5F5F5F5F5F5F5F5F5F5F5F5F5F5F5F5F5F5F5F5F5F5F5F5F5F5F5F5F5F5F5F5F5F5F5F5F5F5F5F5F5F5F5F5F5F5F5F5F5F5F5F5F5F5F5F5F5F5F5F5F5F5F5F5F5F5F5F5F5F5F5F5F5
310
F5F5F5F5F5F5F5F5F5F5F5F5F5F5F5F5F5F5F5F5F5F5F5F5F5F5F5F5F5F5F5F5F5F5F5F5F5F5F5F5F5F5F5F5F5F5F5F5F5F5F5F5F5F5F5F5F5F5F5F5F5F5F5F5F5F5F5F5F5F5F5F5F5F5F5F5F5F5F5F5F5F5F5F5F5F5F5F5F5F5F5F5F5F5F5F5F5F5F5F5F5F5F5F5F5F5F5F5F5F5F5F5F5F5F5F5F5F5F5F5F5F5F5F5F5F5F5
310
F5F5F5F5F5F5F5F5F5F5F5F5F5F5F5F5F5F5F5F5F5F5F5F5F5F5F5F5F5F5F5F5F5F5F5F5F5F5F5F5F5F5F5F5F5F5F5F5F5F5F5F5F5F5F5F5F5F5F5F5F5F5F5F5F5F5F5F5F5F5F5F5F5F5F5F5F5F5F5F5F5F5F5F5F5F5F5F5F5F5F5F5F5F5F5F5F5F5F5F5F5F5F5F5F5F5F5F5F5F5F5F5F5F5F5F5F5F5F5F5F5F5F5F5F5F5F5
310
F5F5F5F5F5F5F5F5F5F5F5F5F5F5F5F5F5F5F5F5F5F5F5F5F5F5F5F5F5F5F5F5F5F5F5F5F5F5F5F5F5F5F5F5F5F5F5F5F5F5F5F5F5F5F5F5F5F5F5F5F5F5F5F5F5F5F5F5F5F5F5F5F5F5F5F5F5F5F5F5F5F5F5F5F5F5F5F5F5F5F5F5F5F5F5F5F5F5F5F5F5F5F5F5F5F5F5F5F5F5F5F5F5F5F5F5F5F5F5F5F5F5F5F5F5F5F5
310
F5F5F5F5F5F5F5F5F5F5F5F5F5F5F5F5F5F5F5F5F5F5F5F5F5F5F5F5F5F5F5F5F5F5F5F5F5F5F5F5F5F5F5F5F5F5F5F5F5F5F5F5F5F5F5F5F5F5F5F5F5F5F5F5F5F5F5F5F5F5F5F5F5F5F5F5F5F5F5F5F5F5F5F5F5F5F5F5F5F5F5F5F5F5F5F5F5F5F5F5F5F5F5F5F5F5F5F5F5F5F5F5F5F5F5F5F5F5F5F5F5F5F5F5F5F5F5
310
F5F5F5F5F5F5F5F5F5F5F5F5F5F5F5F5F5F5F5F5F5F5F5F5F5F5F5F5F5F5F5F5F5F5F5F5F5F5F5F5F5F5F5F5F5F5F5F5F5F5F5F5F5F5F5F5F5F5F5F5F5F5F5F5F5F5F5F5F5F5F5F5F5F5F5F5F5F5F5F5F5F5F5F5F5F5F5F5F5F5F5F5F5F5F5F5F5F5F5F5F5F5F5F5F5F5F5F5F5F5F5F5F5F5F5F5F5F5F5F5F5F5F5F5F5F5F5
310
F5F5F5F5F5F5F5F5F5F5F5F5F5F5F5F5F5F5F5F5F5F5F5F5F5F5F5F5F5F5F5F5F5F5F5F5F5F5F5F5F5F5F5F5F5F5F5F5F5F5F5F5F5F5F5F5F5F5F5F5F5F5F5F5F5F5F5F5F5F5F5F5F5F5F5F5F5F5F5F5F5F5F5F5F5F5F5F5F5F5F5F5F5F5F5F5F5F5F5F5F5F5F5F5F5F5F5F5F5F5F5F5F5F5F5F5F5F5F5F5F5F5F5F5F5F5F5
310
F5F5F5F5F5F5F5F5F5F5F5F5F5F5F5F5F5F5F5F5F5F5F5F5F5F5F5F5F5F5F5F5F5F5F5F5F5F5F5F5F5F5F5F5F5F5F5F5F5F5F5F5F5F5F5F5F5F5F5F5F5F5F5F5F5F5F5F5F5F5F5F5F5F5F5F5F5F5F5F5F5F5F5F5F5F5F5F5F5F5F5F5F5F5F5F5F5F5F5F5F5F5F5F5F5F5F5F5F5F5F5F5F5F5F5F5F5F5F5F5F5F5F5F5F5F5F5
310
F5F5F5F5F5F5F5F5F5F5F5F5F5F5F5F5F5F5F5F5F5F5F5F5F5F5F5F5F5F5F5F5F5F5F5F5F5F5F5F5F5F5F5F5F5F5F5F5F5F5F5F5F5F5F5F5F5F5F5F5F5F5F5F5F5F5F5F5F5F5F5F5F5F5F5F5F5F5F5F5F5F5F5F5F5F5F5F5F5F5F5F5F5F5F5F5F5F5F5F5F5F5F5F5F5F5F5F5F5F5F5F5F5F5F5F5F5F5F5F5F5F5F5F5F5F5F5
310
F5F5F5F5F5F5F5F5F5F5F5F5F5F5F5F5F5F5F5F5F5F5F5F5F5F5F5F5F5F5F5F5F5F5F5F5F5F5F5F5F5F5F5F5F5F5F5F5F5F5F5F5F5F5F5F5F5F5F5F5F5F5F5F5F5F5F5F5F5F5F5F5F5F5F5F5F5F5F5F5F5F5F5F5F5F5F5F5F5F5F5F5F5F5F5F5F5F5F5F5F5F5F5F5F5F5F5F5F5F5F5F5F5F5F5F5F5F5F5F5F5F5F5F5F5F5F5
310
F5F5F5F5F5F5F5F5F5F5F5F5F5F5F5F5F5F5F5F5F5F5F5F5F5F5F5F5F5F5F5F5F5F5F5F5F5F5F5F5F5F5F5F5F5F5F5F5F5F5F5F5F5F5F5F5F5F5F5F5F5F5F5F5F5F5F5F5F5F5F5F5F5F5F5F5F5F5F5F5F5F5F5F5F5F5F5F5F5F5F5F5F5F5F5F5F5F5F5F5F5F5F5F5F5F5F5F5F5F5F5F5F5F5F5F5F5F5F5F5F5F5F5F5F5F5F5
310
F5F5F5F5F5F5F5F5F5F5F5F5F5F5F5F5F5F5F5F5F5F5F5F5F5F5F5F5F5F5F5F5F5F5F5F5F5F5F5F5F5F5F5F5F5F5F5F5F5F5F5F5F5F5F5F5F5F5F5F5F5F5F5F5F5F5F5F5F5F5F5F5F5F5F5F5F5F5F5F5F5F5F5F5F5F5F5F5F5F5F5F5F5F5F5F5F5F5F5F5F5F5F5F5F5F5F5F5F5F5F5F5F5F5F5F5F5F5F5F5F5F5F5F5F5F5F5
310
F5F5F5F5F5F5F5F5F5F5F5F5F5F5F5F5F5F5F5F5F5F5F5F5F5F5F5F5F5F5F5F5F5F5F5F5F5F5F5F5F5F5F5F5F5F5F5F5F5F5F5F5F5F5F5F5F5F5F5F5F5F5F5F5F5F5F5F5F5F5F5F5F5F5F5F5F5F5F5F5F5F5F5F5F5F5F5F5F5F5F5F5F5F5F5F5F5F5F5F5F5F5F5F5F5F5F5F5F5F5F5F5F5F5F5F5F5F5F5F5F5F5F5F5F5F5F5
310
F5F5F5F5F5F5F5F5F5F5F5F5F5F5F5F5F5F5F5F5F5F5F5F5F5F5F5F5F5F5F5F5F5F5F5F5F5F5F5F5F5F5F5F5F5F5F5F5F5F5F5F5F5F5F5F5F5F5F5F5F5F5F5F5F5F5F5F5F5F5F5F5F5F5F5F5F5F5F5F5F5F5F5F5F5F5F5F5F5F5F5F5F5F5F5F5F5F5F5F5F5F5F5F5F5F5F5F5F5F5F5F5F5F5F5F5F5F5F5F5F5F5F5F5F5F5F5
310
F5F5F5F5F5F5F5F5F5F5F5F5F5F5F5F5F5F5F5F5F5F5F5F5F5F5F5F5F5F5F5F5F5F5F5F5F5F5F5F5F5F5F5F5F5F5F5F5F5F5F5F5F5F5F5F5F5F5F5F5F5F5F5F5F5F5F5F5F5F5F5F5F5F5F5F5F5F5F5F5F5F5F5F5F5F5F5F5F5F5F5F5F5F5F5F5F5F5F5F5F5F5F5F5F5F5F5F5F5F5F5F5F5F5F5F5F5F5F5F5F5F5F5F5F5F5F5
310
F5F5F5F5F5F5F5F5F5F5F5F5F5F5F5F5F5F5F5F5F5F5F5F5F5F5F5F5F5F5F5F5F5F5F5F5F5F5F5F5F5F5F5F5F5F5F5F5F5F5F5F5F5F5F5F5F5F5F5F5F5F5F5F5F5F5F5F5F5F5F5F5F5F5F5F5F5F5F5F5F5F5F5F5F5F5F5F5F5F5F5F5F5F5F5F5F5F5F5F5F5F5F5F5F5F5F5F5F5F5F5F5F5F5F5F5F5F5F5F5F5F5F5F5F5F5F5
310
F5F5F5F5F5F5F5F5F5F5F5F5F5F5F5F5F5F5F5F5F5F5F5F5F5F5F5F5F5F5F5F5F5F5F5F5F5F5F5F5F5F5F5F5F5F5F5F5F5F5F5F5F5F5F5F5F5F5F5F5F5F5F5F5F5F5F5F5F5F5F5F5F5F5F5F5F5F5F5F5F5F5F5F5F5F5F5F5F5F5F5F5F5F5F5F5F5F5F5F5F5F5F5F5F5F5F5F5F5F5F5F5F5F5F5F5F5F5F5F5F5F5F5F5F5F5F5
310
F5F5F5F5F5F5F5F5F5F5F5F5F5F5F5F5F5F5F5F5F5F5F5F5F5F5F5F5F5F5F5F5F5F5F5F5F5F5F5F5F5F5F5F5F5F5F5F5F5F5F5F5F5F5F5F5F5F5F5F5F5F5F5F5F5F5F5F5F5F5F5F5F5F5F5F5F5F5F5F5F5F5F5F5F5F5F5F5F5F5F5F5F5F5F5F5F5F5F5F5F5F5F5F5F5F5F5F5F5F5F5F5F5F5F5F5F5F5F5F5F5F5F5F5F5F5F5
310
F5F5F5F5F5F5F5F5F5F5F5F5F5F5F5F5F5F5F5F5F5F5F5F5F5F5F5F5F5F5F5F5F5F5F5F5F5F5F5F5F5F5F5F5F5F5F5F5F5F5F5F5F5F5F5F5F5F5F5F5F5F5F5F5F5F5F5F5F5F5F5F5F5F5F5F5F5F5F5F5F5F5F5F5F5F5F5F5F5F5F5F5F5F5F5F5F5F5F5F5F5F5F5F5F5F5F5F5F5F5F5F5F5F5F5F5F5F5F5F5F5F5F5F5F5F5F5
310
F5F5F5F5F5F5F5F5F5F5F5F5F5F5F5F5F5F5F5F5F5F5F5F5F5F5F5F5F5F5F5F5F5F5F5F5F5F5F5F5F5F5F5F5F5F5F5F5F5F5F5F5F5F5F5F5F5F5F5F5F5F5F5F5F5F5F5F5F5F5F5F5F5F5F5F5F5F5F5F5F5F5F5F5F5F5F5F5F5F5F5F5F5F5F5F5F5F5F5F5F5F5F5F5F5F5F5F5F5F5F5F5F5F5F5F5F5F5F5F5F5F5F5F5F5F5F5
310
F5F5F5F5F5F5F5F5F5F5F5F5F5F5F5F5F5F5F5F5F5F5F5F5F5F5F5F5F5F5F5F5F5F5F5F5F5F5F5F5F5F5F5F5F5F5F5F5F5F5F5F5F5F5F5F5F5F5F5F5F5F5F5F5F5F5F5F5F5F5F5F5F5F5F5F5F5F5F5F5F5F5F5F5F5F5F5F5F5F5F5F5F5F5F5F5F5F5F5F5F5F5F5F5F5F5F5F5F5F5F5F5F5F5F5F5F5F5F5F5F5F5F5F5F5F5F5
310
F5F5F5F5F5F5F5F5F5F5F5F5F5F5F5F5F5F5F5F5F5F5F5F5F5F5F5F5F5F5F5F5F5F5F5F5F5F5F5F5F5F5F5F5F5F5F5F5F5F5F5F5F5F5F5F5F5F5F5F5F5F5F5F5F5F5F5F5F5F5F5F5F5F5F5F5F5F5F5F5F5F5F5F5F5F5F5F5F5F5F5F5F5F5F5F5F5F5F5F5F5F5F5F5F5F5F5F5F5F5F5F5F5F5F5F5F5F5F5F5F5F5F5F5F5F5F5
310
F5F5F5F5F5F5F5F5F5F5F5F5F5F5F5F5F5F5F5F5F5F5F5F5F5F5F5F5F5F5F5F5F5F5F5F5F5F5F5F5F5F5F5F5F5F5F5F5F5F5F5F5F5F5F5F5F5F5F5F5F5F5F5F5F5F5F5F5F5F5F5F5F5F5F5F5F5F5F5F5F5F5F5F5F5F5F5F5F5F5F5F5F5F5F5F5F5F5F5F5F5F5F5F5F5F5F5F5F5F5F5F5F5F5F5F5F5F5F5F5F5F5F5F5F5F5F5
310
F5F5F5F5F5F5F5F5F5F5F5F5F5F5F5F5F5F5F5F5F5F5F5F5F5F5F5F5F5F5F5F5F5F5F5F5F5F5F5F5F5F5F5F5F5F5F5F5F5F5F5F5F5F5F5F5F5F5F5F5F5F5F5F5F5F5F5F5F5F5F5F5F5F5F5F5F5F5F5F5F5F5F5F5F5F5F5F5F5F5F5F5F5F5F5F5F5F5F5F5F5F5F5F5F5F5F5F5F5F5F5F5F5F5F5F5F5F5F5F5F5F5F5F5F5F5F5
310
F5F5F5F5F5F5F5F5F5F5F5F5F5F5F5F5F5F5F5F5F5F5F5F5F5F5F5F5F5F5F5F5F5F5F5F5F5F5F5F5F5F5F5F5F5F5F5F5F5F5F5F5F5F5F5F5F5F5F5F5F5F5F5F5F5F5F5F5F5F5F5F5F5F5F5F5F5F5F5F5F5F5F5F5F5F5F5F5F5F5F5F5F5F5F5F5F5F5F5F5F5F5F5F5F5F5F5F5F5F5F5F5F5F5F5F5F5F5F5F5F5F5F5F5F5F5F5
310
F5F5F5F5F5F5F5F5F5F5F5F5F5F5F5F5F5F5F5F5F5F5F5F5F5F5F5F5F5F5F5F5F5F5F5F5F5F5F5F5F5F5F5F5F5F5F5F5F5F5F5F5F5F5F5F5F5F5F5F5F5F5F5F5F5F5F5F5F5F5F5F5F5F5F5F5F5F5F5F5F5F5F5F5F5F5F5F5F5F5F5F5F5F5F5F5F5F5F5F5F5F5F5F5F5F5F5F5F5F5F5F5F5F5F5F5F5F5F5F5F5F5F5F5F5F5F5
310
F5F5F5F5F5F5F5F5F5F5F5F5F5F5F5F5F5F5F5F5F5F5F5F5F5F5F5F5F5F5F5F5F5F5F5F5F5F5F5F5F5F5F5F5F5F5F5F5F5F5F5F5F5F5F5F5F5F5F5F5F5F5F5F5F5F5F5F5F5F5F5F5F5F5F5F5F5F5F5F5F5F5F5F5F5F5F5F5F5F5F5F5F5F5F5F5F5F5F5F5F5F5F5F5F5F5F5F5F5F5F5F5F5F5F5F5F5F5F5F5F5F5F5F5F5F5F5
310
F5F5F5F5F5F5F5F5F5F5F5F5F5F5F5F5F5F5F5F5F5F5F5F5F5F5F5F5F5F5F5F5F5F5F5F5F5F5F5F5F5F5F5F5F5F5F5F5F5F5F5F5F5F5F5F5F5F5F5F5F5F5F5F5F5F5F5F5F5F5F5F5F5F5F5F5F5F5F5F5F5F5F5F5F5F5F5F5F5F5F5F5F5F5F5F5F5F5F5F5F5F5F5F5F5F5F5F5F5F5F5F5F5F5F5F5F5F5F5F5F5F5F5F5F5F5F5
310
F5F5F5F5F5F5F5F5F5F5F5F5F5F5F5F5F5F5F5F5F5F5F5F5F5F5F5F5F5F5F5F5F5F5F5F5F5F5F5F5F5F5F5F5F5F5F5F5F5F5F5F5F5F5F5F5F5F5F5F5F5F5F5F5F5F5F5F5F5F5F5F5F5F5F5F5F5F5F5F5F5F5F5F5F5F5F5F5F5F5F5F5F5F5F5F5F5F5F5F5F5F5F5F5F5F5F5F5F5F5F5F5F5F5F5F5F5F5F5F5F5F5F5F5F5F5F5
310
F5F5F5F5F5F5F5F5F5F5F5F5F5F5F5F5F5F5F5F5F5F5F5F5F5F5F5F5F5F5F5F5F5F5F5F5F5F5F5F5F5F5F5F5F5F5F5F5F5F5F5F5F5F5F5F5F5F5F5F5F5F5F5F5F5F5F5F5F5F5F5F5F5F5F5F5F5F5F5F5F5F5F5F5F5F5F5F5F5F5F5F5F5F5F5F5F5F5F5F5F5F5F5F5F5F5F5F5F5F5F5F5F5F5F5F5F5F5F5F5F5F5F5F5F5F5F5
310
F5F5F5F5F5F5F5F5F5F5F5F5F5F5F5F5F5F5F5F5F5F5F5F5F5F5F5F5F5F5F5F5F5F5F5F5F5F5F5F5F5F5F5F5F5F5F5F5F5F5F5F5F5F5F5F5F5F5F5F5F5F5F5F5F5F5F5F5F5F5F5F5F5F5F5F5F5F5F5F5F5F5F5F5F5F5F5F5F5F5F5F5F5F5F5F5F5F5F5F5F5F5F5F5F5F5F5F5F5F5F5F5F5F5F5F5F5F5F5F5F5F5F5F5F5F5F5
310
F5F5F5F5F5F5F5F5F5F5F5F5F5F5F5F5F5F5F5F5F5F5F5F5F5F5F5F5F5F5F5F5F5F5F5F5F5F5F5F5F5F5F5F5F5F5F5F5F5F5F5F5F5F5F5F5F5F5F5F5F5F5F5F5F5F5F5F5F5F5F5F5F5F5F5F5F5F5F5F5F5F5F5F5F5F5F5F5F5F5F5F5F5F5F5F5F5F5F5F5F5F5F5F5F5F5F5F5F5F5F5F5F5F5F5F5F5F5F5F5F5F5F5F5F5F5F5
310
F5F5F5F5F5F5F5F5F5F5F5F5F5F5F5F5F5F5F5F5F5F5F5F5F5F5F5F5F5F5F5F5F5F5F5F5F5F5F5F5F5F5F5F5F5F5F5F5F5F5F5F5F5F5F5F5F5F5F5F5F5F5F5F5F5F5F5F5F5F5F5F5F5F5F5F5F5F5F5F5F5F5F5F5F5F5F5F5F5F5F5F5F5F5F5F5F5F5F5F5F5F5F5F5F5F5F5F5F5F5F5F5F5F5F5F5F5F5F5F5F5F5F5F5F5F5F5
310
F5F5F5F5F5F5F5F5F5F5F5F5F5F5F5F5F5F5F5F5F5F5F5F5F5F5F5F5F5F5F5F5F5F5F5F5F5F5F5F5F5F5F5F5F5F5F5F5F5F5F5F5F5F5F5F5F5F5F5F5F5F5F5F5F5F5F5F5F5F5F5F5F5F5F5F5F5F5F5F5F5F5F5F5F5F5F5F5F5F5F5F5F5F5F5F5F5F5F5F5F5F5F5F5F5F5F5F5F5F5F5F5F5F5F5F5F5F5F5F5F5F5F5F5F5F5F5
310
F5F5F5F5F5F5F5F5F5F5F5F5F5F5F5F5F5F5F5F5F5F5F5F5F5F5F5F5F5F5F5F5F5F5F5F5F5F5F5F5F5F5F5F5F5F5F5F5F5F5F5F5F5F5F5F5F5F5F5F5F5F5F5F5F5F5F5F5F5F5F5F5F5F5F5F5F5F5F5F5F5F5F5F5F5F5F5F5F5F5F5F5F5F5F5F5F5F5F5F5F5F5F5F5F5F5F5F5F5F5F5F5F5F5F5F5F5F5F5F5F5F5F5F5F5F5F5
310
F5F5F5F5F5F5F5F5F5F5F5F5F5F5F5F5F5F5F5F5F5F5F5F5F5F5F5F5F5F5F5F5F5F5F5F5F5F5F5F5F5F5F5F5F5F5F5F5F5F5F5F5F5F5F5F5F5F5F5F5F5F5F5F5F5F5F5F5F5F5F5F5F5F5F5F5F5F5F5F5F5F5F5F5F5F5F5F5F5F5F5F5F5F5F5F5F5F5F5F5F5F5F5F5F5F5F5F5F5F5F5F5F5F5F5F5F5F5F5F5F5F5F5F5F5F5F5
310
F5F5F5F5F5F5F5F5F5F5F5F5F5F5F5F5F5F5F5F5F5F5F5F5F5F5F5F5F5F5F5F5F5F5F5F5F5F5F5F5F5F5F5F5F5F5F5F5F5F5F5F5F5F5F5F5F5F5F5F5F5F5F5F5F5F5F5F5F5F5F5F5F5F5F5F5F5F5F5F5F5F5F5F5F5F5F5F5F5F5F5F5F5F5F5F5F5F5F5F5F5F5F5F5F5F5F5F5F5F5F5F5F5F5F5F5F5F5F5F5F5F5F5F5F5F5F5
310
F5F5F5F5F5F5F5F5F5F5F5F5F5F5F5F5F5F5F5F5F5F5F5F5F5F5F5F5F5F5F5F5F5F5F5F5F5F5F5F5F5F5F5F5F5F5F5F5F5F5F5F5F5F5F5F5F5F5F5F5F5F5F5F5F5F5F5F5F5F5F5F5F5F5F5F5F5F5F5F5F5F5F5F5F5F5F5F5F5F5F5F5F5F5F5F5F5F5F5F5F5F5F5F5F5F5F5F5F5F5F5F5F5F5F5F5F5F5F5F5F5F5F5F5F5F5F5
310
F5F5F5F5F5F5F5F5F5F5F5F5F5F5F5F5F5F5F5F5F5F5F5F5F5F5F5F5F5F5F5F5F5F5F5F5F5F5F5F5F5F5F5F5F5F5F5F5F5F5F5F5F5F5F5F5F5F5F5F5F5F5F5F5F5F5F5F5F5F5F5F5F5F5F5F5F5F5F5F5F5F5F5F5F5F5F5F5F5F5F5F5F5F5F5F5F5F5F5F5F5F5F5F5F5F5F5F5F5F5F5F5F5F5F5F5F5F5F5F5F5F5F5F5F5F5F5
310
F5F5F5F5F5F5F5F5F5F5F5F5F5F5F5F5F5F5F5F5F5F5F5F5F5F5F5F5F5F5F5F5F5F5F5F5F5F5F5F5F5F5F5F5F5F5F5F5F5F5F5F5F5F5F5F5F5F5F5F5F5F5F5F5F5F5F5F5F5F5F5F5F5F5F5F5F5F5F5F5F5F5F5F5F5F5F5F5F5F5F5F5F5F5F5F5F5F5F5F5F5F5F5F5F5F5F5F5F5F5F5F5F5F5F5F5F5F5F5F5F5F5F5F5F5F5F5
310
F5F5F5F5F5F5F5F5F5F5F5F5F5F5F5F5F5F5F5F5F5F5F5F5F5F5F5F5F5F5F5F5F5F5F5F5F5F5F5F5F5F5F5F5F5F5F5F5F5F5F5F5F5F5F5F5F5F5F5F5F5F5F5F5F5F5F5F5F5F5F5F5F5F5F5F5F5F5F5F5F5F5F5F5F5F5F5F5F5F5F5F5F5F5F5F5F5F5F5F5F5F5F5F5F5F5F5F5F5F5F5F5F5F5F5F5F5F5F5F5F5F5F5F5F5F5F5
310
F5F5F5F5F5F5F5F5F5F5F5F5F5F5F5F5F5F5F5F5F5F5F5F5F5F5F5F5F5F5F5F5F5F5F5F5F5F5F5F5F5F5F5F5F5F5F5F5F5F5F5F5F5F5F5F5F5F5F5F5F5F5F5F5F5F5F5F5F5F5F5F5F5F5F5F5F5F5F5F5F5F5F5F5F5F5F5F5F5F5F5F5F5F5F5F5F5F5F5F5F5F5F5F5F5F5F5F5F5F5F5F5F5F5F5F5F5F5F5F5F5F5F5F5F5F5F5
310
F5F5F5F5F5F5F5F5F5F5F5F5F5F5F5F5F5F5F5F5F5F5F5F5F5F5F5F5F5F5F5F5F5F5F5F5F5F5F5F5F5F5F5F5F5F5F5F5F5F5F5F5F5F5F5F5F5F5F5F5F5F5F5F5F5F5F5F5F5F5F5F5F5F5F5F5F5F5F5F5F5F5F5F5F5F5F5F5F5F5F5F5F5F5F5F5F5F5F5F5F5F5F5F5F5F5F5F5F5F5F5F5F5F5F5F5F5F5F5F5F5F5F5F5F5F5F5
310
F5F5F5F5F5F5F5F5F5F5F5F5F5F5F5F5F5F5F5F5F5F5F5F5F5F5F5F5F5F5F5F5F5F5F5F5F5F5F5F5F5F5F5F5F5F5F5F5F5F5F5F5F5F5F5F5F5F5F5F5F5F5F5F5F5F5F5F5F5F5F5F5F5F5F5F5F5F5F5F5F5F5F5F5F5F5F5F5F5F5F5F5F5F5F5F5F5F5F5F5F5F5F5F5F5F5F5F5F5F5F5F5F5F5F5F5F5F5F5F5F5F5F5F5F5F5F5
310
F5F5F5F5F5F5F5F5F5F5F5F5F5F5F5F5F5F5F5F5F5F5F5F5F5F5F5F5F5F5F5F5F5F5F5F5F5F5F5F5F5F5F5F5F5F5F5F5F5F5F5F5F5F5F5F5F5F5F5F5F5F5F5F5F5F5F5F5F5F5F5F5F5F5F5F5F5F5F5F5F5F5F5F5F5F5F5F5F5F5F5F5F5F5F5F5F5F5F5F5F5F5F5F5F5F5F5F5F5F5F5F5F5F5F5F5F5F5F5F5F5F5F5F5F5F5F5
310
F5F5F5F5F5F5F5F5F5F5F5F5F5F5F5F5F5F5F5F5F5F5F5F5F5F5F5F5F5F5F5F5F5F5F5F5F5F5F5F5F5F5F5F5F5F5F5F5F5F5F5F5F5F5F5F5F5F5F5F5F5F5F5F5F5F5F5F5F5F5F5F5F5F5F5F5F5F5F5F5F5F5F5F5F5F5F5F5F5F5F5F5F5F5F5F5F5F5F5F5F5F5F5F5F5F5F5F5F5F5F5F5F5F5F5F5F5F5F5F5F5F5F5F5F5F5F5
310
F5F5F5F5F5F5F5F5F5F5F5F5F5F5F5F5F5F5F5F5F5F5F5F5F5F5F5F5F5F5F5F5F5F5F5F5F5F5F5F5F5F5F5F5F5F5F5F5F5F5F5F5F5F5F5F5F5F5F5F5F5F5F5F5F5F5F5F5F5F5F5F5F5F5F5F5F5F5F5F5F5F5F5F5F5F5F5F5F5F5F5F5F5F5F5F5F5F5F5F5F5F5F5F5F5F5F5F5F5F5F5F5F5F5F5F5F5F5F5F5F5F5F5F5F5F5F5
310
F5F5F5F5F5F5F5F5F5F5F5F5F5F5F5F5F5F5F5F5F5F5F5F5F5F5F5F5F5F5F5F5F5F5F5F5F5F5F5F5F5F5F5F5F5F5F5F5F5F5F5F5F5F5F5F5F5F5F5F5F5F5F5F5F5F5F5F5F5F5F5F5F5F5F5F5F5F5F5F5F5F5F5F5F5F5F5F5F5F5F5F5F5F5F5F5F5F5F5F5F5F5F5F5F5F5F5F5F5F5F5F5F5F5F5F5F5F5F5F5F5F5F5F5F5F5F5
310
F5F5F5F5F5F5F5F5F5F5F5F5F5F5F5F5F5F5F5F5F5F5F5F5F5F5F5F5F5F5F5F5F5F5F5F5F5F5F5F5F5F5F5F5F5F5F5F5F5F5F5F5F5F5F5F5F5F5F5F5F5F5F5F5F5F5F5F5F5F5F5F5F5F5F5F5F5F5F5F5F5F5F5F5F5F5F5F5F5F5F5F5F5F5F5F5F5F5F5F5F5F5F5F5F5F5F5F5F5F5F5F5F5F5F5F5F5F5F5F5F5F5F5F5F5F5F5
310
F5F5F5F5F5F5F5F5F5F5F5F5F5F5F5F5F5F5F5F5F5F5F5F5F5F5F5F5F5F5F5F5F5F5F5F5F5F5F5F5F5F5F5F5F5F5F5F5F5F5F5F5F5F5F5F5F5F5F5F5F5F5F5F5F5F5F5F5F5F5F5F5F5F5F5F5F5F5F5F5F5F5F5F5F5F5F5F5F5F5F5F5F5F5F5F5F5F5F5F5F5F5F5F5F5F5F5F5F5F5F5F5F5F5F5F5F5F5F5F5F5F5F5F5F5F5F5
310
F5F5F5F5F5F5F5F5F5F5F5F5F5F5F5F5F5F5F5F5F5F5F5F5F5F5F5F5F5F5F5F5F5F5F5F5F5F5F5F5F5F5F5F5F5F5F5F5F5F5F5F5F5F5F5F5F5F5F5F5F5F5F5F5F5F5F5F5F5F5F5F5F5F5F5F5F5F5F5F5F5F5F5F5F5F5F5F5F5F5F5F5F5F5F5F5F5F5F5F5F5F5F5F5F5F5F5F5F5F5F5F5F5F5F5F5F5F5F5F5F5F5F5F5F5F5F5
310
F5F5F5F5F5F5F5F5F5F5F5F5F5F5F5F5F5F5F5F5F5F5F5F5F5F5F5F5F5F5F5F5F5F5F5F5F5F5F5F5F5F5F5F5F5F5F5F5F5F5F5F5F5F5F5F5F5F5F5F5F5F5F5F5F5F5F5F5F5F5F5F5F5F5F5F5F5F5F5F5F5F5F5F5F5F5F5F5F5F5F5F5F5F5F5F5F5F5F5F5F5F5F5F5F5F5F5F5F5F5F5F5F5F5F5F5F5F5F5F5F5F5F5F5F5F5F5
310
F5F5F5F5F5F5F5F5F5F5F5F5F5F5F5F5F5F5F5F5F5F5F5F5F5F5F5F5F5F5F5F5F5F5F5F5F5F5F5F5F5F5F5F5F5F5F5F5F5F5F5F5F5F5F5F5F5F5F5F5F5F5F5F5F5F5F5F5F5F5F5F5F5F5F5F5F5F5F5F5F5F5F5F5F5F5F5F5F5F5F5F5F5F5F5F5F5F5F5F5F5F5F5F5F5F5F5F5F5F5F5F5F5F5F5F5F5F5F5F5F5F5F5F5F5F5F5
310
F5F5F5F5F5F5F5F5F5F5F5F5F5F5F5F5F5F5F5F5F5F5F5F5F5F5F5F5F5F5F5F5F5F5F5F5F5F5F5F5F5F5F5F5F5F5F5F5F5F5F5F5F5F5F5F5F5F5F5F5F5F5F5F5F5F5F5F5F5F5F5F5F5F5F5F5F5F5F5F5F5F5F5F5F5F5F5F5F5F5F5F5F5F5F5F5F5F5F5F5F5F5F5F5F5F5F5F5F5F5F5F5F5F5F5F5F5F5F5F5F5F5F5F5F5F5F5
310
F5F5F5F5F5F5F5F5F5F5F5F5F5F5F5F5F5F5F5F5F5F5F5F5F5F5F5F5F5F5F5F5F5F5F5F5F5F5F5F5F5F5F5F5F5F5F5F5F5F5F5F5F5F5F5F5F5F5F5F5F5F5F5F5F5F5F5F5F5F5F5F5F5F5F5F5F5F5F5F5F5F5F5F5F5F5F5F5F5F5F5F5F5F5F5F5F5F5F5F5F5F5F5F5F5F5F5F5F5F5F5F5F5F5F5F5F5F5F5F5F5F5F5F5F5F5F5
310
F5F5F5F5F5F5F5F5F5F5F5F5F5F5F5F5F5F5F5F5F5F5F5F5F5F5F5F5F5F5F5F5F5F5F5F5F5F5F5F5F5F5F5F5F5F5F5F5F5F5F5F5F5F5F5F5F5F5F5F5F5F5F5F5F5F5F5F5F5F5F5F5F5F5F5F5F5F5F5F5F5F5F5F5F5F5F5F5F5F5F5F5F5F5F5F5F5F5F5F5F5F5F5F5F5F5F5F5F5F5F5F5F5F5F5F5F5F5F5F5F5F5F5F5F5F5F5
310
F5F5F5F5F5F5F5F5F5F5F5F5F5F5F5F5F5F5F5F5F5F5F5F5F5F5F5F5F5F5F5F5F5F5F5F5F5F5F5F5F5F5F5F5F5F5F5F5F5F5F5F5F5F5F5F5F5F5F5F5F5F5F5F5F5F5F5F5F5F5F5F5F5F5F5F5F5F5F5F5F5F5F5F5F5F5F5F5F5F5F5F5F5F5F5F5F5F5F5F5F5F5F5F5F5F5F5F5F5F5F5F5F5F5F5F5F5F5F5F5F5F5F5F5F5F5F5
310
F5F5F5F5F5F5F5F5F5F5F5F5F5F5F5F5F5F5F5F5F5F5F5F5F5F5F5F5F5F5F5F5F5F5F5F5F5F5F5F5F5F5F5F5F5F5F5F5F5F5F5F5F5F5F5F5F5F5F5F5F5F5F5F5F5F5F5F5F5F5F5F5F5F5F5F5F5F5F5F5F5F5F5F5F5F5F5F5F5F5F5F5F5F5F5F5F5F5F5F5F5F5F5F5F5F5F5F5F5F5F5F5F5F5F5F5F5F5F5F5F5F5F5F5F5F5F5
310
F5F5F5F5F5F5F5F5F5F5F5F5F5F5F5F5F5F5F5F5F5F5F5F5F5F5F5F5F5F5F5F5F5F5F5F5F5F5F5F5F5F5F5F5F5F5F5F5F5F5F5F5F5F5F5F5F5F5F5F5F5F5F5F5F5F5F5F5F5F5F5F5F5F5F5F5F5F5F5F5F5F5F5F5F5F5F5F5F5F5F5F5F5F5F5F5F5F5F5F5F5F5F5F5F5F5F5F5F5F5F5F5F5F5F5F5F5F5F5F5F5F5F5F5F5F5F5
310
F5F5F5F5F5F5F5F5F5F5F5F5F5F5F5F5F5F5F5F5F5F5F5F5F5F5F5F5F5F5F5F5F5F5F5F5F5F5F5F5F5F5F5F5F5F5F5F5F5F5F5F5F5F5F5F5F5F5F5F5F5F5F5F5F5F5F5F5F5F5F5F5F5F5F5F5F5F5F5F5F5F5F5F5F5F5F5F5F5F5F5F5F5F5F5F5F5F5F5F5F5F5F5F5F5F5F5F5F5F5F5F5F5F5F5F5F5F5F5F5F5F5F5F5F5F5F5
310
F5F5F5F5F5F5F5F5F5F5F5F5F5F5F5F5F5F5F5F5F5F5F5F5F5F5F5F5F5F5F5F5F5F5F5F5F5F5F5F5F5F5F5F5F5F5F5F5F5F5F5F5F5F5F5F5F5F5F5F5F5F5F5F5F5F5F5F5F5F5F5F5F5F5F5F5F5F5F5F5F5F5F5F5F5F5F5F5F5F5F5F5F5F5F5F5F5F5F5F5F5F5F5F5F5F5F5F5F5F5F5F5F5F5F5F5F5F5F5F5F5F5F5F5F5F5F5
310
F5F5F5F5F5F5F5F5F5F5F5F5F5F5F5F5F5F5F5F5F5F5F5F5F5F5F5F5F5F5F5F5F5F5F5F5F5F5F5F5F5F5F5F5F5F5F5F5F5F5F5F5F5F5F5F5F5F5F5F5F5F5F5F5F5F5F5F5F5F5F5F5F5F5F5F5F5F5F5F5F5F5F5F5F5F5F5F5F5F5F5F5F5F5F5F5F5F5F5F5F5F5F5F5F5F5F5F5F5F5F5F5F5F5F5F5F5F5F5F5F5F5F5F5F5F5F5
310
F5F5F5F5F5F5F5F5F5F5F5F5F5F5F5F5F5F5F5F5F5F5F5F5F5F5F5F5F5F5F5F5F5F5F5F5F5F5F5F5F5F5F5F5F5F5F5F5F5F5F5F5F5F5F5F5F5F5F5F5F5F5F5F5F5F5F5F5F5F5F5F5F5F5F5F5F5F5F5F5F5F5F5F5F5F5F5F5F5F5F5F5F5F5F5F5F5F5F5F5F5F5F5F5F5F5F5F5F5F5F5F5F5F5F5F5F5F5F5F5F5F5F5F5F5F5F5
310
F5F5F5F5F5F5F5F5F5F5F5F5F5F5F5F5F5F5F5F5F5F5F5F5F5F5F5F5F5F5F5F5F5F5F5F5F5F5F5F5F5F5F5F5F5F5F5F5F5F5F5F5F5F5F5F5F5F5F5F5F5F5F5F5F5F5F5F5F5F5F5F5F5F5F5F5F5F5F5F5F5F5F5F5F5F5F5F5F5F5F5F5F5F5F5F5F5F5F5F5F5F5F5F5F5F5F5F5F5F5F5F5F5F5F5F5F5F5F5F5F5F5F5F5F5F5F5
310
F5F5F5F5F5F5F5F5F5F5F5F5F5F5F5F5F5F5F5F5F5F5F5F5F5F5F5F5F5F5F5F5F5F5F5F5F5F5F5F5F5F5F5F5F5F5F5F5F5F5F5F5F5F5F5F5F5F5F5F5F5F5F5F5F5F5F5F5F5F5F5F5F5F5F5F5F5F5F5F5F5F5F5F5F5F5F5F5F5F5F5F5F5F5F5F5F5F5F5F5F5F5F5F5F5F5F5F5F5F5F5F5F5F5F5F5F5F5F5F5F5F5F5F5F5F5F5
310
F5F5F5F5F5F5F5F5F5F5F5F5F5F5F5F5F5F5F5F5F5F5F5F5F5F5F5F5F5F5F5F5F5F5F5F5F5F5F5F5F5F5F5F5F5F5F5F5F5F5F5F5F5F5F5F5F5F5F5F5F5F5F5F5F5F5F5F5F5F5F5F5F5F5F5F5F5F5F5F5F5F5F5F5F5F5F5F5F5F5F5F5F5F5F5F5F5F5F5F5F5F5F5F5F5F5F5F5F5F5F5F5F5F5F5F5F5F5F5F5F5F5F5F5F5F5F5
310
F5F5F5F5F5F5F5F5F5F5F5F5F5F5F5F5F5F5F5F5F5F5F5F5F5F5F5F5F5F5F5F5F5F5F5F5F5F5F5F5F5F5F5F5F5F5F5F5F5F5F5F5F5F5F5F5F5F5F5F5F5F5F5F5F5F5F5F5F5F5F5F5F5F5F5F5F5F5F5F5F5F5F5F5F5F5F5F5F5F5F5F5F5F5F5F5F5F5F5F5F5F5F5F5F5F5F5F5F5F5F5F5F5F5F5F5F5F5F5F5F5F5F5F5F5F5F5
310
F5F5F5F5F5F5F5F5F5F5F5F5F5F5F5F5F5F5F5F5F5F5F5F5F5F5F5F5F5F5F5F5F5F5F5F5F5F5F5F5F5F5F5F5F5F5F5F5F5F5F5F5F5F5F5F5F5F5F5F5F5F5F5F5F5F5F5F5F5F5F5F5F5F5F5F5F5F5F5F5F5F5F5F5F5F5F5F5F5F5F5F5F5F5F5F5F5F5F5F5F5F5F5F5F5F5F5F5F5F5F5F5F5F5F5F5F5F5F5F5F5F5F5F5F5F5F5
310
F5F5F5F5F5F5F5F5F5F5F5F5F5F5F5F5F5F5F5F5F5F5F5F5F5F5F5F5F5F5F5F5F5F5F5F5F5F5F5F5F5F5F5F5F5F5F5F5F5F5F5F5F5F5F5F5F5F5F5F5F5F5F5F5F5F5F5F5F5F5F5F5F5F5F5F5F5F5F5F5F5F5F5F5F5F5F5F5F5F5F5F5F5F5F5F5F5F5F5F5F5F5F5F5F5F5F5F5F5F5F5F5F5F5F5F5F5F5F5F5F5F5F5F5F5F5F5
310
F5F5F5F5F5F5F5F5F5F5F5F5F5F5F5F5F5F5F5F5F5F5F5F5F5F5F5F5F5F5F5F5F5F5F5F5F5F5F5F5F5F5F5F5F5F5F5F5F5F5F5F5F5F5F5F5F5F5F5F5F5F5F5F5F5F5F5F5F5F5F5F5F5F5F5F5F5F5F5F5F5F5F5F5F5F5F5F5F5F5F5F5F5F5F5F5F5F5F5F5F5F5F5F5F5F5F5F5F5F5F5F5F5F5F5F5F5F5F5F5F5F5F5F5F5F5F5
310
F5F5F5F5F5F5F5F5F5F5F5F5F5F5F5F5F5F5F5F5F5F5F5F5F5F5F5F5F5F5F5F5F5F5F5F5F5F5F5F5F5F5F5F5F5F5F5F5F5F5F5F5F5F5F5F5F5F5F5F5F5F5F5F5F5F5F5F5F5F5F5F5F5F5F5F5F5F5F5F5F5F5F5F5F5F5F5F5F5F5F5F5F5F5F5F5F5F5F5F5F5F5F5F5F5F5F5F5F5F5F5F5F5F5F5F5F5F5F5F5F5F5F5F5F5F5F5
310
F5F5F5F5F5F5F5F5F5F5F5F5F5F5F5F5F5F5F5F5F5F5F5F5F5F5F5F5F5F5F5F5F5F5F5F5F5F5F5F5F5F5F5F5F5F5F5F5F5F5F5F5F5F5F5F5F5F5F5F5F5F5F5F5F5F5F5F5F5F5F5F5F5F5F5F5F5F5F5F5F5F5F5F5F5F5F5F5F5F5F5F5F5F5F5F5F5F5F5F5F5F5F5F5F5F5F5F5F5F5F5F5F5F5F5F5F5F5F5F5F5F5F5F5F5F5F5
310
F5F5F5F5F5F5F5F5F5F5F5F5F5F5F5F5F5F5F5F5F5F5F5F5F5F5F5F5F5F5F5F5F5F5F5F5F5F5F5F5F5F5F5F5F5F5F5F5F5F5F5F5F5F5F5F5F5F5F5F5F5F5F5F5F5F5F5F5F5F5F5F5F5F5F5F5F5F5F5F5F5F5F5F5F5F5F5F5F5F5F5F5F5F5F5F5F5F5F5F5F5F5F5F5F5F5F5F5F5F5F5F5F5F5F5F5F5F5F5F5F5F5F5F5F5F5F5
310
F5F5F5F5F5F5F5F5F5F5F5F5F5F5F5F5F5F5F5F5F5F5F5F5F5F5F5F5F5F5F5F5F5F5F5F5F5F5F5F5F5F5F5F5F5F5F5F5F5F5F5F5F5F5F5F5F5F5F5F5F5F5F5F5F5F5F5F5F5F5F5F5F5F5F5F5F5F5F5F5F5F5F5F5F5F5F5F5F5F5F5F5F5F5F5F5F5F5F5F5F5F5F5F5F5F5F5F5F5F5F5F5F5F5F5F5F5F5F5F5F5F5F5F5F5F5F5
310
F5F5F5F5F5F5F5F5F5F5F5F5F5F5F5F5F5F5F5F5F5F5F5F5F5F5F5F5F5F5F5F5F5F5F5F5F5F5F5F5F5F5F5F5F5F5F5F5F5F5F5F5F5F5F5F5F5F5F5F5F5F5F5F5F5F5F5F5F5F5F5F5F5F5F5F5F5F5F5F5F5F5F5F5F5F5F5F5F5F5F5F5F5F5F5F5F5F5F5F5F5F5F5F5F5F5F5F5F5F5F5F5F5F5F5F5F5F5F5F5F5F5F5F5F5F5F5
310
F5F5F5F5F5F5F5F5F5F5F5F5F5F5F5F5F5F5F5F5F5F5F5F5F5F5F5F5F5F5F5F5F5F5F5F5F5F5F5F5F5F5F5F5F5F5F5F5F5F5F5F5F5F5F5F5F5F5F5F5F5F5F5F5F5F5F5F5F5F5F5F5F5F5F5F5F5F5F5F5F5F5F5F5F5F5F5F5F5F5F5F5F5F5F5F5F5F5F5F5F5F5F5F5F5F5F5F5F5F5F5F5F5F5F5F5F5F5F5F5F5F5F5F5F5F5F5
310
F5F5F5F5F5F5F5F5F5F5F5F5F5F5F5F5F5F5F5F5F5F5F5F5F5F5F5F5F5F5F5F5F5F5F5F5F5F5F5F5F5F5F5F5F5F5F5F5F5F5F5F5F5F5F5F5F5F5F5F5F5F5F5F5F5F5F5F5F5F5F5F5F5F5F5F5F5F5F5F5F5F5F5F5F5F5F5F5F5F5F5F5F5F5F5F5F5F5F5F5F5F5F5F5F5F5F5F5F5F5F5F5F5F5F5F5F5F5F5F5F5F5F5F5F5F5F5
310
F5F5F5F5F5F5F5F5F5F5F5F5F5F5F5F5F5F5F5F5F5F5F5F5F5F5F5F5F5F5F5F5F5F5F5F5F5F5F5F5F5F5F5F5F5F5F5F5F5F5F5F5F5F5F5F5F5F5F5F5F5F5F5F5F5F5F5F5F5F5F5F5F5F5F5F5F5F5F5F5F5F5F5F5F5F5F5F5F5F5F5F5F5F5F5F5F5F5F5F5F5F5F5F5F5F5F5F5F5F5F5F5F5F5F5F5F5F5F5F5F5F5F5F5F5F5F5
310
F5F5F5F5F5F5F5F5F5F5F5F5F5F5F5F5F5F5F5F5F5F5F5F5F5F5F5F5F5F5F5F5F5F5F5F5F5F5F5F5F5F5F5F5F5F5F5F5F5F5F5F5F5F5F5F5F5F5F5F5F5F5F5F5F5F5F5F5F5F5F5F5F5F5F5F5F5F5F5F5F5F5F5F5F5F5F5F5F5F5F5F5F5F5F5F5F5F5F5F5F5F5F5F5F5F5F5F5F5F5F5F5F5F5F5F5F5F5F5F5F5F5F5F5F5F5F5
310
F5F5F5F5F5F5F5F5F5F5F5F5F5F5F5F5F5F5F5F5F5F5F5F5F5F5F5F5F5F5F5F5F5F5F5F5F5F5F5F5F5F5F5F5F5F5F5F5F5F5F5F5F5F5F5F5F5F5F5F5F5F5F5F5F5F5F5F5F5F5F5F5F5F5F5F5F5F5F5F5F5F5F5F5F5F5F5F5F5F5F5F5F5F5F5F5F5F5F5F5F5F5F5F5F5F5F5F5F5F5F5F5F5F5F5F5F5F5F5F5F5F5F5F5F5F5F5
310
F5F5F5F5F5F5F5F5F5F5F5F5F5F5F5F5F5F5F5F5F5F5F5F5F5F5F5F5F5F5F5F5F5F5F5F5F5F5F5F5F5F5F5F5F5F5F5F5F5F5F5F5F5F5F5F5F5F5F5F5F5F5F5F5F5F5F5F5F5F5F5F5F5F5F5F5F5F5F5F5F5F5F5F5F5F5F5F5F5F5F5F5F5F5F5F5F5F5F5F5F5F5F5F5F5F5F5F5F5F5F5F5F5F5F5F5F5F5F5F5F5F5F5F5F5F5F5
310
F5F5F5F5F5F5F5F5F5F5F5F5F5F5F5F5F5F5F5F5F5F5F5F5F5F5F5F5F5F5F5F5F5F5F5F5F5F5F5F5F5F5F5F5F5F5F5F5F5F5F5F5F5F5F5F5F5F5F5F5F5F5F5F5F5F5F5F5F5F5F5F5F5F5F5F5F5F5F5F5F5F5F5F5F5F5F5F5F5F5F5F5F5F5F5F5F5F5F5F5F5F5F5F5F5F5F5F5F5F5F5F5F5F5F5F5F5F5F5F5F5F5F5F5F5F5F5
310
F5F5F5F5F5F5F5F5F5F5F5F5F5F5F5F5F5F5F5F5F5F5F5F5F5F5F5F5F5F5F5F5F5F5F5F5F5F5F5F5F5F5F5F5F5F5F5F5F5F5F5F5F5F5F5F5F5F5F5F5F5F5F5F5F5F5F5F5F5F5F5F5F5F5F5F5F5F5F5F5F5F5F5F5F5F5F5F5F5F5F5F5F5F5F5F5F5F5F5F5F5F5F5F5F5F5F5F5F5F5F5F5F5F5F5F5F5F5F5F5F5F5F5F5F5F5F5
310
F5F5F5F5F5F5F5F5F5F5F5F5F5F5F5F5F5F5F5F5F5F5F5F5F5F5F5F5F5F5F5F5F5F5F5F5F5F5F5F5F5F5F5F5F5F5F5F5F5F5F5F5F5F5F5F5F5F5F5F5F5F5F5F5F5F5F5F5F5F5F5F5F5F5F5F5F5F5F5F5F5F5F5F5F5F5F5F5F5F5F5F5F5F5F5F5F5F5F5F5F5F5F5F5F5F5F5F5F5F5F5F5F5F5F5F5F5F5F5F5F5F5F5F5F5F5F5
310
F5F5F5F5F5F5F5F5F5F5F5F5F5F5F5F5F5F5F5F5F5F5F5F5F5F5F5F5F5F5F5F5F5F5F5F5F5F5F5F5F5F5F5F5F5F5F5F5F5F5F5F5F5F5F5F5F5F5F5F5F5F5F5F5F5F5F5F5F5F5F5F5F5F5F5F5F5F5F5F5F5F5F5F5F5F5F5F5F5F5F5F5F5F5F5F5F5F5F5F5F5F5F5F5F5F5F5F5F5F5F5F5F5F5F5F5F5F5F5F5F5F5F5F5F5F5F5
310
F5F5F5F5F5F5F5F5F5F5F5F5F5F5F5F5F5F5F5F5F5F5F5F5F5F5F5F5F5F5F5F5F5F5F5F5F5F5F5F5F5F5F5F5F5F5F5F5F5F5F5F5F5F5F5F5F5F5F5F5F5F5F5F5F5F5F5F5F5F5F5F5F5F5F5F5F5F5F5F5F5F5F5F5F5F5F5F5F5F5F5F5F5F5F5F5F5F5F5F5F5F5F5F5F5F5F5F5F5F5F5F5F5F5F5F5F5F5F5F5F5F5F5F5F5F5F5
310
F5F5F5F5F5F5F5F5F5F5F5F5F5F5F5F5F5F5F5F5F5F5F5F5F5F5F5F5F5F5F5F5F5F5F5F5F5F5F5F5F5F5F5F5F5F5F5F5F5F5F5F5F5F5F5F5F5F5F5F5F5F5F5F5F5F5F5F5F5F5F5F5F5F5F5F5F5F5F5F5F5F5F5F5F5F5F5F5F5F5F5F5F5F5F5F5F5F5F5F5F5F5F5F5F5F5F5F5F5F5F5F5F5F5F5F5F5F5F5F5F5F5F5F5F5F5F5
310
F5F5F5F5F5F5F5F5F5F5F5F5F5F5F5F5F5F5F5F5F5F5F5F5F5F5F5F5F5F5F5F5F5F5F5F5F5F5F5F5F5F5F5F5F5F5F5F5F5F5F5F5F5F5F5F5F5F5F5F5F5F5F5F5F5F5F5F5F5F5F5F5F5F5F5F5F5F5F5F5F5F5F5F5F5F5F5F5F5F5F5F5F5F5F5F5F5F5F5F5F5F5F5F5F5F5F5F5F5F5F5F5F5F5F5F5F5F5F5F5F5F5F5F5F5F5F5
310
F5F5F5F5F5F5F5F5F5F5F5F5F5F5F5F5F5F5F5F5F5F5F5F5F5F5F5F5F5F5F5F5F5F5F5F5F5F5F5F5F5F5F5F5F5F5F5F5F5F5F5F5F5F5F5F5F5F5F5F5F5F5F5F5F5F5F5F5F5F5F5F5F5F5F5F5F5F5F5F5F5F5F5F5F5F5F5F5F5F5F5F5F5F5F5F5F5F5F5F5F5F5F5F5F5F5F5F5F5F5F5F5F5F5F5F5F5F5F5F5F5F5F5F5F5F5F5
310
F5F5F5F5F5F5F5F5F5F5F5F5F5F5F5F5F5F5F5F5F5F5F5F5F5F5F5F5F5F5F5F5F5F5F5F5F5F5F5F5F5F5F5F5F5F5F5F5F5F5F5F5F5F5F5F5F5F5F5F5F5F5F5F5F5F5F5F5F5F5F5F5F5F5F5F5F5F5F5F5F5F5F5F5F5F5F5F5F5F5F5F5F5F5F5F5F5F5F5F5F5F5F5F5F5F5F5F5F5F5F5F5F5F5F5F5F5F5F5F5F5F5F5F5F5F5F5
310
F5F5F5F5F5F5F5F5F5F5F5F5F5F5F5F5F5F5F5F5F5F5F5F5F5F5F5F5F5F5F5F5F5F5F5F5F5F5F5F5F5F5F5F5F5F5F5F5F5F5F5F5F5F5F5F5F5F5F5F5F5F5F5F5F5F5F5F5F5F5F5F5F5F5F5F5F5F5F5F5F5F5F5F5F5F5F5F5F5F5F5F5F5F5F5F5F5F5F5F5F5F5F5F5F5F5F5F5F5F5F5F5F5F5F5F5F5F5F5F5F5F5F5F5F5F5F5
310
F5F5F5F5F5F5F5F5F5F5F5F5F5F5F5F5F5F5F5F5F5F5F5F5F5F5F5F5F5F5F5F5F5F5F5F5F5F5F5F5F5F5F5F5F5F5F5F5F5F5F5
  0
XRECORD
  5
A06
102
{ACAD_REACTORS
330
8A3
102
}
330
8A3
100
AcDbXrecord
280
     1
102
MATERIAL
148
0.0
149
0.0
149
0.0
 93
        0
 94
      127
282
     0
 72
     0
 77
     0
171
     0
175
     0
179
     0
273
     0
  0
XRECORD
  5
8A5
102
{ACAD_REACTORS
330
8A3
102
}
330
8A3
100
AcDbXrecord
280
     1
270
     1
271
     1
  0
XRECORD
  5
8A4
102
{ACAD_REACTORS
330
8A3
102
}
330
8A3
100
AcDbXrecord
280
     1
270
     1
271
     1
  0
XRECORD
  5
8A8
102
{ACAD_REACTORS
330
8A3
102
}
330
8A3
100
AcDbXrecord
280
     1
270
     1
271
     1
  0
XRECORD
  5
8A7
102
{ACAD_REACTORS
330
8A3
102
}
330
8A3
100
AcDbXrecord
280
     1
270
     1
271
     1
  0
XRECORD
  5
8A9
102
{ACAD_REACTORS
330
8A3
102
}
330
8A3
100
AcDbXrecord
280
     1
270
     1
271
     1
  0
XRECORD
  5
8A6
102
{ACAD_REACTORS
330
8A3
102
}
330
8A3
100
AcDbXrecord
280
     1
270
     1
271
     1
  0
XRECORD
  5
A05
102
{ACAD_REACTORS
330
89B
102
}
330
89B
100
AcDbXrecord
280
     1
102
MATERIAL
148
0.0
149
0.0
149
0.0
 93
        0
 94
      127
282
     0
 72
     0
 77
     0
171
     0
175
     0
179
     0
273
     0
  0
XRECORD
  5
89D
102
{ACAD_REACTORS
330
89B
102
}
330
89B
100
AcDbXrecord
280
     1
270
     1
271
     1
  0
XRECORD
  5
89C
102
{ACAD_REACTORS
330
89B
102
}
330
89B
100
AcDbXrecord
280
     1
270
     1
271
     1
  0
XRECORD
  5
8A0
102
{ACAD_REACTORS
330
89B
102
}
330
89B
100
AcDbXrecord
280
     1
270
     1
271
     1
  0
XRECORD
  5
89F
102
{ACAD_REACTORS
330
89B
102
}
330
89B
100
AcDbXrecord
280
     1
270
     1
271
     1
  0
XRECORD
  5
8A1
102
{ACAD_REACTORS
330
89B
102
}
330
89B
100
AcDbXrecord
280
     1
270
     1
271
     1
  0
XRECORD
  5
89E
102
{ACAD_REACTORS
330
89B
102
}
330
89B
100
AcDbXrecord
280
     1
270
     1
271
     1
  0
XRECORD
  5
A07
102
{ACAD_REACTORS
330
8AB
102
}
330
8AB
100
AcDbXrecord
280
     1
102
MATERIAL
148
0.0
149
0.0
149
0.0
 93
        0
 94
      127
282
     0
 72
     0
 77
     0
171
     0
175
     0
179
     0
273
     0
  0
XRECORD
  5
8AD
102
{ACAD_REACTORS
330
8AB
102
}
330
8AB
100
AcDbXrecord
280
     1
270
     1
271
     1
  0
XRECORD
  5
8AC
102
{ACAD_REACTORS
330
8AB
102
}
330
8AB
100
AcDbXrecord
280
     1
270
     1
271
     1
  0
XRECORD
  5
8B0
102
{ACAD_REACTORS
330
8AB
102
}
330
8AB
100
AcDbXrecord
280
     1
270
     1
271
     1
  0
XRECORD
  5
8AF
102
{ACAD_REACTORS
330
8AB
102
}
330
8AB
100
AcDbXrecord
280
     1
270
     1
271
     1
  0
XRECORD
  5
8B1
102
{ACAD_REACTORS
330
8AB
102
}
330
8AB
100
AcDbXrecord
280
     1
270
     1
271
     1
  0
XRECORD
  5
8AE
102
{ACAD_REACTORS
330
8AB
102
}
330
8AB
100
AcDbXrecord
280
     1
270
     1
271
     1
  0
CELLSTYLEMAP
  5
A02
102
{ACAD_REACTORS
330
924
102
}
330
924
100
AcDbCellStyleMap
 90
        3
300
CELLSTYLE
  1
TABLEFORMAT_BEGIN
 90
        5
170
     1
 91
        0
 92
    32768
 62
   257
 93
        1
300
CONTENTFORMAT
  1
CONTENTFORMAT_BEGIN
 90
        0
 91
        0
 92
      512
 93
        0
300

 40
0.0
140
1.0
 94
        5
 62
     0
340
12
144
0.25
309
CONTENTFORMAT_END
171
     0
 94
        0
309
TABLEFORMAT_END
  1
CELLSTYLE_BEGIN
 90
        1
 91
        1
300
_TITLE
309
CELLSTYLE_END
300
CELLSTYLE
  1
TABLEFORMAT_BEGIN
 90
        5
170
     1
 91
        0
 92
        0
 62
   257
 93
        1
300
CONTENTFORMAT
  1
CONTENTFORMAT_BEGIN
 90
        0
 91
        0
 92
      512
 93
        0
300

 40
0.0
140
1.0
 94
        5
 62
     0
340
12
144
0.18
309
CONTENTFORMAT_END
171
     0
 94
        0
309
TABLEFORMAT_END
  1
CELLSTYLE_BEGIN
 90
        2
 91
        1
300
_HEADER
309
CELLSTYLE_END
300
CELLSTYLE
  1
TABLEFORMAT_BEGIN
 90
        5
170
     1
 91
        0
 92
        0
 62
   257
 93
        1
300
CONTENTFORMAT
  1
CONTENTFORMAT_BEGIN
 90
        0
 91
        0
 92
      512
 93
        0
300

 40
0.0
140
1.0
 94
        2
 62
     0
340
12
144
0.18
309
CONTENTFORMAT_END
171
     0
 94
        0
309
TABLEFORMAT_END
  1
CELLSTYLE_BEGIN
 90
        3
 91
        2
300
_DATA
309
CELLSTYLE_END
  0
XRECORD
  5
A08
102
{ACAD_REACTORS
330
924
102
}
330
924
100
AcDbXrecord
280
     1
102
ACAD_ROUNDTRIP_PRE2007_TABLESTYLE
 90
      512
 91
        0
  1

 92
      512
 93
        0
  2

 94
      512
 95
        0
  3

  0
ENDSEC
  0
EOF
