  0
SECTION
  2
HEADER
  9
$ACADVER
  1
AC1015
  9
$ACADMAINTVER
 70
    13
  9
$DWGCODEPAGE
  3
ANSI_1252
  9
$INSBASE
 10
0.0
 20
0.0
 30
0.0
  9
$EXTMIN
 10
-1.090693472781648
 20
-1.87500525836875
 30
0.0
  9
$EXTMAX
 10
15.39930652721834
 20
8.564994741631249
 30
0.03
  9
$LIMMIN
 10
0.0
 20
0.0
  9
$LIMMAX
 10
12.0
 20
9.0
  9
$ORTHOMODE
 70
     0
  9
$REGENMODE
 70
     1
  9
$FILLMODE
 70
     1
  9
$QTEXTMODE
 70
     0
  9
$MIRRTEXT
 70
     0
  9
$LTSCALE
 40
1.0
  9
$ATTMODE
 70
     1
  9
$TEXTSIZE
 40
0.1
  9
$TRACEWID
 40
0.05
  9
$TEXTSTYLE
  7
ROMANS
  9
$CLAYER
  8
IMAGE
  9
$CELTYPE
  6
ByLayer
  9
$CECOLOR
 62
   256
  9
$CELTSCALE
 40
1.0
  9
$DISPSILH
 70
     0
  9
$DIMSCALE
 40
1.0
  9
$DIMASZ
 40
0.18
  9
$DIMEXO
 40
0.0625
  9
$DIMDLI
 40
0.38
  9
$DIMRND
 40
0.0
  9
$DIMDLE
 40
0.0
  9
$DIMEXE
 40
0.18
  9
$DIMTP
 40
0.0
  9
$DIMTM
 40
0.0
  9
$DIMTXT
 40
0.18
  9
$DIMCEN
 40
0.09
  9
$DIMTSZ
 40
0.0
  9
$DIMTOL
 70
     0
  9
$DIMLIM
 70
     0
  9
$DIMTIH
 70
     1
  9
$DIMTOH
 70
     1
  9
$DIMSE1
 70
     0
  9
$DIMSE2
 70
     0
  9
$DIMTAD
 70
     0
  9
$DIMZIN
 70
     0
  9
$DIMBLK
  1

  9
$DIMASO
 70
     1
  9
$DIMSHO
 70
     1
  9
$DIMPOST
  1

  9
$DIMAPOST
  1

  9
$DIMALT
 70
     0
  9
$DIMALTD
 70
     2
  9
$DIMALTF
 40
25.4
  9
$DIMLFAC
 40
1.0
  9
$DIMTOFL
 70
     0
  9
$DIMTVP
 40
0.0
  9
$DIMTIX
 70
     0
  9
$DIMSOXD
 70
     0
  9
$DIMSAH
 70
     0
  9
$DIMBLK1
  1

  9
$DIMBLK2
  1

  9
$DIMSTYLE
  2
Standard
  9
$DIMCLRD
 70
     0
  9
$DIMCLRE
 70
     0
  9
$DIMCLRT
 70
     0
  9
$DIMTFAC
 40
1.0
  9
$DIMGAP
 40
0.09
  9
$DIMJUST
 70
     0
  9
$DIMSD1
 70
     0
  9
$DIMSD2
 70
     0
  9
$DIMTOLJ
 70
     1
  9
$DIMTZIN
 70
     0
  9
$DIMALTZ
 70
     0
  9
$DIMALTTZ
 70
     0
  9
$DIMUPT
 70
     0
  9
$DIMDEC
 70
     4
  9
$DIMTDEC
 70
     4
  9
$DIMALTU
 70
     2
  9
$DIMALTTD
 70
     2
  9
$DIMTXSTY
  7
STANDARD
  9
$DIMAUNIT
 70
     0
  9
$DIMADEC
 70
     0
  9
$DIMALTRND
 40
0.0
  9
$DIMAZIN
 70
     0
  9
$DIMDSEP
 70
    46
  9
$DIMATFIT
 70
     3
  9
$DIMFRAC
 70
     0
  9
$DIMLDRBLK
  1

  9
$DIMLUNIT
 70
     2
  9
$DIMLWD
 70
    -2
  9
$DIMLWE
 70
    -2
  9
$DIMTMOVE
 70
     2
  9
$LUNITS
 70
     2
  9
$LUPREC
 70
     4
  9
$SKETCHINC
 40
0.1
  9
$FILLETRAD
 40
0.0
  9
$AUNITS
 70
     0
  9
$AUPREC
 70
     0
  9
$MENU
  1
ACAD
  9
$ELEVATION
 40
0.0
  9
$PELEVATION
 40
0.0
  9
$THICKNESS
 40
0.0
  9
$LIMCHECK
 70
     0
  9
$CHAMFERA
 40
0.0
  9
$CHAMFERB
 40
0.0
  9
$CHAMFERC
 40
0.0
  9
$CHAMFERD
 40
0.0
  9
$SKPOLY
 70
     0
  9
$TDCREATE
 40
2449623.426764236
  9
$TDUCREATE
 40
2449623.676764236
  9
$TDUPDATE
 40
2453124.435195625
  9
$TDUUPDATE
 40
2453124.685195624
  9
$TDINDWG
 40
0.4320329514
  9
$TDUSRTIMER
 40
0.4320329514
  9
$USRTIMER
 70
     1
  9
$ANGBASE
 50
0.0
  9
$ANGDIR
 70
     0
  9
$PDMODE
 70
     0
  9
$PDSIZE
 40
0.0
  9
$PLINEWID
 40
0.0
  9
$SPLFRAME
 70
     0
  9
$SPLINETYPE
 70
     6
  9
$SPLINESEGS
 70
     8
  9
$HANDSEED
  5
9DB
  9
$SURFTAB1
 70
     6
  9
$SURFTAB2
 70
     6
  9
$SURFTYPE
 70
     6
  9
$SURFU
 70
     6
  9
$SURFV
 70
     6
  9
$UCSBASE
  2

  9
$UCSNAME
  2

  9
$UCSORG
 10
0.0
 20
0.0
 30
0.0
  9
$UCSXDIR
 10
1.0
 20
0.0
 30
0.0
  9
$UCSYDIR
 10
0.0
 20
1.0
 30
0.0
  9
$UCSORTHOREF
  2

  9
$UCSORTHOVIEW
 70
     0
  9
$UCSORGTOP
 10
0.0
 20
0.0
 30
0.0
  9
$UCSORGBOTTOM
 10
0.0
 20
0.0
 30
0.0
  9
$UCSORGLEFT
 10
0.0
 20
0.0
 30
0.0
  9
$UCSORGRIGHT
 10
0.0
 20
0.0
 30
0.0
  9
$UCSORGFRONT
 10
0.0
 20
0.0
 30
0.0
  9
$UCSORGBACK
 10
0.0
 20
0.0
 30
0.0
  9
$PUCSBASE
  2

  9
$PUCSNAME
  2

  9
$PUCSORG
 10
0.0
 20
0.0
 30
0.0
  9
$PUCSXDIR
 10
1.0
 20
0.0
 30
0.0
  9
$PUCSYDIR
 10
0.0
 20
1.0
 30
0.0
  9
$PUCSORTHOREF
  2

  9
$PUCSORTHOVIEW
 70
     0
  9
$PUCSORGTOP
 10
0.0
 20
0.0
 30
0.0
  9
$PUCSORGBOTTOM
 10
0.0
 20
0.0
 30
0.0
  9
$PUCSORGLEFT
 10
0.0
 20
0.0
 30
0.0
  9
$PUCSORGRIGHT
 10
0.0
 20
0.0
 30
0.0
  9
$PUCSORGFRONT
 10
0.0
 20
0.0
 30
0.0
  9
$PUCSORGBACK
 10
0.0
 20
0.0
 30
0.0
  9
$USERI1
 70
     0
  9
$USERI2
 70
     0
  9
$USERI3
 70
     0
  9
$USERI4
 70
     0
  9
$USERI5
 70
     0
  9
$USERR1
 40
0.0
  9
$USERR2
 40
0.0
  9
$USERR3
 40
0.0
  9
$USERR4
 40
0.0
  9
$USERR5
 40
0.0
  9
$WORLDVIEW
 70
     1
  9
$SHADEDGE
 70
     3
  9
$SHADEDIF
 70
    70
  9
$TILEMODE
 70
     1
  9
$MAXACTVP
 70
    16
  9
$PINSBASE
 10
0.0
 20
0.0
 30
0.0
  9
$PLIMCHECK
 70
     0
  9
$PEXTMIN
 10
1.000000000000000E+20
 20
1.000000000000000E+20
 30
1.000000000000000E+20
  9
$PEXTMAX
 10
-1.000000000000000E+20
 20
-1.000000000000000E+20
 30
-1.000000000000000E+20
  9
$PLIMMIN
 10
0.0
 20
0.0
  9
$PLIMMAX
 10
12.0
 20
9.0
  9
$UNITMODE
 70
     0
  9
$VISRETAIN
 70
     0
  9
$PLINEGEN
 70
     1
  9
$PSLTSCALE
 70
     1
  9
$TREEDEPTH
 70
  3020
  9
$CMLSTYLE
  2
Standard
  9
$CMLJUST
 70
     0
  9
$CMLSCALE
 40
1.0
  9
$PROXYGRAPHICS
 70
     1
  9
$MEASUREMENT
 70
     0
  9
$CELWEIGHT
370
    -1
  9
$ENDCAPS
280
     0
  9
$JOINSTYLE
280
     0
  9
$LWDISPLAY
290
     0
  9
$INSUNITS
 70
     0
  9
$HYPERLINKBASE
  1

  9
$STYLESHEET
  1
8500ColorShaded.ctb
  9
$XEDIT
290
     1
  9
$CEPSNTYPE
380
     0
  9
$PSTYLEMODE
290
     1
  9
$FINGERPRINTGUID
  2
{BDEBABB7-22F8-41CA-85FE-EACF0E7B9CBD}
  9
$VERSIONGUID
  2
{EA87134B-D9FC-454E-A305-3C0499EFF395}
  9
$EXTNAMES
290
     1
  9
$PSVPSCALE
 40
0.0
  9
$OLESTARTUP
290
     1
  0
ENDSEC
  0
SECTION
  2
CLASSES
  0
CLASS
  1
ACDBDICTIONARYWDFLT
  2
AcDbDictionaryWithDefault
  3
AutoCAD 2000
 90
        0
280
     0
281
     0
  0
CLASS
  1
ACDBPLACEHOLDER
  2
AcDbPlaceHolder
  3
AutoCAD 2000
 90
        0
280
     0
281
     0
  0
CLASS
  1
LAYOUT
  2
AcDbLayout
  3
AutoCAD 2000
 90
        0
280
     0
281
     0
  0
CLASS
  1
DICTIONARYVAR
  2
AcDbDictionaryVar
  3
AutoCAD 2000
 90
        0
280
     0
281
     0
  0
CLASS
  1
PLOTSETTINGS
  2
AcDbPlotSettings
  3
AutoCAD 2000
 90
        0
280
     0
281
     0
  0
ENDSEC
  0
SECTION
  2
TABLES
  0
TABLE
  2
VPORT
  5
8
330
0
100
AcDbSymbolTable
 70
     2
  0
VPORT
  5
9DA
330
8
100
AcDbSymbolTableRecord
100
AcDbViewportTableRecord
  2
*Active
 70
     0
 10
0.0
 20
0.0
 11
1.0
 21
1.0
 12
7.154306642406702
 22
3.345124190245825
 13
0.0
 23
0.0
 14
0.14
 24
0.14
 15
0.14
 25
0.14
 16
0.0
 26
0.0
 36
1.0
 17
0.0
 27
0.0
 37
0.0
 40
11.00690908961611
 41
1.505548705302096
 42
50.0
 43
0.0
 44
0.0
 50
0.0
 51
0.0
 71
     0
 72
  5000
 73
     1
 74
     1
 75
     0
 76
     0
 77
     0
 78
     0
281
     0
 65
     1
110
0.0
120
0.0
130
0.0
111
1.0
121
0.0
131
0.0
112
0.0
122
1.0
132
0.0
 79
     0
146
0.0
  0
ENDTAB
  0
TABLE
  2
LTYPE
  5
5
330
0
100
AcDbSymbolTable
 70
     1
  0
LTYPE
  5
13
330
5
100
AcDbSymbolTableRecord
100
AcDbLinetypeTableRecord
  2
ByBlock
 70
     0
  3

 72
    65
 73
     0
 40
0.0
  0
LTYPE
  5
14
330
5
100
AcDbSymbolTableRecord
100
AcDbLinetypeTableRecord
  2
ByLayer
 70
     0
  3

 72
    65
 73
     0
 40
0.0
  0
LTYPE
  5
15
330
5
100
AcDbSymbolTableRecord
100
AcDbLinetypeTableRecord
  2
CONTINUOUS
 70
     0
  3
Solid line
 72
    65
 73
     0
 40
0.0
  0
ENDTAB
  0
TABLE
  2
LAYER
  5
2
102
{ACAD_XDICTIONARY
360
32E
102
}
330
0
100
AcDbSymbolTable
 70
    18
  0
LAYER
  5
10
330
2
100
AcDbSymbolTableRecord
100
AcDbLayerTableRecord
  2
0
 70
     0
 62
     7
  6
CONTINUOUS
370
    -3
390
F
  0
LAYER
  5
28
330
2
100
AcDbSymbolTableRecord
100
AcDbLayerTableRecord
  2
TEXT_BUBBLES
 70
     0
 62
     6
  6
CONTINUOUS
370
    -3
390
F
  0
LAYER
  5
29
330
2
100
AcDbSymbolTableRecord
100
AcDbLayerTableRecord
  2
IMAGE
 70
     0
 62
     7
  6
CONTINUOUS
370
    -3
390
F
  0
LAYER
  5
2C
330
2
100
AcDbSymbolTableRecord
100
AcDbLayerTableRecord
  2
TEXT_LEADERS
 70
     0
 62
    -5
  6
CONTINUOUS
370
    -3
390
F
  0
LAYER
  5
2F
330
2
100
AcDbSymbolTableRecord
100
AcDbLayerTableRecord
  2
OPTION-SAM
 70
     0
 62
    -1
  6
CONTINUOUS
370
    -3
390
F
  0
LAYER
  5
30
330
2
100
AcDbSymbolTableRecord
100
AcDbLayerTableRecord
  2
INSTRUCT-OPTION
 70
     0
 62
     7
  6
CONTINUOUS
370
    -3
390
F
  0
LAYER
  5
31
330
2
100
AcDbSymbolTableRecord
100
AcDbLayerTableRecord
  2
INSTRUCT-CALLOUT
 70
     0
 62
     4
  6
CONTINUOUS
370
    -3
390
F
  0
LAYER
  5
2D4
330
2
100
AcDbSymbolTableRecord
100
AcDbLayerTableRecord
  2
TITLE
 70
     0
 62
     4
  6
CONTINUOUS
370
    -3
390
F
  0
LAYER
  5
32A
330
2
100
AcDbSymbolTableRecord
100
AcDbLayerTableRecord
  2
OPTION-RB-SJ
 70
     0
 62
    -1
  6
CONTINUOUS
370
    -3
390
F
  0
LAYER
  5
32B
330
2
100
AcDbSymbolTableRecord
100
AcDbLayerTableRecord
  2
TEXT-RB-SJ-BUBBLES
 70
     0
 62
    -1
  6
CONTINUOUS
370
    -3
390
F
  0
LAYER
  5
32C
330
2
100
AcDbSymbolTableRecord
100
AcDbLayerTableRecord
  2
TEXT-RB-SJ-LEADERS
 70
     0
 62
    -1
  6
CONTINUOUS
370
    -3
390
F
  0
LAYER
  5
5AD
330
2
100
AcDbSymbolTableRecord
100
AcDbLayerTableRecord
  2
OPTION-SJ
 70
     0
 62
    -1
  6
CONTINUOUS
370
    -3
390
F
  0
LAYER
  5
5AE
330
2
100
AcDbSymbolTableRecord
100
AcDbLayerTableRecord
  2
TEXT-SJ-LEADERS
 70
     0
 62
    -1
  6
CONTINUOUS
370
    -3
390
F
  0
LAYER
  5
5AF
330
2
100
AcDbSymbolTableRecord
100
AcDbLayerTableRecord
  2
TEXT-SJ-BUBBLES
 70
     0
 62
    -1
  6
CONTINUOUS
370
    -3
390
F
  0
LAYER
  5
6E2
330
2
100
AcDbSymbolTableRecord
100
AcDbLayerTableRecord
  2
OPTION-SAM-NP
 70
     0
 62
     1
  6
CONTINUOUS
370
    -3
390
F
  0
LAYER
  5
6F6
330
2
100
AcDbSymbolTableRecord
100
AcDbLayerTableRecord
  2
OPTION-RB-SJ-PRS
 70
     0
 62
     1
  6
CONTINUOUS
370
    -3
390
F
  0
LAYER
  5
6F7
330
2
100
AcDbSymbolTableRecord
100
AcDbLayerTableRecord
  2
TEXT-RB-SJ-PRS-BUBBLES
 70
     0
 62
     1
  6
CONTINUOUS
370
    -3
390
F
  0
LAYER
  5
6F8
330
2
100
AcDbSymbolTableRecord
100
AcDbLayerTableRecord
  2
TEXT-RB-SJ-PRS-LEADERS
 70
     0
 62
    -1
  6
CONTINUOUS
370
    -3
390
F
  0
ENDTAB
  0
TABLE
  2
STYLE
  5
3
330
0
100
AcDbSymbolTable
 70
     5
  0
STYLE
  5
11
330
3
100
AcDbSymbolTableRecord
100
AcDbTextStyleTableRecord
  2
STANDARD
 70
     0
 40
0.0
 41
1.0
 50
0.0
 71
     0
 42
0.2
  3
txt
  4

  0
STYLE
  5
24
330
3
100
AcDbSymbolTableRecord
100
AcDbTextStyleTableRecord
  2
ROMANS
 70
     0
 40
0.0
 41
1.0
 50
0.0
 71
     0
 42
0.1
  3
ROMANS.SHX
  4

  0
STYLE
  5
2D5
330
3
100
AcDbSymbolTableRecord
100
AcDbTextStyleTableRecord
  2
L100
 70
     0
 40
0.1
 41
1.0
 50
0.0
 71
     0
 42
0.1
  3
romans.shx
  4

  0
STYLE
  5
2D6
330
3
100
AcDbSymbolTableRecord
100
AcDbTextStyleTableRecord
  2
L200
 70
     0
 40
0.2
 41
1.0
 50
0.0
 71
     0
 42
0.081
  3
ARIAL.TTF
  4

1001
ACAD
1000
Arial
1071
       34
  0
STYLE
  5
2D7
330
3
100
AcDbSymbolTableRecord
100
AcDbTextStyleTableRecord
  2
L80
 70
     0
 40
0.08
 41
1.0
 50
0.0
 71
     0
 42
0.08
  3
ROMANS
  4

  0
ENDTAB
  0
TABLE
  2
VIEW
  5
6
330
0
100
AcDbSymbolTable
 70
     0
  0
ENDTAB
  0
TABLE
  2
UCS
  5
7
330
0
100
AcDbSymbolTable
 70
     0
  0
ENDTAB
  0
TABLE
  2
APPID
  5
9
330
0
100
AcDbSymbolTable
 70
     3
  0
APPID
  5
12
330
9
100
AcDbSymbolTableRecord
100
AcDbRegAppTableRecord
  2
ACAD
 70
     0
  0
APPID
  5
2D8
330
9
100
AcDbSymbolTableRecord
100
AcDbRegAppTableRecord
  2
RAK
 70
     0
  0
APPID
  5
2D9
330
9
100
AcDbSymbolTableRecord
100
AcDbRegAppTableRecord
  2
DCO15
 70
     0
  0
ENDTAB
  0
TABLE
  2
DIMSTYLE
  5
A
330
0
100
AcDbSymbolTable
 70
     1
100
AcDbDimStyleTable
 71
     0
  0
DIMSTYLE
105
242
102
{ACAD_REACTORS
330
2B9
330
2C8
330
2C5
330
2CB
102
}
330
A
100
AcDbSymbolTableRecord
100
AcDbDimStyleTableRecord
  2
Standard
 70
     0
340
11
  0
ENDTAB
  0
TABLE
  2
BLOCK_RECORD
  5
1
330
0
100
AcDbSymbolTable
 70
     3
  0
BLOCK_RECORD
  5
1E
330
1
100
AcDbSymbolTableRecord
100
AcDbBlockTableRecord
  2
*Model_Space
340
21
  0
BLOCK_RECORD
  5
1A
330
1
100
AcDbSymbolTableRecord
100
AcDbBlockTableRecord
  2
*Paper_Space
340
1D
  0
BLOCK_RECORD
  5
2DA
330
1
100
AcDbSymbolTableRecord
100
AcDbBlockTableRecord
  2
titleblock
340
0
102
{BLKREFS
331
2E9
102
}
  0
BLOCK_RECORD
  5
326
330
1
100
AcDbSymbolTableRecord
100
AcDbBlockTableRecord
  2
*T1
340
0
102
{BLKREFS
331
49E
102
}
  0
BLOCK_RECORD
  5
6F2
330
1
100
AcDbSymbolTableRecord
100
AcDbBlockTableRecord
  2
*T2
340
0
102
{BLKREFS
331
9AB
102
}
  0
ENDTAB
  0
ENDSEC
  0
SECTION
  2
BLOCKS
  0
BLOCK
  5
34
330
1E
100
AcDbEntity
  8
0
100
AcDbBlockBegin
  2
*Model_Space
 70
     0
 10
0.0
 20
0.0
 30
0.0
  3
*Model_Space
  1

  0
ENDBLK
  5
35
330
1E
100
AcDbEntity
  8
0
100
AcDbBlockEnd
  0
BLOCK
  5
32
330
1A
100
AcDbEntity
 67
     1
  8
0
100
AcDbBlockBegin
  2
*Paper_Space
 70
     0
 10
0.0
 20
0.0
 30
0.0
  3
*Paper_Space
  1

  0
ENDBLK
  5
33
330
1A
100
AcDbEntity
 67
     1
  8
0
100
AcDbBlockEnd
  0
BLOCK
  5
2E6
330
2DA
100
AcDbEntity
  8
0
100
AcDbBlockBegin
  2
titleblock
 70
     2
 10
0.0
 20
0.0
 30
0.0
  3
titleblock
  1

  0
LWPOLYLINE
  5
2DB
330
2DA
100
AcDbEntity
  8
IMAGE
100
AcDbPolyline
 90
        4
 70
     1
 43
0.0
 10
0.0
 20
0.0
 10
16.48999999999999
 20
0.0000000000000001
 10
16.48999999999999
 20
10.44
 10
0.0
 20
10.44
  0
ATTDEF
  5
2DC
330
2DA
100
AcDbEntity
  8
TITLE
100
AcDbText
 10
0.5055556038023421
 20
0.7842270964783673
 30
0.0
 40
0.2
  1
D
  7
L200
 72
     4
 11
0.6064423705144839
 21
0.8842270964783672
 31
0.0
100
AcDbAttributeDefinition
  3
#
  2
D
 70
     0
  0
ATTDEF
  5
2DD
330
2DA
100
AcDbEntity
  8
TITLE
100
AcDbText
 10
1.231442370514484
 20
1.34371230274675
 30
0.0
 40
0.2
  1

  7
L200
100
AcDbAttributeDefinition
  3
DETAIL TITLE TOP LINE
  2
TITLE1
 70
     0
  0
ATTDEF
  5
2DE
330
2DA
100
AcDbEntity
  8
TITLE
100
AcDbText
 10
1.231442370514484
 20
0.9842270964783674
 30
0.0
 40
0.2
  1
TITLE
  7
L200
100
AcDbAttributeDefinition
  3
DETAIL TITLE TOP 2ND LINE
  2
TITLE2
 70
     0
  0
ATTDEF
  5
2DF
330
2DA
100
AcDbEntity
  8
TITLE
100
AcDbText
 10
2.713645751168312
 20
0.5927927664583189
 30
0.0
 40
0.2
  1
TITLE2
  7
L200
100
AcDbAttributeDefinition
  3
DETAIL TITLE BOTTOM 1
  2
TITLE3
 70
     0
  0
ATTDEF
  5
2E0
330
2DA
100
AcDbEntity
  8
TITLE
100
AcDbText
 10
2.713645751168312
 20
0.2692560808167741
 30
0.0
 40
0.2
  1

  7
L200
100
AcDbAttributeDefinition
  3
DETAIL TITLE BOTTOM 2
  2
TITLE4
 70
     0
  0
ATTDEF
  5
2E1
330
2DA
100
AcDbEntity
  8
TITLE
 62
     7
100
AcDbText
 10
8.177214829966379
 20
0.9696027915446398
 30
0.0
 40
0.08
  1
-
  7
L80
 72
     2
 11
8.261024353775903
 21
0.9696027915446398
 31
0.0
100
AcDbAttributeDefinition
  3
REVISION DATE
  2
REVISED
 70
     0
  0
ATTDEF
  5
2E2
330
2DA
100
AcDbEntity
  8
TITLE
 62
     7
100
AcDbText
 10
0.2639423705144838
 20
0.0847116480207214
 30
0.0
 40
0.08
  1
-
  7
L80
100
AcDbAttributeDefinition
  3
DWG-NAME
  2
DWG-NAME
 70
     0
  0
LWPOLYLINE
  5
2E3
330
2DA
100
AcDbEntity
  8
TITLE
 62
     3
100
AcDbPolyline
 90
        2
 70
     1
 43
0.03
 10
0.6064423705144839
 20
0.5417270964783675
 42
0.9999999999999998
 10
0.6064423705144839
 20
1.226727096478367
 42
0.9999999999999998
  0
ATTDEF
  5
2E4
330
2DA
100
AcDbEntity
  8
TITLE
 62
     7
100
AcDbText
 10
1.231442370514484
 20
0.7005637793954894
 30
0.0
 40
0.1
  1
N.T.S.
  7
L100
100
AcDbAttributeDefinition
  3
SCALE
  2
SCALE
 70
     0
  0
LWPOLYLINE
  5
2E5
330
2DA
100
AcDbEntity
  8
TITLE
 62
     3
100
AcDbPolyline
 90
        2
 70
     0
 43
0.04
 39
0.03
 10
0.9489423705144833
 20
0.8842270964783672
 10
8.261024353775903
 20
0.8842270964783672
  0
ENDBLK
  5
2E7
330
2DA
100
AcDbEntity
  8
0
100
AcDbBlockEnd
  0
BLOCK
  5
328
330
326
100
AcDbEntity
  8
0
  6
ByBlock
100
AcDbBlockBegin
  2
*T1
 70
     1
 10
0.0
 20
0.0
 30
0.0
  3
*T1
  1

  0
TEXT
  5
327
330
326
100
AcDbEntity
  8
0
  6
ByBlock
100
AcDbText
 10
21.8765755703
 20
13.7308425587
 30
0.0
 40
0.078389
  1
R
 50
45.00000000000191
 41
1.437499999751965
 72
     5
 11
21.9296954057
 21
13.7839623941
 31
0.0
100
AcDbText
  0
ENDBLK
  5
329
330
326
100
AcDbEntity
  8
0
100
AcDbBlockEnd
  0
BLOCK
  5
6F4
330
6F2
100
AcDbEntity
  8
0
  6
ByBlock
100
AcDbBlockBegin
  2
*T2
 70
     1
 10
0.0
 20
0.0
 30
0.0
  3
*T2
  1

  0
TEXT
  5
6F3
330
6F2
100
AcDbEntity
  8
0
  6
ByBlock
100
AcDbText
 10
21.8765755703
 20
13.7308425587
 30
0.0
 40
0.078389
  1
R
 50
45.00000000000191
 41
1.437499999751965
 72
     5
 11
21.9296954057
 21
13.7839623941
 31
0.0
100
AcDbText
  0
ENDBLK
  5
6F5
330
6F2
100
AcDbEntity
  8
0
100
AcDbBlockEnd
  0
ENDSEC
  0
SECTION
  2
ENTITIES
  0
TEXT
  5
AF
330
1E
100
AcDbEntity
  8
TEXT_BUBBLES
100
AcDbText
 10
4.07362004772293
 20
5.685711446479371
 30
0.0
 40
0.125
  1
1
  7
ROMANS
 72
     4
 11
4.124215285818168
 21
5.748211446479371
 31
0.0
100
AcDbText
  0
CIRCLE
  5
B0
330
1E
100
AcDbEntity
  8
TEXT_BUBBLES
100
AcDbCircle
 10
4.124215285818168
 20
5.748211446479371
 30
0.0
 40
0.15625
  0
LINE
  5
B4
330
1E
100
AcDbEntity
  8
IMAGE
100
AcDbLine
 10
2.102488739004504
 20
5.570407720264765
 30
0.0
 11
2.264571511843057
 21
5.230335424597502
 31
0.0
  0
LINE
  5
B5
330
1E
100
AcDbEntity
  8
IMAGE
100
AcDbLine
 10
2.419388505209513
 20
5.535227827609523
 30
0.0
 11
2.346414807033481
 21
5.230335424597507
 31
0.0
  0
LINE
  5
B6
330
1E
100
AcDbEntity
  8
IMAGE
100
AcDbLine
 10
2.595443930878961
 20
5.598396653573371
 30
0.0
 11
2.595443930878961
 21
5.234871096135963
 31
0.0
  0
LINE
  5
B7
330
1E
100
AcDbEntity
  8
IMAGE
100
AcDbLine
 10
2.748025299792487
 20
5.492856975607678
 30
0.0
 11
2.539467333999442
 21
5.234871096135963
 31
0.0
  0
LINE
  5
B8
330
1E
100
AcDbEntity
  8
IMAGE
100
AcDbLine
 10
2.478073647099336
 20
5.563216760918135
 30
0.0
 11
2.505460046647915
 21
5.234871096135968
 31
0.0
  0
LINE
  5
B9
330
1E
100
AcDbEntity
  8
IMAGE
100
AcDbLine
 10
2.24333307954007
 20
5.582134351149838
 30
0.0
 11
2.328100506714245
 21
5.230335424597502
 31
0.0
  0
LINE
  5
BA
330
1E
100
AcDbEntity
  8
IMAGE
100
AcDbLine
 10
2.348537095046777
 20
5.532689907494715
 30
0.0
 11
2.320191362275162
 21
5.230335424597502
 31
0.0
  0
LINE
  5
BB
330
1E
100
AcDbEntity
  8
IMAGE
100
AcDbLine
 10
2.510990981544505
 20
5.542148424078565
 30
0.0
 11
2.432225460818328
 21
5.241854876310038
 31
0.0
  0
LINE
  5
BC
330
1E
100
AcDbEntity
  8
IMAGE
100
AcDbLine
 10
2.707904783359933
 20
5.556916959214718
 30
0.0
 11
2.66863089761862
 21
5.234871096135963
 31
0.0
  0
LINE
  5
BD
330
1E
100
AcDbEntity
  8
IMAGE
100
AcDbLine
 10
2.565142277043743
 20
5.51261135380625
 30
0.0
 11
2.488987690263178
 21
5.234871096135963
 31
0.0
  0
LINE
  5
BE
330
1E
100
AcDbEntity
  8
IMAGE
100
AcDbLine
 10
2.20577458873059
 20
5.527767062449326
 30
0.0
 11
2.233910013932785
 21
5.230335424597502
 31
0.0
  0
LINE
  5
BF
330
1E
100
AcDbEntity
  8
IMAGE
100
AcDbLine
 10
2.556117061127196
 20
5.574943391803226
 30
0.0
 11
2.71819983396575
 21
5.234871096135963
 31
0.0
  0
LINE
  5
C0
330
1E
100
AcDbEntity
  8
IMAGE
100
AcDbLine
 10
2.659402910853284
 20
5.532302733987787
 30
0.0
 11
2.687538336055479
 21
5.234871096135963
 31
0.0
  0
LINE
  5
C1
330
1E
100
AcDbEntity
  8
IMAGE
100
AcDbLine
 10
2.342777008643752
 20
5.574943391803226
 30
0.0
 11
2.504859781482305
 21
5.234871096135963
 31
0.0
  0
LINE
  5
C2
330
1E
100
AcDbEntity
  8
IMAGE
100
AcDbLine
 10
2.659676774848762
 20
5.539763499147984
 30
0.0
 11
2.586703076672729
 21
5.234871096135968
 31
0.0
  0
LINE
  5
C3
330
1E
100
AcDbEntity
  8
IMAGE
100
AcDbLine
 10
2.483621349179319
 20
5.586670022688299
 30
0.0
 11
2.56838877635349
 21
5.234871096135963
 31
0.0
  0
LINE
  5
C4
330
1E
100
AcDbEntity
  8
IMAGE
100
AcDbLine
 10
2.588825364686031
 20
5.537225579033176
 30
0.0
 11
2.560479631914413
 21
5.234871096135963
 31
0.0
  0
LINE
  5
C5
330
1E
100
AcDbEntity
  8
IMAGE
100
AcDbLine
 10
2.751279251183757
 20
5.542148424078565
 30
0.0
 11
2.672513730457578
 21
5.241854876310038
 31
0.0
  0
LINE
  5
C6
330
1E
100
AcDbEntity
  8
IMAGE
100
AcDbLine
 10
2.446062858369842
 20
5.532302733987787
 30
0.0
 11
2.474198283572037
 21
5.234871096135963
 31
0.0
  0
LINE
  5
C7
330
1E
100
AcDbEntity
  8
IMAGE
100
AcDbLine
 10
2.136489233497139
 20
5.532689907494715
 30
0.0
 11
2.108143500725525
 21
5.230335424597502
 31
0.0
  0
LINE
  5
C8
330
1E
100
AcDbEntity
  8
IMAGE
100
AcDbLine
 10
2.261237077971478
 20
5.535227827609523
 30
0.0
 11
2.188263379795446
 21
5.230335424597507
 31
0.0
  0
LINE
  5
C9
330
1E
100
AcDbEntity
  8
IMAGE
100
AcDbLine
 10
2.437292503640931
 20
5.598396653573371
 30
0.0
 11
2.437292503640931
 21
5.234871096135963
 31
0.0
  0
LINE
  5
CA
330
1E
100
AcDbEntity
  8
IMAGE
100
AcDbLine
 10
2.589873872554451
 20
5.488321304069217
 30
0.0
 11
2.381315906761412
 21
5.230335424597502
 31
0.0
  0
LINE
  5
CB
330
1E
100
AcDbEntity
  8
IMAGE
100
AcDbLine
 10
2.319922219861302
 20
5.558681089379674
 30
0.0
 11
2.347308619409881
 21
5.230335424597507
 31
0.0
  0
LINE
  5
CC
330
1E
100
AcDbEntity
  8
IMAGE
100
AcDbLine
 10
2.085181652302037
 20
5.582134351149838
 30
0.0
 11
2.169949079476208
 21
5.230335424597502
 31
0.0
  0
LINE
  5
CD
330
1E
100
AcDbEntity
  8
IMAGE
100
AcDbLine
 10
2.190385667808745
 20
5.532689907494715
 30
0.0
 11
2.162039935037132
 21
5.230335424597502
 31
0.0
  0
LINE
  5
CE
330
1E
100
AcDbEntity
  8
IMAGE
100
AcDbLine
 10
2.352839554306476
 20
5.537612752540104
 30
0.0
 11
2.274074033580293
 21
5.237319204771577
 31
0.0
  0
LINE
  5
CF
330
1E
100
AcDbEntity
  8
IMAGE
100
AcDbLine
 10
2.549753356121904
 20
5.556916959214718
 30
0.0
 11
2.510479470380584
 21
5.234871096135963
 31
0.0
  0
LINE
  5
D0
330
1E
100
AcDbEntity
  8
IMAGE
100
AcDbLine
 10
2.406990849805715
 20
5.508075682267789
 30
0.0
 11
2.33083626302515
 21
5.230335424597502
 31
0.0
  0
LINE
  5
D1
330
1E
100
AcDbEntity
  8
IMAGE
100
AcDbLine
 10
2.066681481955673
 20
5.230629385785461
 30
0.0
 11
3.158232569219423
 21
5.230629385785461
 31
0.0
  0
LINE
  5
D3
330
1E
100
AcDbEntity
  8
IMAGE
100
AcDbLine
 10
2.776194167899588
 20
5.574943391803226
 30
0.0
 11
2.938276940738142
 21
5.234871096135963
 31
0.0
  0
LINE
  5
D4
330
1E
100
AcDbEntity
  8
IMAGE
100
AcDbLine
 10
3.093093934104601
 20
5.539763499147984
 30
0.0
 11
3.020120235928569
 21
5.234871096135968
 31
0.0
  0
LINE
  5
D5
330
1E
100
AcDbEntity
  8
IMAGE
100
AcDbLine
 10
2.91703850843516
 20
5.586670022688299
 30
0.0
 11
3.00180593560933
 21
5.234871096135963
 31
0.0
  0
LINE
  5
D6
330
1E
100
AcDbEntity
  8
IMAGE
100
AcDbLine
 10
3.022242523941867
 20
5.537225579033176
 30
0.0
 11
2.993896791170252
 21
5.234871096135963
 31
0.0
  0
LINE
  5
D7
330
1E
100
AcDbEntity
  8
IMAGE
100
AcDbLine
 10
2.879480017625678
 20
5.532302733987787
 30
0.0
 11
2.907615442827873
 21
5.234871096135963
 31
0.0
  0
LINE
  5
D8
330
1E
100
AcDbEntity
  8
IMAGE
100
AcDbLine
 10
2.713314994536052
 20
5.574943391803226
 30
0.0
 11
2.8753977673746
 21
5.234871096135963
 31
0.0
  0
LINE
  5
D9
330
1E
100
AcDbEntity
  8
IMAGE
100
AcDbLine
 10
3.030214760741062
 20
5.539763499147984
 30
0.0
 11
2.957241062565028
 21
5.234871096135968
 31
0.0
  0
LINE
  5
DA
330
1E
100
AcDbEntity
  8
IMAGE
100
AcDbLine
 10
2.854159335071619
 20
5.586670022688299
 30
0.0
 11
2.938926762245789
 21
5.234871096135963
 31
0.0
  0
LINE
  5
DB
330
1E
100
AcDbEntity
  8
IMAGE
100
AcDbLine
 10
2.959363350578323
 20
5.537225579033176
 30
0.0
 11
2.93101761780671
 21
5.234871096135963
 31
0.0
  0
LINE
  5
DC
330
1E
100
AcDbEntity
  8
IMAGE
100
AcDbLine
 10
3.121817237076051
 20
5.542148424078565
 30
0.0
 11
3.043051716349875
 21
5.241854876310038
 31
0.0
  0
LINE
  5
DD
330
1E
100
AcDbEntity
  8
IMAGE
100
AcDbLine
 10
2.816600844262137
 20
5.532302733987787
 30
0.0
 11
2.844736269464334
 21
5.234871096135963
 31
0.0
  0
LINE
  5
DE
330
1E
100
AcDbEntity
  8
IMAGE
100
AcDbLine
 10
2.873016827332204
 20
5.539763499147984
 30
0.0
 11
2.800043129156172
 21
5.234871096135968
 31
0.0
  0
LINE
  5
DF
330
1E
100
AcDbEntity
  8
IMAGE
100
AcDbLine
 10
3.049072253001659
 20
5.598396653573371
 30
0.0
 11
3.049072253001659
 21
5.234871096135963
 31
0.0
  0
LINE
  5
E0
330
1E
100
AcDbEntity
  8
IMAGE
100
AcDbLine
 10
2.931701969222029
 20
5.563216760918135
 30
0.0
 11
2.959088368770606
 21
5.234871096135968
 31
0.0
  0
LINE
  5
E1
330
1E
100
AcDbEntity
  8
IMAGE
100
AcDbLine
 10
2.696961401662762
 20
5.586670022688299
 30
0.0
 11
2.781728828836936
 21
5.234871096135963
 31
0.0
  0
LINE
  5
E2
330
1E
100
AcDbEntity
  8
IMAGE
100
AcDbLine
 10
2.802165417169474
 20
5.537225579033176
 30
0.0
 11
2.773819684397861
 21
5.234871096135963
 31
0.0
  0
LINE
  5
E3
330
1E
100
AcDbEntity
  8
IMAGE
100
AcDbLine
 10
2.964619303667201
 20
5.542148424078565
 30
0.0
 11
2.88585378294102
 21
5.241854876310038
 31
0.0
  0
LINE
  5
E4
330
1E
100
AcDbEntity
  8
IMAGE
100
AcDbLine
 10
3.018770599166442
 20
5.51261135380625
 30
0.0
 11
2.942616012385878
 21
5.234871096135963
 31
0.0
  0
LINE
  5
E5
330
1E
100
AcDbEntity
  8
IMAGE
100
AcDbLine
 10
2.835732200518212
 20
5.598396653573371
 30
0.0
 11
2.835732200518212
 21
5.234871096135963
 31
0.0
  0
LINE
  5
E6
330
1E
100
AcDbEntity
  8
IMAGE
100
AcDbLine
 10
2.988313569431734
 20
5.492856975607678
 30
0.0
 11
2.779755603638695
 21
5.234871096135963
 31
0.0
  0
LINE
  5
E7
330
1E
100
AcDbEntity
  8
IMAGE
100
AcDbLine
 10
2.718361916738585
 20
5.563216760918135
 30
0.0
 11
2.745748316287164
 21
5.234871096135968
 31
0.0
  0
LINE
  5
E8
330
1E
100
AcDbEntity
  8
IMAGE
100
AcDbLine
 10
2.948193052999185
 20
5.556916959214718
 30
0.0
 11
2.908919167257869
 21
5.234871096135963
 31
0.0
  0
LINE
  5
E9
330
1E
100
AcDbEntity
  8
IMAGE
100
AcDbLine
 10
2.805430546682995
 20
5.51261135380625
 30
0.0
 11
2.729275959902431
 21
5.234871096135963
 31
0.0
  0
LINE
  5
EA
330
1E
100
AcDbEntity
  8
IMAGE
100
AcDbLine
 10
0.8917611524321213
 20
5.553211301559756
 30
0.0
 11
0.9310350381734359
 21
5.231165438481001
 31
0.0
  0
LINE
  5
EB
330
1E
100
AcDbEntity
  8
IMAGE
100
AcDbLine
 10
1.034523658748309
 20
5.508905696151288
 30
0.0
 11
1.110678245528872
 21
5.231165438481001
 31
0.0
  0
LINE
  5
EC
330
1E
100
AcDbEntity
  8
IMAGE
100
AcDbLine
 10
1.08867495424755
 20
5.538442766423603
 30
0.0
 11
1.167440474973727
 21
5.238149218655077
 31
0.0
  0
LINE
  5
ED
330
1E
100
AcDbEntity
  8
IMAGE
100
AcDbLine
 10
1.121592288692718
 20
5.559511103263173
 30
0.0
 11
1.09420588914414
 21
5.231165438481006
 31
0.0
  0
LINE
  5
EE
330
1E
100
AcDbEntity
  8
IMAGE
100
AcDbLine
 10
0.851640635999567
 20
5.489151317952717
 30
0.0
 11
1.060198601792609
 21
5.231165438481001
 31
0.0
  0
LINE
  5
EF
330
1E
100
AcDbEntity
  8
IMAGE
100
AcDbLine
 10
1.004222004913093
 20
5.594690995918409
 30
0.0
 11
1.004222004913093
 21
5.231165438481001
 31
0.0
  0
LINE
  5
F0
330
1E
100
AcDbEntity
  8
IMAGE
100
AcDbLine
 10
1.18027743058254
 20
5.536057841493023
 30
0.0
 11
1.253180771364314
 21
5.231459399668961
 31
0.0
  0
LINE
  5
F1
330
1E
100
AcDbEntity
  8
IMAGE
100
AcDbLine
 10
0.9954516501841808
 20
5.528597076332825
 30
0.0
 11
0.9673162249819831
 21
5.231165438481001
 31
0.0
  0
LINE
  5
F2
330
1E
100
AcDbEntity
  8
IMAGE
100
AcDbLine
 10
0.8526891438679943
 20
5.533519921378214
 30
0.0
 11
0.8810348766396089
 21
5.231165438481001
 31
0.0
  0
LINE
  5
F3
330
1E
100
AcDbEntity
  8
IMAGE
100
AcDbLine
 10
0.9578931593747007
 20
5.582964365033337
 30
0.0
 11
0.8731257322005262
 21
5.231165438481001
 31
0.0
  0
LINE
  5
F4
330
1E
100
AcDbEntity
  8
IMAGE
100
AcDbLine
 10
0.7818377337052583
 20
5.536057841493023
 30
0.0
 11
0.8548114318812899
 21
5.231165438481006
 31
0.0
  0
LINE
  5
F5
330
1E
100
AcDbEntity
  8
IMAGE
100
AcDbLine
 10
1.098737499910264
 20
5.571237734148264
 30
0.0
 11
0.9366547270717177
 21
5.231165438481001
 31
0.0
  0
LINE
  5
F6
330
1E
100
AcDbEntity
  8
IMAGE
100
AcDbLine
 10
0.8557793958754412
 20
5.533519921378214
 30
0.0
 11
0.8841251286470569
 21
5.231165438481001
 31
0.0
  0
LINE
  5
F7
330
1E
100
AcDbEntity
  8
IMAGE
100
AcDbLine
 10
0.7849279857127045
 20
5.536057841493023
 30
0.0
 11
0.8579016838887373
 21
5.231165438481006
 31
0.0
  0
LINE
  5
F8
330
1E
100
AcDbEntity
  8
IMAGE
100
AcDbLine
 10
0.8413439687827771
 20
5.528597076332825
 30
0.0
 11
0.813208543580577
 21
5.231165438481001
 31
0.0
  0
LINE
  5
F9
330
1E
100
AcDbEntity
  8
IMAGE
100
AcDbLine
 10
1.235739919823433
 20
5.528597076332825
 30
0.0
 11
1.207604494621236
 21
5.231165438481001
 31
0.0
  0
LINE
  5
FA
330
1E
100
AcDbEntity
  8
IMAGE
100
AcDbLine
 10
0.8763722315102761
 20
5.508905696151288
 30
0.0
 11
0.9525268182908387
 21
5.231165438481001
 31
0.0
  0
LINE
  5
FB
330
1E
100
AcDbEntity
  8
IMAGE
100
AcDbLine
 10
0.9305235270095163
 20
5.538442766423603
 30
0.0
 11
1.009289047735692
 21
5.238149218655077
 31
0.0
  0
LINE
  5
FC
330
1E
100
AcDbEntity
  8
IMAGE
100
AcDbLine
 10
1.092977413507244
 20
5.533519921378214
 30
0.0
 11
1.121323146278858
 21
5.231165438481001
 31
0.0
  0
LINE
  5
FD
330
1E
100
AcDbEntity
  8
IMAGE
100
AcDbLine
 10
1.198181429013948
 20
5.582964365033337
 30
0.0
 11
1.113414001839776
 21
5.231165438481001
 31
0.0
  0
LINE
  5
FE
330
1E
100
AcDbEntity
  8
IMAGE
100
AcDbLine
 10
0.9634408614546842
 20
5.559511103263173
 30
0.0
 11
0.9360544619061034
 21
5.231165438481006
 31
0.0
  0
LINE
  5
FF
330
1E
100
AcDbEntity
  8
IMAGE
100
AcDbLine
 10
0.6934892087615343
 20
5.489151317952717
 30
0.0
 11
0.9020471745545805
 21
5.231165438481001
 31
0.0
  0
LINE
  5
100
330
1E
100
AcDbEntity
  8
IMAGE
100
AcDbLine
 10
0.8460705776750575
 20
5.594690995918409
 30
0.0
 11
0.8460705776750575
 21
5.231165438481001
 31
0.0
  0
LINE
  5
101
330
1E
100
AcDbEntity
  8
IMAGE
100
AcDbLine
 10
1.022126003344505
 20
5.536057841493023
 30
0.0
 11
1.095099701520537
 21
5.231165438481006
 31
0.0
  0
LINE
  5
102
330
1E
100
AcDbEntity
  8
IMAGE
100
AcDbLine
 10
1.339025769549516
 20
5.571237734148264
 30
0.0
 11
1.176942996710966
 21
5.231165438481001
 31
0.0
  0
LINE
  5
103
330
1E
100
AcDbEntity
  8
IMAGE
100
AcDbLine
 10
1.258115299799504
 20
5.231459399668961
 30
0.0
 11
0.7997267871061763
 21
5.231459399668961
 31
0.0
  0
TEXT
  5
117
330
1E
100
AcDbEntity
  8
TEXT_LEADERS
100
AcDbText
 10
4.404857879999999
 20
5.3313062
 30
0.0
 40
0.125
  1
IMPACT ROTOR POP-UP SPRINKLER:
  7
ROMANS
100
AcDbText
  0
CIRCLE
  5
119
330
1E
100
AcDbEntity
  8
TEXT_BUBBLES
100
AcDbCircle
 10
0.4593680880573188
 20
5.647446628504808
 30
0.0
 40
0.15625
  0
TEXT
  5
11A
330
1E
100
AcDbEntity
  8
TEXT_BUBBLES
100
AcDbText
 10
0.4087728499620808
 20
5.584946628504808
 30
0.0
 40
0.125
  1
1
  7
ROMANS
 72
     4
 11
0.4593680880573188
 21
5.647446628504808
 31
0.0
100
AcDbText
  0
CIRCLE
  5
121
330
1E
100
AcDbEntity
  8
TEXT_BUBBLES
100
AcDbCircle
 10
0.450783621621306
 20
4.815092542524326
 30
0.0
 40
0.15625
  0
CIRCLE
  5
122
330
1E
100
AcDbEntity
  8
TEXT-SJ-BUBBLES
100
AcDbCircle
 10
0.4460148823624838
 20
4.153045059766341
 30
0.0
 40
0.15625
  0
TEXT
  5
123
330
1E
100
AcDbEntity
  8
TEXT_BUBBLES
100
AcDbText
 10
0.3912598120974965
 20
4.752592542524326
 30
0.0
 40
0.125
  1
2
  7
ROMANS
 72
     4
 11
0.450783621621306
 21
4.815092542524326
 31
0.0
100
AcDbText
  0
TEXT
  5
124
330
1E
100
AcDbEntity
  8
TEXT-SJ-BUBBLES
100
AcDbText
 10
0.3864910728386742
 20
4.090545059766341
 30
0.0
 40
0.125
  1
3
  7
ROMANS
 72
     4
 11
0.4460148823624838
 21
4.153045059766341
 31
0.0
100
AcDbText
  0
CIRCLE
  5
125
330
1E
100
AcDbEntity
  8
TEXT_BUBBLES
100
AcDbCircle
 10
4.124215285818168
 20
5.398211446479369
 30
0.0
 40
0.15625
  0
TEXT
  5
126
330
1E
100
AcDbEntity
  8
TEXT_BUBBLES
100
AcDbText
 10
4.064691476294359
 20
5.335711446479369
 30
0.0
 40
0.125
  1
2
  7
ROMANS
 72
     4
 11
4.124215285818168
 21
5.398211446479369
 31
0.0
100
AcDbText
  0
LINE
  5
127
330
1E
100
AcDbEntity
  8
IMAGE
100
AcDbLine
 10
1.263958424882715
 20
5.231815955318901
 30
0.0
 11
2.0560684941231
 21
5.231815955318901
 31
0.0
  0
LINE
  5
128
330
1E
100
AcDbEntity
  8
IMAGE
100
AcDbLine
 10
1.217682271806521
 20
5.196717325799031
 30
0.0
 11
1.193870721405243
 21
5.11167607436589
 31
0.0
  0
LINE
  5
129
330
1E
100
AcDbEntity
  8
IMAGE
100
AcDbLine
 10
2.1023446471993
 20
5.196717325799031
 30
0.0
 11
2.126156197600581
 21
5.11167607436589
 31
0.0
  0
ARC
  5
12A
330
1E
100
AcDbEntity
  8
IMAGE
100
AcDbCircle
 10
1.263958424882715
 20
5.183760002937698
 30
0.0
 40
0.0480559523812029
100
AcDbArc
 50
90.0
 51
164.3577535427913
  0
ARC
  5
12B
330
1E
100
AcDbEntity
  8
IMAGE
100
AcDbCircle
 10
2.056068494123105
 20
5.183760002937698
 30
0.0
 40
0.0480559523812029
100
AcDbArc
 50
15.64224645720877
 51
90.0
  0
LINE
  5
12C
330
1E
100
AcDbEntity
  8
IMAGE
100
AcDbLine
 10
1.292385423786706
 20
5.231815955318901
 30
0.0
 11
2.02764149521911
 21
5.231815955318901
 31
0.0
  0
ARC
  5
12D
330
1E
100
AcDbEntity
  8
IMAGE
100
AcDbCircle
 10
1.660013459502912
 20
-0.3388300447101793
 30
0.0
 40
5.630715940505589
100
AcDbArc
 50
86.37125943664988
 51
93.62874056335011
  0
LINE
  5
12E
330
1E
100
AcDbEntity
  8
IMAGE
100
AcDbLine
 10
1.292385423786706
 20
5.268607006131662
 30
0.0
 11
1.292385423786706
 21
5.231815955318901
 31
0.0
  0
LINE
  5
12F
330
1E
100
AcDbEntity
  8
IMAGE
100
AcDbLine
 10
2.027641495219113
 20
5.268607006131662
 30
0.0
 11
2.02764149521911
 21
5.231815955318901
 31
0.0
  0
ARC
  5
130
330
1E
100
AcDbEntity
  8
IMAGE
100
AcDbCircle
 10
1.304399411882007
 20
5.268607006131662
 30
0.0
 40
0.0120139880953007
100
AcDbArc
 50
93.62874056335819
 51
179.9999999999983
  0
ARC
  5
131
330
1E
100
AcDbEntity
  8
IMAGE
100
AcDbCircle
 10
2.015627507123813
 20
5.268607006131662
 30
0.0
 40
0.0120139880953007
100
AcDbArc
 50
359.9999999999983
 51
86.37125943665035
  0
LINE
  5
132
330
1E
100
AcDbEntity
  8
IMAGE
100
AcDbLine
 10
1.280305605619648
 20
5.034786550555964
 30
0.0
 11
1.318134637710944
 21
4.42111558551948
 31
0.0
  0
LINE
  5
133
330
1E
100
AcDbEntity
  8
IMAGE
100
AcDbLine
 10
1.193870721405243
 20
5.11167607436589
 30
0.0
 11
2.126156197600581
 21
5.11167607436589
 31
0.0
  0
LINE
  5
134
330
1E
100
AcDbEntity
  8
IMAGE
100
AcDbLine
 10
1.419733697596891
 20
4.337975241028523
 30
0.0
 11
1.436699235747055
 21
4.337975241028523
 31
0.0
  0
LINE
  5
135
330
1E
100
AcDbEntity
  8
IMAGE
100
AcDbLine
 10
1.419733697596891
 20
4.265891312456721
 30
0.0
 11
1.457366920053238
 21
4.265891312456721
 31
0.0
  0
LINE
  5
136
330
1E
100
AcDbEntity
  8
IMAGE
100
AcDbLine
 10
1.549484769026141
 20
3.453745717214394
 30
0.0
 11
1.77054214997968
 21
3.453745717214394
 31
0.0
  0
LINE
  5
137
330
1E
100
AcDbEntity
  8
IMAGE
100
AcDbLine
 10
1.52545679283554
 20
3.621920490493959
 30
0.0
 11
1.52545679283554
 21
3.477773693404992
 31
0.0
  0
LINE
  5
138
330
1E
100
AcDbEntity
  8
IMAGE
100
AcDbLine
 10
1.794570126170279
 20
3.621920490493959
 30
0.0
 11
1.794570126170279
 21
3.477773693404992
 31
0.0
  0
LINE
  5
139
330
1E
100
AcDbEntity
  8
IMAGE
100
AcDbLine
 10
1.574413794323892
 20
5.11167607436589
 30
0.0
 11
1.587879386637143
 21
4.412662215615781
 31
0.0
  0
LINE
  5
13A
330
1E
100
AcDbEntity
  8
IMAGE
100
AcDbLine
 10
1.402515814833656
 20
5.11167607436589
 30
0.0
 11
1.415910562161053
 21
4.416339857548317
 31
0.0
  0
LINE
  5
13B
330
1E
100
AcDbEntity
  8
IMAGE
100
AcDbLine
 10
1.2225218207662
 20
5.11167607436589
 30
0.0
 11
1.280305605619648
 21
5.034786550555964
 31
0.0
  0
LINE
  5
13C
330
1E
100
AcDbEntity
  8
IMAGE
100
AcDbLine
 10
1.481781518732247
 20
4.337975241028523
 30
0.0
 11
1.481781518732247
 21
4.222640955313637
 31
0.0
  0
LINE
  5
13D
330
1E
100
AcDbEntity
  8
IMAGE
100
AcDbLine
 10
1.428045539536173
 20
4.41005916960033
 30
0.0
 11
1.481781518732247
 21
4.337975241028523
 31
0.0
  0
LINE
  5
13E
330
1E
100
AcDbEntity
  8
IMAGE
100
AcDbLine
 10
1.428045539536173
 20
4.41005916960033
 30
0.0
 11
1.481781518732247
 21
4.222640955313637
 31
0.0
  0
LINE
  5
13F
330
1E
100
AcDbEntity
  8
IMAGE
100
AcDbLine
 10
1.417762906190981
 20
4.404020619258142
 30
0.0
 11
1.469767530636946
 21
4.222640955313637
 31
0.0
  0
LINE
  5
140
330
1E
100
AcDbEntity
  8
IMAGE
100
AcDbLine
 10
1.339030243479486
 20
4.403410474096699
 30
0.0
 11
1.419733697596891
 21
4.337975241028523
 31
0.0
  0
LINE
  5
141
330
1E
100
AcDbEntity
  8
IMAGE
100
AcDbLine
 10
1.324269045634939
 20
4.400416799294071
 30
0.0
 11
1.424802901042312
 21
4.222640955313637
 31
0.0
  0
LINE
  5
142
330
1E
100
AcDbEntity
  8
IMAGE
100
AcDbLine
 10
1.419733697596891
 20
4.337975241028523
 30
0.0
 11
1.419733697596891
 21
4.265891312456721
 31
0.0
  0
LINE
  5
143
330
1E
100
AcDbEntity
  8
IMAGE
100
AcDbLine
 10
1.481781518732247
 20
4.222640955313637
 30
0.0
 11
1.469767530636946
 21
4.222640955313637
 31
0.0
  0
LINE
  5
144
330
1E
100
AcDbEntity
  8
IMAGE
100
AcDbLine
 10
1.435983038347193
 20
3.673955226621094
 30
0.0
 11
1.423921622550711
 21
4.265891312456721
 31
0.0
  0
LINE
  5
145
330
1E
100
AcDbEntity
  8
IMAGE
100
AcDbLine
 10
1.884043880658627
 20
3.673955226621094
 30
0.0
 11
1.896105296455101
 21
4.265891312456721
 31
0.0
  0
ARC
  5
146
330
1E
100
AcDbEntity
  8
IMAGE
100
AcDbCircle
 10
1.484029017656996
 20
3.674934221731668
 30
0.0
 40
0.0480559523812029
100
AcDbArc
 50
181.1673094762964
 51
241.6069805786169
  0
ARC
  5
147
330
1E
100
AcDbEntity
  8
IMAGE
100
AcDbCircle
 10
1.835997901348827
 20
3.674934221731668
 30
0.0
 40
0.0480559523812029
100
AcDbArc
 50
298.3930194213829
 51
358.8326905237035
  0
ARC
  5
148
330
1E
100
AcDbEntity
  8
IMAGE
100
AcDbCircle
 10
1.549484769026141
 20
3.477773693404992
 30
0.0
 40
0.0240279761906015
100
AcDbArc
 50
180.0
 51
270.0
  0
ARC
  5
149
330
1E
100
AcDbEntity
  8
IMAGE
100
AcDbCircle
 10
1.770542149979677
 20
3.477773693404992
 30
0.0
 40
0.0240279761906015
100
AcDbArc
 50
270.0
 51
0.0
  0
LINE
  5
14A
330
1E
100
AcDbEntity
  8
IMAGE
100
AcDbLine
 10
1.481781518732247
 20
4.337975241028523
 30
0.0
 11
1.585157072139882
 21
4.337975241028523
 31
0.0
  0
LINE
  5
14B
330
1E
100
AcDbEntity
  8
IMAGE
100
AcDbLine
 10
1.481781518732247
 20
4.265891312456721
 30
0.0
 11
1.594398601443958
 21
4.265891312456721
 31
0.0
  0
LINE
  5
14C
330
1E
100
AcDbEntity
  8
IMAGE
100
AcDbLine
 10
1.287579828548584
 20
5.11167607436589
 30
0.0
 11
1.330180656756215
 21
4.420595972331021
 31
0.0
  0
LINE
  5
14D
330
1E
100
AcDbEntity
  8
IMAGE
100
AcDbLine
 10
1.414529802928961
 20
5.11167607436589
 30
0.0
 11
1.416010979543452
 21
5.034786550555964
 31
0.0
  0
LINE
  5
14E
330
1E
100
AcDbEntity
  8
IMAGE
100
AcDbLine
 10
1.611957507121706
 20
4.337975241028523
 30
0.0
 11
1.611957507121706
 21
4.222640955313637
 31
0.0
  0
LINE
  5
14F
330
1E
100
AcDbEntity
  8
IMAGE
100
AcDbLine
 10
1.599943519026405
 20
4.222640955313637
 30
0.0
 11
1.611957507121706
 21
4.222640955313637
 31
0.0
  0
LINE
  5
150
330
1E
100
AcDbEntity
  8
IMAGE
100
AcDbLine
 10
1.588260606909553
 20
4.407476776968435
 30
0.0
 11
1.611957507121706
 21
4.222640955313637
 31
0.0
  0
LINE
  5
151
330
1E
100
AcDbEntity
  8
IMAGE
100
AcDbLine
 10
1.575915542835802
 20
4.41005916960033
 30
0.0
 11
1.599943519026405
 21
4.222640955313637
 31
0.0
  0
LINE
  5
152
330
1E
100
AcDbEntity
  8
IMAGE
100
AcDbLine
 10
1.588165134483224
 20
4.408274240754005
 30
0.0
 11
1.611957507121706
 21
4.337975241028523
 31
0.0
  0
ARC
  5
153
330
1E
100
AcDbEntity
  8
IMAGE
100
AcDbCircle
 10
1.366099544080957
 20
4.424072326323117
 30
0.0
 40
0.0480559523812029
100
AcDbArc
 50
183.5274680503741
 51
209.4885538576433
  0
ARC
  5
154
330
1E
100
AcDbEntity
  8
IMAGE
100
AcDbCircle
 10
1.463957600479397
 20
4.417265421214556
 30
0.0
 40
0.0480559523812029
100
AcDbArc
 50
181.1035921321255
 51
195.9984946424579
  0
ARC
  5
155
330
1E
100
AcDbEntity
  8
IMAGE
100
AcDbCircle
 10
1.635926424955485
 20
4.413587779282018
 30
0.0
 40
0.0480559523812029
100
AcDbArc
 50
181.1035921321255
 51
187.3057595333108
  0
ARC
  5
156
330
1E
100
AcDbEntity
  8
IMAGE
100
AcDbCircle
 10
1.354163109941223
 20
4.42207434273284
 30
0.0
 40
0.0240279761906015
100
AcDbArc
 50
183.5274680503741
 51
230.964487101253
  0
ARC
  5
157
330
1E
100
AcDbEntity
  8
IMAGE
100
AcDbCircle
 10
1.965863809064592
 20
4.42207434273284
 30
0.0
 40
0.0240279761906015
100
AcDbArc
 50
309.0355128987469
 51
356.4725319496258
  0
ARC
  5
158
330
1E
100
AcDbEntity
  8
IMAGE
100
AcDbCircle
 10
1.684100494050333
 20
4.413587779282018
 30
0.0
 40
0.0480559523812029
100
AcDbArc
 50
352.6942404666891
 51
358.8964078678743
  0
ARC
  5
159
330
1E
100
AcDbEntity
  8
IMAGE
100
AcDbCircle
 10
1.856069318526427
 20
4.417265421214556
 30
0.0
 40
0.0480559523812029
100
AcDbArc
 50
344.0015053575421
 51
358.8964078678743
  0
ARC
  5
15A
330
1E
100
AcDbEntity
  8
IMAGE
100
AcDbCircle
 10
1.953927374924858
 20
4.424072326323117
 30
0.0
 40
0.0480559523812029
100
AcDbArc
 50
298.5220418625952
 51
356.4725319496258
  0
LINE
  5
15B
330
1E
100
AcDbEntity
  8
IMAGE
100
AcDbLine
 10
1.731858367878214
 20
4.408243619225975
 30
0.0
 11
1.708069411884109
 21
4.337975241028523
 31
0.0
  0
LINE
  5
15C
330
1E
100
AcDbEntity
  8
IMAGE
100
AcDbLine
 10
1.744111376170013
 20
4.41005916960033
 30
0.0
 11
1.720083399979411
 21
4.222640955313637
 31
0.0
  0
LINE
  5
15D
330
1E
100
AcDbEntity
  8
IMAGE
100
AcDbLine
 10
1.731766312096266
 20
4.407476776968435
 30
0.0
 11
1.708069411884109
 21
4.222640955313637
 31
0.0
  0
LINE
  5
15E
330
1E
100
AcDbEntity
  8
IMAGE
100
AcDbLine
 10
1.720083399979411
 20
4.222640955313637
 30
0.0
 11
1.708069411884109
 21
4.222640955313637
 31
0.0
  0
LINE
  5
15F
330
1E
100
AcDbEntity
  8
IMAGE
100
AcDbLine
 10
1.708069411884109
 20
4.337975241028523
 30
0.0
 11
1.708069411884109
 21
4.222640955313637
 31
0.0
  0
LINE
  5
160
330
1E
100
AcDbEntity
  8
IMAGE
100
AcDbLine
 10
1.905497116076859
 20
5.11167607436589
 30
0.0
 11
1.904015939462372
 21
5.034786550555964
 31
0.0
  0
LINE
  5
161
330
1E
100
AcDbEntity
  8
IMAGE
100
AcDbLine
 10
2.032447090457231
 20
5.11167607436589
 30
0.0
 11
1.989846262249603
 21
4.420595972331021
 31
0.0
  0
LINE
  5
162
330
1E
100
AcDbEntity
  8
IMAGE
100
AcDbLine
 10
1.83824540027357
 20
4.265891312456721
 30
0.0
 11
1.72562831756186
 21
4.265891312456721
 31
0.0
  0
LINE
  5
163
330
1E
100
AcDbEntity
  8
IMAGE
100
AcDbLine
 10
1.83824540027357
 20
4.337975241028523
 30
0.0
 11
1.734869846865938
 21
4.337975241028523
 31
0.0
  0
LINE
  5
164
330
1E
100
AcDbEntity
  8
IMAGE
100
AcDbLine
 10
1.83824540027357
 20
4.222640955313637
 30
0.0
 11
1.85025938836887
 21
4.222640955313637
 31
0.0
  0
LINE
  5
165
330
1E
100
AcDbEntity
  8
IMAGE
100
AcDbLine
 10
1.900293221408922
 20
4.337975241028523
 30
0.0
 11
1.900293221408922
 21
4.265891312456721
 31
0.0
  0
LINE
  5
166
330
1E
100
AcDbEntity
  8
IMAGE
100
AcDbLine
 10
1.980996675526333
 20
4.403410474096699
 30
0.0
 11
1.900293221408922
 21
4.337975241028523
 31
0.0
  0
LINE
  5
167
330
1E
100
AcDbEntity
  8
IMAGE
100
AcDbLine
 10
1.902264012814837
 20
4.404020619258142
 30
0.0
 11
1.85025938836887
 21
4.222640955313637
 31
0.0
  0
LINE
  5
168
330
1E
100
AcDbEntity
  8
IMAGE
100
AcDbLine
 10
1.891981379469644
 20
4.41005916960033
 30
0.0
 11
1.83824540027357
 21
4.222640955313637
 31
0.0
  0
LINE
  5
169
330
1E
100
AcDbEntity
  8
IMAGE
100
AcDbLine
 10
1.891981379469644
 20
4.41005916960033
 30
0.0
 11
1.83824540027357
 21
4.337975241028523
 31
0.0
  0
LINE
  5
16A
330
1E
100
AcDbEntity
  8
IMAGE
100
AcDbLine
 10
1.83824540027357
 20
4.337975241028523
 30
0.0
 11
1.83824540027357
 21
4.222640955313637
 31
0.0
  0
LINE
  5
16B
330
1E
100
AcDbEntity
  8
IMAGE
100
AcDbLine
 10
2.097505098239619
 20
5.11167607436589
 30
0.0
 11
2.039721313386169
 21
5.034786550555964
 31
0.0
  0
LINE
  5
16C
330
1E
100
AcDbEntity
  8
IMAGE
100
AcDbLine
 10
1.91751110417216
 20
5.11167607436589
 30
0.0
 11
1.904116356844766
 21
4.416339857548317
 31
0.0
  0
LINE
  5
16D
330
1E
100
AcDbEntity
  8
IMAGE
100
AcDbLine
 10
1.745613124681931
 20
5.11167607436589
 30
0.0
 11
1.732147532368677
 21
4.412662215615781
 31
0.0
  0
LINE
  5
16E
330
1E
100
AcDbEntity
  8
IMAGE
100
AcDbLine
 10
1.900293221408922
 20
4.265891312456721
 30
0.0
 11
1.86265999895258
 21
4.265891312456721
 31
0.0
  0
LINE
  5
16F
330
1E
100
AcDbEntity
  8
IMAGE
100
AcDbLine
 10
1.900293221408922
 20
4.337975241028523
 30
0.0
 11
1.883327683258767
 21
4.337975241028523
 31
0.0
  0
LINE
  5
170
330
1E
100
AcDbEntity
  8
IMAGE
100
AcDbLine
 10
2.039721313386169
 20
5.034786550555964
 30
0.0
 11
2.001892281294878
 21
4.42111558551948
 31
0.0
  0
LINE
  5
171
330
1E
100
AcDbEntity
  8
IMAGE
100
AcDbLine
 10
1.611957507121706
 20
4.337975241028523
 30
0.0
 11
1.708069411884109
 21
4.337975241028523
 31
0.0
  0
LINE
  5
172
330
1E
100
AcDbEntity
  8
IMAGE
100
AcDbLine
 10
1.611957507121706
 20
4.265891312456721
 30
0.0
 11
1.708069411884109
 21
4.265891312456721
 31
0.0
  0
LINE
  5
173
330
1E
100
AcDbEntity
  8
IMAGE
100
AcDbLine
 10
1.892776022153506
 20
4.102501074360633
 30
0.0
 11
1.976873938820609
 21
4.102501074360633
 31
0.0
  0
LINE
  5
174
330
1E
100
AcDbEntity
  8
IMAGE
100
AcDbLine
 10
1.988887926915915
 20
4.114515062455938
 30
0.0
 11
1.988887926915915
 21
4.391100605656081
 31
0.0
  0
LINE
  5
175
330
1E
100
AcDbEntity
  8
IMAGE
100
AcDbLine
 10
1.976873938820609
 20
4.102501074360633
 30
0.0
 11
1.97687393882061
 21
4.400067714605572
 31
0.0
  0
ARC
  5
176
330
1E
100
AcDbEntity
  8
IMAGE
100
AcDbCircle
 10
1.976873938820609
 20
4.114515062455938
 30
0.0
 40
0.0120139880953007
100
AcDbArc
 50
270.0
 51
359.9999999999999
  0
LINE
  5
177
330
1E
100
AcDbEntity
  8
IMAGE
100
AcDbLine
 10
1.988887926915915
 20
4.126529050551236
 30
0.0
 11
2.002163391561987
 21
4.126529050551236
 31
0.0
  0
LINE
  5
178
330
1E
100
AcDbEntity
  8
IMAGE
100
AcDbLine
 10
1.988887926915915
 20
4.282710895790144
 30
0.0
 11
2.002163391561987
 21
4.282710895790144
 31
0.0
  0
LINE
  5
179
330
1E
100
AcDbEntity
  8
IMAGE
100
AcDbLine
 10
2.002163391561987
 20
4.282710895790144
 30
0.0
 11
2.002163391561987
 21
4.126529050551236
 31
0.0
  0
LINE
  5
17A
330
1E
100
AcDbEntity
  8
IMAGE
100
AcDbLine
 10
2.002163391561987
 20
4.204619973170689
 30
0.0
 11
2.05021934394319
 21
4.204619973170689
 31
0.0
  0
LINE
  5
17B
330
1E
100
AcDbEntity
  8
IMAGE
100
AcDbLine
 10
2.002163391561987
 20
4.276703901742496
 30
0.0
 11
2.05021934394319
 21
4.276703901742496
 31
0.0
  0
LINE
  5
17C
330
1E
100
AcDbEntity
  8
IMAGE
100
AcDbLine
 10
2.002163391561987
 20
4.132536044598886
 30
0.0
 11
2.05021934394319
 21
4.132536044598886
 31
0.0
  0
LINE
  5
17D
330
1E
100
AcDbEntity
  8
IMAGE
100
AcDbLine
 10
2.05021934394319
 20
4.276703901742496
 30
0.0
 11
2.05021934394319
 21
4.132536044598886
 31
0.0
  0
LINE
  5
17E
330
1E
100
AcDbEntity
  8
IMAGE
100
AcDbLine
 10
2.05021934394319
 20
4.246668931504242
 30
0.0
 11
2.032198361800241
 21
4.246668931504242
 31
0.0
  0
LINE
  5
17F
330
1E
100
AcDbEntity
  8
IMAGE
100
AcDbLine
 10
2.05021934394319
 20
4.234654943408941
 30
0.0
 11
2.032198361800241
 21
4.234654943408941
 31
0.0
  0
LINE
  5
180
330
1E
100
AcDbEntity
  8
IMAGE
100
AcDbLine
 10
2.032198361800241
 20
4.246668931504242
 30
0.0
 11
2.032198361800241
 21
4.234654943408941
 31
0.0
  0
LINE
  5
181
330
1E
100
AcDbEntity
  8
IMAGE
100
AcDbLine
 10
1.988887926915915
 20
4.132950557405266
 30
0.0
 11
1.999033498183176
 21
4.282710895790144
 31
0.0
  0
LINE
  5
182
330
1E
100
AcDbEntity
  8
IMAGE
100
AcDbLine
 10
1.988887926915915
 20
4.221823960855549
 30
0.0
 11
1.993012735555411
 21
4.282710895790144
 31
0.0
  0
LINE
  5
183
330
1E
100
AcDbEntity
  8
IMAGE
100
AcDbLine
 10
1.994473662111628
 20
4.126529050551236
 30
0.0
 11
2.002163391561987
 21
4.24003833004244
 31
0.0
  0
LINE
  5
184
330
1E
100
AcDbEntity
  8
IMAGE
100
AcDbLine
 10
2.000494424739393
 20
4.126529050551236
 30
0.0
 11
2.002163391561987
 21
4.151164926592157
 31
0.0
  0
LINE
  5
185
330
1E
100
AcDbEntity
  8
IMAGE
100
AcDbLine
 10
1.467789649978094
 20
3.629085002929595
 30
0.0
 11
1.467789649978094
 21
3.514907838426831
 31
0.0
  0
LINE
  5
186
330
1E
100
AcDbEntity
  8
IMAGE
100
AcDbLine
 10
1.478808849250221
 20
3.494705973094606
 30
0.0
 11
1.536475992107665
 21
3.457571828072767
 31
0.0
  0
ARC
  5
187
330
1E
100
AcDbEntity
  8
IMAGE
100
AcDbCircle
 10
1.491817626168699
 20
3.514907838426831
 30
0.0
 40
0.0240279761906015
100
AcDbArc
 50
180.0
 51
237.2209193319303
  0
ARC
  5
188
330
1E
100
AcDbEntity
  8
IMAGE
100
AcDbCircle
 10
1.82820929283712
 20
3.514907838426831
 30
0.0
 40
0.0240279761906015
100
AcDbArc
 50
302.7790806680696
 51
0.0
  0
LINE
  5
189
330
1E
100
AcDbEntity
  8
IMAGE
100
AcDbLine
 10
1.841218069755599
 20
3.494705973094606
 30
0.0
 11
1.783550926898155
 21
3.457571828072767
 31
0.0
  0
LINE
  5
18A
330
1E
100
AcDbEntity
  8
IMAGE
100
AcDbLine
 10
1.852237269027721
 20
3.629085002929595
 30
0.0
 11
1.852237269027721
 21
3.514907838426831
 31
0.0
  0
LINE
  5
18B
330
1E
100
AcDbEntity
  8
IMAGE
100
AcDbLine
 10
1.75762711277723
 20
5.11167607436589
 30
0.0
 11
1.744111376170013
 21
4.41005916960033
 31
0.0
  0
LWPOLYLINE
  5
18C
330
1E
100
AcDbEntity
  8
IMAGE
100
AcDbPolyline
 90
        2
 70
     0
 43
0.0
 10
1.428045539536173
 20
4.41005916960033
 10
1.416010979543452
 20
5.034786550555964
  0
LWPOLYLINE
  5
190
330
1E
100
AcDbEntity
  8
IMAGE
100
AcDbPolyline
 90
        2
 70
     0
 43
0.0
 10
1.891981379469644
 20
4.41005916960033
 10
1.904015939462372
 20
5.034786550555964
  0
LINE
  5
194
330
1E
100
AcDbEntity
  8
IMAGE
100
AcDbLine
 10
1.562449950522551
 20
5.10907302835044
 30
0.0
 11
1.575915542835802
 21
4.41005916960033
 31
0.0
  0
LWPOLYLINE
  5
195
330
1E
100
AcDbEntity
  8
IMAGE
100
AcDbPolyline
 90
        2
 70
     0
 43
0.0
 10
1.571020120375822
 20
3.453745717214394
 10
1.749006798629999
 20
3.453745717214394
  0
TEXT
  5
19A
330
1E
100
AcDbEntity
  8
TEXT_BUBBLES
100
AcDbText
 10
4.404857901174219
 20
5.1563062
 30
0.0
 40
0.125
  1
  RAIN BIRD 2045A MAXI-PAW
  7
ROMANS
100
AcDbText
  0
TEXT
  5
19F
330
1E
100
AcDbEntity
  8
OPTION-SAM
100
AcDbText
 10
4.404857901174219
 20
5.1563062
 30
0.0
 40
0.125
  1
                        -SAM
  7
ROMANS
100
AcDbText
  0
TEXT
  5
1CC
330
1E
100
AcDbEntity
  8
TEXT-SJ-BUBBLES
100
AcDbText
 10
4.035854885750236
 20
1.53367958749848
 30
0.0
 40
0.1250000000000003
  1
6
  7
ROMANS
 72
     4
 11
4.098354885750236
 21
1.596179587498481
 31
0.0
100
AcDbText
  0
CIRCLE
  5
1CD
330
1E
100
AcDbEntity
  8
TEXT-SJ-BUBBLES
100
AcDbCircle
 10
4.098354885750236
 20
1.596179587498481
 30
0.0
 40
0.15625
  0
CIRCLE
  5
1F1
330
1E
100
AcDbEntity
  8
TEXT-SJ-BUBBLES
100
AcDbCircle
 10
3.720548853422332
 20
1.596179587498481
 30
0.0
 40
0.15625
  0
TEXT
  5
1F2
330
1E
100
AcDbEntity
  8
TEXT-SJ-BUBBLES
100
AcDbText
 10
3.661025043898522
 20
1.53367958749848
 30
0.0
 40
0.1250000000000003
  1
5
  7
ROMANS
 72
     4
 11
3.720548853422332
 21
1.596179587498481
 31
0.0
100
AcDbText
  0
TEXT
  5
1FB
330
1E
100
AcDbEntity
  8
TEXT-SJ-BUBBLES
100
AcDbText
 10
2.010249928191708
 20
1.533669059047805
 30
0.0
 40
0.1250000000000003
  1
5
  7
ROMANS
 72
     4
 11
2.069773737715518
 21
1.596169059047805
 31
0.0
100
AcDbText
  0
CIRCLE
  5
1FC
330
1E
100
AcDbEntity
  8
TEXT-SJ-BUBBLES
100
AcDbCircle
 10
2.069773737715518
 20
1.596169059047805
 30
0.0
 40
0.15625
  0
TEXT
  5
1FD
330
1E
100
AcDbEntity
  8
TEXT-SJ-BUBBLES
100
AcDbText
 10
3.070650558069909
 20
1.533808815928335
 30
0.0
 40
0.1250000000000003
  1
7
  7
ROMANS
 72
     4
 11
3.130174367593718
 21
1.596308815928336
 31
0.0
100
AcDbText
  0
CIRCLE
  5
1FE
330
1E
100
AcDbEntity
  8
TEXT-SJ-BUBBLES
100
AcDbCircle
 10
3.130174367593718
 20
1.596308815928336
 30
0.0
 40
0.15625
  0
TEXT
  5
1FF
330
1E
100
AcDbEntity
  8
TEXT-SJ-BUBBLES
100
AcDbText
 10
2.486355951663663
 20
1.53339551791742
 30
0.0
 40
0.1250000000000003
  1
3
  7
ROMANS
 72
     4
 11
2.545879761187473
 21
1.595895517917421
 31
0.0
100
AcDbText
  0
CIRCLE
  5
200
330
1E
100
AcDbEntity
  8
TEXT-SJ-BUBBLES
100
AcDbCircle
 10
2.545879761187473
 20
1.595895517917421
 30
0.0
 40
0.15625
  0
LINE
  5
219
330
1E
100
AcDbEntity
  8
IMAGE
100
AcDbLine
 10
1.774262663681962
 20
3.453745717214394
 30
0.0
 11
1.660013459502911
 21
3.453745717214394
 31
0.0
  0
LINE
  5
21A
330
1E
100
AcDbEntity
  8
IMAGE
100
AcDbLine
 10
1.545764255323861
 20
3.453745717214394
 30
0.0
 11
1.660013459502911
 21
3.453745717214394
 31
0.0
  0
TEXT
  5
21C
330
1E
100
AcDbEntity
  8
TEXT-SJ-BUBBLES
100
AcDbText
 10
0.3841337174703552
 20
3.697731491230375
 30
0.0
 40
0.125
  1
4
  7
ROMANS
 72
     4
 11
0.4466337174703553
 21
3.760231491230375
 31
0.0
100
AcDbText
  0
CIRCLE
  5
21D
330
1E
100
AcDbEntity
  8
TEXT-SJ-BUBBLES
100
AcDbCircle
 10
0.4466337174703553
 20
3.760231491230375
 30
0.0
 40
0.15625
  0
ARC
  5
23F
330
1E
100
AcDbEntity
  8
IMAGE
100
AcDbCircle
 10
1.660013459502911
 20
4.625101940854598
 30
0.0
 40
1.012165262638621
100
AcDbArc
 50
258.670789914706
 51
281.3292100852939
  0
TEXT
  5
262
330
1E
100
AcDbEntity
  8
INSTRUCT-CALLOUT
100
AcDbText
 10
10.39466712314452
 20
6.606114141461314
 30
0.0
 40
0.125
  1
TO TURN OFF THIS INSTRUCTION BOX, TURN OFF
  7
ROMANS
100
AcDbText
  0
TEXT
  5
263
330
1E
100
AcDbEntity
  8
INSTRUCT-CALLOUT
100
AcDbText
 10
10.39466712314452
 20
6.431114141461314
 30
0.0
 40
0.125
  1
LAYER "INSTRUCT-CALLOUT".
  7
ROMANS
100
AcDbText
  0
CIRCLE
  5
264
330
1E
100
AcDbEntity
  8
INSTRUCT-CALLOUT
100
AcDbCircle
 10
13.47437624068316
 20
7.132884282566777
 30
0.0
 40
0.15625
  0
TEXT
  5
265
330
1E
100
AcDbEntity
  8
INSTRUCT-CALLOUT
100
AcDbText
 10
13.42378100258792
 20
7.070384282566777
 30
0.0
 40
0.125
  1
1
  7
ROMANS
 72
     4
 11
13.47437624068316
 21
7.132884282566777
 31
0.0
100
AcDbText
  0
LINE
  5
266
330
1E
100
AcDbEntity
  8
INSTRUCT-CALLOUT
100
AcDbLine
 10
13.06776131278376
 20
7.021874204710653
 30
0.0
 11
13.32364272970861
 21
7.091732476175272
 31
0.0
  0
SOLID
  5
267
330
1E
100
AcDbEntity
  8
INSTRUCT-CALLOUT
100
AcDbTrace
 10
13.13703572357556
 20
7.071884763690218
 30
0.0
 11
13.1528380172299
 21
7.01400309547599
 31
0.0
 12
12.97129186576005
 22
6.995537048620088
 32
0.0
 13
12.97129186576005
 23
6.995537048620088
 33
0.0
  0
TEXT
  5
268
330
1E
100
AcDbEntity
  8
INSTRUCT-CALLOUT
100
AcDbText
 10
11.35919409533989
 20
7.110421495689314
 30
0.0
 40
0.125
  1
ITEM 1
  7
ROMANS
100
AcDbText
  0
SOLID
  5
269
330
1E
100
AcDbEntity
  8
INSTRUCT-CALLOUT
100
AcDbTrace
 10
10.99456639552614
 20
7.05845872913882
 30
0.0
 11
10.97151451063441
 21
7.113853770459666
 31
0.0
 12
10.81685532911774
 22
7.017000595124044
 32
0.0
 13
10.81685532911774
 23
7.017000595124044
 33
0.0
  0
LINE
  5
26A
330
1E
100
AcDbEntity
  8
INSTRUCT-CALLOUT
100
AcDbLine
 10
10.90918039798581
 20
7.055420403276932
 30
0.0
 11
11.19695081246414
 21
7.175172105083214
 31
0.0
  0
LINE
  5
26B
330
1E
100
AcDbEntity
  8
INSTRUCT-CALLOUT
100
AcDbLine
 10
11.19695081246414
 20
7.175172105083214
 30
0.0
 11
11.33321935832276
 21
7.175172105083213
 31
0.0
  0
TEXT
  5
26C
330
1E
100
AcDbEntity
  8
INSTRUCT-CALLOUT
100
AcDbText
 10
10.39466712314452
 20
7.425671756938137
 30
0.0
 40
0.125
  1
TEXT_LEADERS         TEXT_BUBBLES
  7
ROMANS
100
AcDbText
  0
TEXT
  5
26D
330
1E
100
AcDbEntity
  8
INSTRUCT-CALLOUT
100
AcDbText
 10
10.39466712314452
 20
7.775671756938137
 30
0.0
 40
0.125
  1
BY TURNING ON THE APPROPRIATE LAYER:
  7
ROMANS
100
AcDbText
  0
TEXT
  5
26E
330
1E
100
AcDbEntity
  8
INSTRUCT-CALLOUT
100
AcDbText
 10
10.39466712314452
 20
7.950671756938136
 30
0.0
 40
0.125
  1
CHOOSE EITHER LEADERS OR BUBBLE CALLOUTS
  7
ROMANS
100
AcDbText
  0
TEXT
  5
26F
330
1E
100
AcDbEntity
  8
INSTRUCT-CALLOUT
100
AcDbText
 10
10.39466712314452
 20
8.300671756938136
 30
0.0
 40
0.125
  1
CHOOSING EQUIPMENT CALLOUT METHOD
  7
ROMANS
100
AcDbText
  0
LWPOLYLINE
  5
270
330
1E
100
AcDbEntity
  8
INSTRUCT-CALLOUT
100
AcDbPolyline
 90
        4
 70
     1
 43
0.0
 10
10.35563977734922
 20
8.243556269504688
 10
10.35563977734922
 20
6.812070248162445
 10
15.23460512005013
 20
6.812070248162445
 10
15.23460512005013
 20
8.243556269504688
  0
TEXT
  5
280
330
1E
100
AcDbEntity
  8
INSTRUCT-OPTION
100
AcDbText
 10
10.43083360110576
 20
4.964292757322398
 30
0.0
 40
0.125
  1
  OPTION-SAM
  7
ROMANS
100
AcDbText
  0
TEXT
  5
282
330
1E
100
AcDbEntity
  8
INSTRUCT-OPTION
100
AcDbText
 10
10.43843529717845
 20
-0.4649903292124802
 30
0.0
 40
0.125
  1
LAYER "INSTRUCT-OPTION".
  7
ROMANS
100
AcDbText
  0
TEXT
  5
283
330
1E
100
AcDbEntity
  8
INSTRUCT-OPTION
100
AcDbText
 10
10.43843529717845
 20
-0.2899903292124795
 30
0.0
 40
0.125
  1
TO TURN OFF THIS INSTRUCTION BOX, TURN OFF
  7
ROMANS
100
AcDbText
  0
TEXT
  5
284
330
1E
100
AcDbEntity
  8
INSTRUCT-OPTION
100
AcDbText
 10
10.43083360110576
 20
6.148359332851504
 30
0.0
 40
0.125
  1
CHOOSING A DIFFERENT SPRINKLER MODEL
  7
ROMANS
100
AcDbText
  0
TEXT
  5
286
330
1E
100
AcDbEntity
  8
INSTRUCT-OPTION
100
AcDbText
 10
10.43083360110576
 20
5.572678124790118
 30
0.0
 40
0.125
  1
ON THE APPROPRIATE LAYER:
  7
ROMANS
100
AcDbText
  0
TEXT
  5
287
330
1E
100
AcDbEntity
  8
INSTRUCT-OPTION
100
AcDbText
 10
10.43083360110576
 20
5.747678124790117
 30
0.0
 40
0.125
  1
CHOOSE A DIFFERENT MODEL BY TURNING
  7
ROMANS
100
AcDbText
  0
TEXT
  5
28F
330
1E
100
AcDbEntity
  8
IMAGE
100
AcDbText
 10
0.6562113303042743
 20
0.1522910317822807
 30
0.0
 40
0.125
  1
A SWING PIPE ASSEMBLY MAY BE USED WITH FLOWS LESS THAN 4 GPM.
  7
ROMANS
100
AcDbText
  0
TEXT
  5
290
330
1E
100
AcDbEntity
  8
IMAGE
100
AcDbText
 10
0.6562113303042743
 20
0.5022910317822806
 30
0.0
 40
0.125
  1
NOTE:
  7
ROMANS
100
AcDbText
  0
TEXT
  5
2A1
330
1E
100
AcDbEntity
  8
TEXT_LEADERS
100
AcDbText
 10
4.404857879999999
 20
5.681306199999999
 30
0.0
 40
0.125
  1
FINISH GRADE
  7
ROMANS
100
AcDbText
  0
TEXT
  5
2A2
330
1E
100
AcDbEntity
  8
TEXT_LEADERS
100
AcDbText
 10
4.404857879999999
 20
5.1563062
 30
0.0
 40
0.125
  1
  RAIN BIRD 2045A MAXI-PAW
  7
ROMANS
100
AcDbText
  0
LEADER
  5
2B6
330
1E
100
AcDbEntity
  8
TEXT_LEADERS
100
AcDbLeader
  3
Standard
 76
     3
 10
1.988887926915915
 20
4.334150154292912
 30
0.0
 10
4.002540172203119
 20
5.399165184953854
 30
0.0
 10
4.352875419873795
 20
5.399165184953855
 30
0.0
  0
LEADER
  5
2B9
330
1E
100
AcDbEntity
  8
TEXT_LEADERS
100
AcDbLeader
  3
Standard
 76
     3
 10
3.158232569219423
 20
5.230629385785461
 30
0.0
 10
4.002540172203119
 20
5.748056352659434
 30
0.0
 10
4.352875419873795
 20
5.748056352659434
 30
0.0
  0
TEXT
  5
2C1
330
1E
100
AcDbEntity
  8
TEXT_BUBBLES
100
AcDbText
 10
4.404857901174219
 20
5.681306199999999
 30
0.0
 40
0.125
  1
FINISH GRADE
  7
ROMANS
100
AcDbText
  0
LEADER
  5
2C5
330
1E
100
AcDbEntity
  8
TEXT-SJ-BUBBLES
100
AcDbLeader
  3
Standard
 76
     2
 10
1.529641398638918
 20
2.89367979970986
 30
0.0
 10
0.5678156580015533
 20
3.661595798962853
 30
0.0
  0
LEADER
  5
2C6
330
1E
100
AcDbEntity
  8
TEXT-SJ-BUBBLES
100
AcDbLeader
  3
Standard
 76
     2
 10
2.299147224405595
 20
2.471055517487761
 30
0.0
 10
2.501184325841929
 20
1.745616526995213
 30
0.0
  0
LEADER
  5
2C7
330
1E
100
AcDbEntity
  8
TEXT-SJ-BUBBLES
100
AcDbLeader
  3
Standard
 76
     2
 10
2.958454855005216
 20
2.155860543021356
 30
0.0
 10
3.09153049919038
 20
1.747704700729824
 30
0.0
  0
LEADER
  5
2C8
330
1E
100
AcDbEntity
  8
TEXT-SJ-BUBBLES
100
AcDbLeader
  3
Standard
 76
     2
 10
1.80187797518442
 20
2.563101506535402
 30
0.0
 10
2.024558874174712
 20
1.745734023578227
 30
0.0
  0
LEADER
  5
2C9
330
1E
100
AcDbEntity
  8
TEXT-SJ-BUBBLES
100
AcDbLeader
  3
Standard
 76
     2
 10
3.591404776923662
 20
2.183431233133386
 30
0.0
 10
3.69425494664214
 20
1.750201316375398
 30
0.0
  0
LEADER
  5
2CA
330
1E
100
AcDbEntity
  8
TEXT-SJ-BUBBLES
100
AcDbLeader
  3
Standard
 76
     2
 10
3.967294336937669
 20
2.124586744964302
 30
0.0
 10
4.058453173850393
 20
1.747248829528293
 30
0.0
  0
LEADER
  5
2CB
330
1E
100
AcDbEntity
  8
TEXT-SJ-BUBBLES
100
AcDbLeader
  3
Standard
 76
     2
 10
1.549467997431365
 20
3.28842103813652
 30
0.0
 10
0.570290998433039
 20
4.05833756547778
 30
0.0
  0
LEADER
  5
2CC
330
1E
100
AcDbEntity
  8
TEXT_BUBBLES
100
AcDbLeader
  3
Standard
 76
     2
 10
1.429300149855003
 20
4.001930227474393
 30
0.0
 10
0.5512160413977501
 20
4.695395460029187
 30
0.0
  0
LEADER
  5
2CD
330
1E
100
AcDbEntity
  8
TEXT_BUBBLES
100
AcDbLeader
  3
Standard
 76
     2
 10
0.8028010718840294
 20
5.23145939966896
 30
0.0
 10
0.5168781756536989
 20
5.502165341600209
 30
0.0
  0
HATCH
  5
2D1
330
1E
100
AcDbEntity
  8
IMAGE
100
AcDbHatch
 10
0.0
 20
0.0
 30
0.0
210
0.0
220
0.0
230
1.0
  2
EARTH
 70
     0
 71
     0
 91
        2
 92
        1
 93
       10
 72
     1
 10
2.506818375425248
 20
5.231165438481001
 11
2.44834331975125
 21
5.040858307974795
 72
     1
 10
2.44834331975125
 20
5.040858307974795
 11
2.313339727780383
 21
4.753244849666276
 72
     1
 10
2.313339727780383
 20
4.753244849666276
 11
2.132150678471719
 21
4.728389356024391
 72
     1
 10
2.132150678471719
 20
4.728389356024391
 11
2.020633684368571
 21
4.725142790937085
 72
     1
 10
2.020633684368571
 20
4.725142790937085
 11
2.039721313386176
 21
5.034786550555964
 72
     1
 10
2.039721313386176
 20
5.034786550555964
 11
2.097505098239625
 21
5.11167607436589
 72
     1
 10
2.097505098239625
 20
5.11167607436589
 11
2.126156197600582
 21
5.11167607436589
 72
     1
 10
2.126156197600582
 20
5.11167607436589
 11
2.102344647199304
 21
5.196717325799031
 72
     2
 10
2.056068494123105
 20
5.183760002937696
 40
0.0480559523812049
 50
15.64224645720815
 51
83.01612291400399
 73
     1
 72
     1
 10
2.061911619206321
 20
5.231459399668961
 11
2.506818375425248
 21
5.231165438481001
 97
        0
 92
        1
 93
       10
 72
     1
 10
0.813208543580577
 20
5.231165438481001
 11
0.8716835992545753
 21
5.040858307974795
 72
     1
 10
0.8716835992545753
 20
5.040858307974795
 11
1.006687191225442
 21
4.753244849666276
 72
     1
 10
1.006687191225442
 20
4.753244849666276
 11
1.187876240534105
 21
4.728389356024391
 72
     1
 10
1.187876240534105
 20
4.728389356024391
 11
1.299393234637253
 21
4.725142790937085
 72
     1
 10
1.299393234637253
 20
4.725142790937085
 11
1.280305605619648
 21
5.034786550555964
 72
     1
 10
1.280305605619648
 20
5.034786550555964
 11
1.2225218207662
 21
5.11167607436589
 72
     1
 10
1.2225218207662
 20
5.11167607436589
 11
1.193870721405243
 21
5.11167607436589
 72
     1
 10
1.193870721405243
 20
5.11167607436589
 11
1.217682271806521
 21
5.196717325799031
 72
     2
 10
1.263958424882719
 20
5.183760002937696
 40
0.0480559523812049
 50
195.6422464572081
 51
263.0161229140039
 73
     0
 72
     1
 10
1.258115299799504
 20
5.231459399668961
 11
0.813208543580577
 21
5.231165438481001
 97
        0
 75
     0
 76
     1
 52
45.0
 41
0.5
 77
     0
 78
     6
 53
45.0
 43
0.0
 44
0.0
 45
0.0
 46
0.1767766952966369
 79
     2
 49
0.125
 49
-0.125
 53
45.0
 43
-0.0331456303681194
 44
0.0331456303681194
 45
0.0
 46
0.1767766952966369
 79
     2
 49
0.125
 49
-0.125
 53
45.0
 43
-0.0662912607362388
 44
0.0662912607362389
 45
0.0
 46
0.1767766952966369
 79
     2
 49
0.125
 49
-0.125
 53
135.0
 43
-0.0662912607362388
 44
0.0883883476483185
 45
-0.1767766952966369
 46
0.0
 79
     2
 49
0.125
 49
-0.125
 53
135.0
 43
-0.0331456303681194
 44
0.1215339780164379
 45
-0.1767766952966369
 46
0.0
 79
     2
 49
0.125
 49
-0.125
 53
135.0
 43
0.0
 44
0.1546796083845573
 45
-0.1767766952966369
 46
0.0
 79
     2
 49
0.125
 49
-0.125
 98
        1
 10
0.0
 20
0.0
  0
INSERT
  5
2E9
330
1E
100
AcDbEntity
  8
TITLE
100
AcDbBlockReference
 66
     1
  2
titleblock
 10
-1.090693472781648
 20
-1.87500525836875
 30
0.0
  0
ATTRIB
  5
2EA
330
2E9
100
AcDbEntity
  8
TITLE
100
AcDbText
 10
-0.5851378689793067
 20
-1.090778161890383
 30
0.0
 40
0.2
  1
D
  7
L200
 72
     4
 11
-0.4842511022671648
 21
-0.9907781618903833
 31
0.0
100
AcDbAttribute
  2
D
 70
     0
  0
ATTRIB
  5
2EB
330
2E9
100
AcDbEntity
  8
TITLE
100
AcDbText
 10
0.1407488977328355
 20
-0.5312929556220001
 30
0.0
 40
0.2
  1

  7
L200
100
AcDbAttribute
  2
TITLE1
 70
     0
  0
ATTRIB
  5
2EC
330
2E9
100
AcDbEntity
  8
TITLE
100
AcDbText
 10
0.1407488977328355
 20
-0.8907781618903831
 30
0.0
 40
0.2
  1
IMPACT ROTOR POP-UP SPRINKLER
  7
L200
100
AcDbAttribute
  2
TITLE2
 70
     0
  0
ATTRIB
  5
2ED
330
2E9
100
AcDbEntity
  8
TITLE
100
AcDbText
 10
1.622952278386663
 20
-1.282212491910431
 30
0.0
 40
0.2
  1
MAXI-PAW
  7
L200
100
AcDbAttribute
  2
TITLE3
 70
     0
  0
ATTRIB
  5
2EE
330
2E9
100
AcDbEntity
  8
TITLE
100
AcDbText
 10
1.622952278386663
 20
-1.605749177551976
 30
0.0
 40
0.2
  1

  7
L200
100
AcDbAttribute
  2
TITLE4
 70
     0
  0
ATTRIB
  5
2EF
330
2E9
100
AcDbEntity
  8
TITLE
 62
     7
100
AcDbText
 10
6.598902309565684
 20
-0.9054024668241106
 30
0.0
 40
0.08
  1
4-27-04
  7
L80
 72
     2
 11
7.170330880994255
 21
-0.9054024668241106
 31
0.0
100
AcDbAttribute
  2
REVISED
 70
     0
  0
ATTRIB
  5
2F0
330
2E9
100
AcDbEntity
  8
TITLE
 62
     7
100
AcDbText
 10
-0.8267511022671648
 20
-1.790293610348029
 30
0.0
 40
0.08
  1
R-MAXI-PAW.DWG
  7
L80
100
AcDbAttribute
  2
DWG-NAME
 70
     0
  0
ATTRIB
  5
2F1
330
2E9
100
AcDbEntity
  8
TITLE
 62
     7
100
AcDbText
 10
0.1407488977328355
 20
-1.174441478973261
 30
0.0
 40
0.1
  1
N.T.S.
  7
L100
100
AcDbAttribute
  2
SCALE
 70
     0
  0
SEQEND
  5
2F2
330
2E9
100
AcDbEntity
  8
IMAGE
  0
LINE
  5
470
330
1E
100
AcDbEntity
  8
OPTION-RB-SJ
100
AcDbLine
 10
1.545764255323903
 20
3.117612655128242
 30
0.0
 11
1.545764255323903
 21
3.387343858979482
 31
0.0
  0
LINE
  5
471
330
1E
100
AcDbEntity
  8
OPTION-RB-SJ
100
AcDbLine
 10
1.774262663681962
 20
3.117612655128242
 30
0.0
 11
1.774262663681962
 21
3.387343858979482
 31
0.0
  0
LWPOLYLINE
  5
472
330
1E
100
AcDbEntity
  8
OPTION-RB-SJ
100
AcDbPolyline
 90
       26
 70
     0
 43
0.0
 10
4.330947574978648
 20
2.777175933814323
 10
4.335425038248239
 20
2.777587811792862
 10
4.339829966985757
 20
2.778795491950987
 10
4.344092892622072
 20
2.780779928354505
 10
4.348146586098827
 20
2.783509825220635
 10
4.351927118110341
 20
2.78694213031034
 10
4.355374867219829
 20
2.791022713979927
 10
4.358435460233923
 20
2.795687222809963
 10
4.361060629644184
 20
2.800862094540361
 10
4.363208974846426
 20
2.806465718109066
 10
4.364846615080056
 20
2.812409720823982
 10
4.36594772368293
 20
2.818600361936612
 10
4.366494935495813
 20
2.824940011083606
 10
4.366479620638315
 20
2.831328687968568
 10
4.365902020613347
 20
2.837665639057281
 10
4.364771244562399
 20
2.84385092658238
 10
4.363105125545803
 20
2.849787004614817
 10
4.360929939314955
 20
2.855380257416006
 10
4.35827998995319
 20
2.860542475801917
 10
4.355197068840768
 20
2.865192248295938
 10
4.351729795633566
 20
2.869256245017897
 10
4.347932851447496
 20
2.872670374139655
 10
4.343866116486266
 20
2.875380792653361
 10
4.339593725789287
 20
2.87734475556299
 10
4.33518305768752
 20
2.878531289879889
 10
4.330703671208982
 20
2.878921683208975
  0
LWPOLYLINE
  5
473
330
1E
100
AcDbEntity
  8
OPTION-RB-SJ
100
AcDbPolyline
 90
       29
 70
     0
 43
0.0
 10
4.330703810120891
 20
2.878921673071996
 10
4.338527130432729
 20
2.880194837575524
 10
4.346097814141602
 20
2.884010344112812
 10
4.352752636082543
 20
2.890033912849846
 10
4.358410320765532
 20
2.89819192765954
 10
4.362575108562291
 20
2.907769636257819
 10
4.365196072835272
 20
2.918649901208691
 10
4.366043552335065
 20
2.929879466610174
 10
4.365142172233431
 20
2.941104946503712
 10
4.362469210204936
 20
2.951972528632659
 10
4.358258579201415
 20
2.961530171942623
 10
4.35256187082594
 20
2.969660984666157
 10
4.345878263708636
 20
2.975652598079655
 10
4.338289385133788
 20
2.979431786327699
 10
4.330460054334799
 20
2.980667451263549
 10
4.322636838300741
 20
2.979394286994308
 10
4.315066050314092
 20
2.975578780222731
 10
4.308411228357615
 20
2.969555211485662
 10
4.302753543690202
 20
2.961397196660469
 10
4.298588755893403
 20
2.951819488077726
 10
4.295967895913739
 20
2.940939223361176
 10
4.295120312354996
 20
2.92970955341652
 10
4.296021692222303
 20
2.918484177816297
 10
4.298694654250762
 20
2.907616595702883
 10
4.30290528525432
 20
2.898058952377386
 10
4.308601993614217
 20
2.889928139669351
 10
4.315285600747062
 20
2.883936526255888
 10
4.322874583599685
 20
2.880157338242133
 10
4.330703810120891
 20
2.878921673071996
  0
LINE
  5
474
330
1E
100
AcDbEntity
  8
OPTION-RB-SJ
100
AcDbLine
 10
3.854418419035994
 20
2.776849360975024
 30
0.0
 11
4.330947574978648
 21
2.777175933814323
 31
0.0
  0
LINE
  5
475
330
1E
100
AcDbEntity
  8
OPTION-RB-SJ
100
AcDbLine
 10
3.85393088127437
 20
2.98035184905815
 30
0.0
 11
4.330460063542744
 21
2.98066743331301
 31
0.0
  0
LWPOLYLINE
  5
476
330
1E
100
AcDbEntity
  8
OPTION-RB-SJ
100
AcDbPolyline
 90
        6
 70
     0
 43
0.0
 10
3.580292377433595
 20
2.999412133091839
 10
3.59261308885489
 20
2.997831095656071
 10
3.604516205534654
 20
2.995104224424697
 10
3.615715301284317
 20
2.99138909577055
 10
3.626538480002204
 20
2.9866350753967
 10
3.637467630827238
 20
2.980517311542907
  0
LINE
  5
477
330
1E
100
AcDbEntity
  8
OPTION-RB-SJ
100
AcDbLine
 10
3.605820217900469
 20
3.016647416299623
 30
0.0
 11
3.651639668867629
 21
2.981857362194839
 31
0.0
  0
LINE
  5
478
330
1E
100
AcDbEntity
  8
OPTION-RB-SJ
100
AcDbLine
 10
3.604047242533352
 20
3.016321268700824
 30
0.0
 11
3.649866693500512
 21
2.981531214596037
 31
0.0
  0
LWPOLYLINE
  5
479
330
1E
100
AcDbEntity
  8
OPTION-RB-SJ
100
AcDbPolyline
 90
       10
 70
     0
 43
0.0
 10
3.625878862096249
 20
2.76450260051518
 10
3.625884177209765
 20
2.764781829739815
 10
3.625801972230462
 20
2.765007865317773
 10
3.625598522401277
 20
2.76512707688202
 10
3.625268745248117
 20
2.76510105528602
 10
3.62482513698652
 20
2.76492392192069
 10
3.624265234123712
 20
2.764592606907005
 10
3.623598041861958
 20
2.764110235960957
 10
3.622889204190739
 20
2.7635268195825
 10
3.622215020060506
 20
2.762918261513265
  0
LINE
  5
47A
330
1E
100
AcDbEntity
  8
OPTION-RB-SJ
100
AcDbLine
 10
3.623581825593006
 20
2.754355945447427
 30
0.0
 11
3.622409045716276
 21
2.75397286728169
 31
0.0
  0
ARC
  5
47B
330
1E
100
AcDbEntity
  8
OPTION-RB-SJ
100
AcDbCircle
 10
3.621386097096305
 20
2.756364831848483
 30
0.0
 40
0.0034360662910986
100
AcDbArc
 50
292.7911169583367
 51
352.7911169583369
  0
ARC
  5
47C
330
1E
100
AcDbEntity
  8
OPTION-RB-SJ
100
AcDbCircle
 10
3.570704753117468
 20
2.875935247755755
 30
0.0
 40
0.151702326752004
100
AcDbArc
 50
226.9694111049367
 51
118.5622256057371
  0
ARC
  5
47D
330
1E
100
AcDbEntity
  8
OPTION-RB-SJ
100
AcDbCircle
 10
3.570704753117468
 20
2.875935247755755
 30
0.0
 40
0.1491252770680407
100
AcDbArc
 50
228.4309445955366
 51
117.231184854237
  0
ARC
  5
47E
330
1E
100
AcDbEntity
  8
OPTION-RB-SJ
100
AcDbCircle
 10
3.570704753117468
 20
2.875935247755755
 30
0.0
 40
0.1228393699067756
100
AcDbArc
 50
262.787858879937
 51
82.79111695833721
  0
ARC
  5
47F
330
1E
100
AcDbEntity
  8
OPTION-RB-SJ
100
AcDbCircle
 10
3.570704753117468
 20
2.875935247755755
 30
0.0
 40
0.1340065803533696
100
AcDbArc
 50
288.4492627736368
 51
57.71710095323706
  0
LINE
  5
480
330
1E
100
AcDbEntity
  8
OPTION-RB-SJ
100
AcDbLine
 10
3.621081205510908
 20
2.753954371954691
 30
0.0
 11
3.622215020060506
 21
2.762918261513265
 31
0.0
  0
LWPOLYLINE
  5
481
330
1E
100
AcDbEntity
  8
OPTION-RB-SJ
100
AcDbPolyline
 90
        4
 70
     0
 43
0.0
 10
3.621081205510908
 20
2.753954371954693
 10
3.621669693206039
 20
2.753424477298164
 10
3.622232188131578
 20
2.753164078610224
 10
3.622717135225005
 20
2.753197042552027
  0
LWPOLYLINE
  5
482
330
1E
100
AcDbEntity
  8
OPTION-RB-SJ
100
AcDbPolyline
 90
        4
 70
     0
 43
0.0
 10
3.622215020045262
 20
2.762918261392741
 10
3.621601939015534
 20
2.763443953873624
 10
3.621017656138835
 20
2.763695265972559
 10
3.620516772450784
 20
2.763648712640328
  0
LINE
  5
483
330
1E
100
AcDbEntity
  8
OPTION-RB-SJ
100
AcDbLine
 10
3.622409045716276
 20
2.75397286728169
 30
0.0
 11
3.621081205510908
 21
2.753954371954691
 31
0.0
  0
LINE
  5
484
330
1E
100
AcDbEntity
  8
OPTION-RB-SJ
100
AcDbLine
 10
3.622717135225005
 20
2.753197042552026
 30
0.0
 11
3.56967833907259
 21
2.730911261072385
 31
0.0
  0
LINE
  5
485
330
1E
100
AcDbEntity
  8
OPTION-RB-SJ
100
AcDbLine
 10
3.621081205510908
 20
2.753954371954691
 30
0.0
 11
3.568042409358493
 21
2.731668590475052
 31
0.0
  0
LWPOLYLINE
  5
486
330
1E
100
AcDbEntity
  8
OPTION-RB-SJ
100
AcDbPolyline
 90
        6
 70
     0
 43
0.0
 10
3.622215020060506
 20
2.762918261513265
 10
3.609257344028804
 20
2.758002036394378
 10
3.597069085752842
 20
2.754788485697799
 10
3.585294320858706
 20
2.752880843837534
 10
3.573372535904268
 20
2.75209238676852
 10
3.561050652442725
 20
2.752463603520917
  0
LINE
  5
487
330
1E
100
AcDbEntity
  8
OPTION-RB-SJ
100
AcDbLine
 10
3.85448270772667
 20
2.750014704178914
 30
0.0
 11
3.853876109527802
 21
3.003214050883389
 31
0.0
  0
ARC
  5
488
330
1E
100
AcDbEntity
  8
OPTION-RB-SJ
100
AcDbCircle
 10
3.570704753117468
 20
2.875935247755755
 30
0.0
 40
0.1288524859161982
100
AcDbArc
 50
295.1108233003369
 51
50.46739261653719
  0
ARC
  5
489
330
1E
100
AcDbEntity
  8
OPTION-RB-SJ
100
AcDbCircle
 10
3.570704753117468
 20
2.875935247755755
 30
0.0
 40
0.1271344527706488
100
AcDbArc
 50
295.5306107216367
 51
50.05156391983712
  0
ARC
  5
48A
330
1E
100
AcDbEntity
  8
OPTION-RB-SJ
100
AcDbCircle
 10
3.570704753117468
 20
2.875935247755755
 30
0.0
 40
0.1254164191440503
100
AcDbArc
 50
296.0217626079367
 51
49.56042180523703
  0
LINE
  5
48B
330
1E
100
AcDbEntity
  8
OPTION-RB-SJ
100
AcDbLine
 10
3.65019421065505
 20
2.750014704178914
 30
0.0
 11
3.85448270772667
 21
2.750014704178914
 31
0.0
  0
LWPOLYLINE
  5
48C
330
1E
100
AcDbEntity
  8
OPTION-RB-SJ
100
AcDbPolyline
 90
        3
 70
     0
 43
0.0
 10
3.624795002163935
 20
2.755933650034089
 10
3.624419826093737
 20
2.755045316113205
 10
3.623581825593006
 20
2.754355945447427
  0
LINE
  5
48D
330
1E
100
AcDbEntity
  8
OPTION-RB-SJ
100
AcDbLine
 10
3.624795002163935
 20
2.755933650034089
 30
0.0
 11
3.625878862096249
 21
2.76450260051518
 31
0.0
  0
ARC
  5
48E
330
1E
100
AcDbEntity
  8
OPTION-RB-SJ
100
AcDbCircle
 10
3.62928778908089
 20
2.764071429239027
 30
0.0
 40
0.003436066308279
100
AcDbArc
 50
117.6414266247372
 51
172.7913370363372
  0
LINE
  5
48F
330
1E
100
AcDbEntity
  8
OPTION-RB-SJ
100
AcDbLine
 10
3.649588194567135
 20
3.002724631448153
 30
0.0
 11
3.853876109527802
 21
3.003214050883389
 31
0.0
  0
LINE
  5
490
330
1E
100
AcDbEntity
  8
OPTION-RB-SJ
100
AcDbLine
 10
3.651886847060967
 20
2.970120622393185
 30
0.0
 11
3.652970707006858
 21
2.978689572884809
 31
0.0
  0
LINE
  5
491
330
1E
100
AcDbEntity
  8
OPTION-RB-SJ
100
AcDbLine
 10
3.648732878961441
 20
2.97256732502389
 30
0.0
 11
3.649866693500512
 21
2.981531214596037
 31
0.0
  0
LWPOLYLINE
  5
492
330
1E
100
AcDbEntity
  8
OPTION-RB-SJ
100
AcDbPolyline
 90
        4
 70
     0
 43
0.0
 10
3.65297070700686
 20
2.978689572884809
 10
3.652827917583854
 20
2.979644788522241
 10
3.652186918075931
 20
2.980521172361555
 10
3.651145455997395
 20
2.981183832734609
  0
LWPOLYLINE
  5
493
330
1E
100
AcDbEntity
  8
OPTION-RB-SJ
100
AcDbPolyline
 90
        4
 70
     0
 43
0.0
 10
3.64873287976026
 20
2.972567331339295
 10
3.648008220835192
 20
2.972210855006135
 10
3.647379771630628
 20
2.972112944980887
 10
3.646906260313849
 20
2.972282750466114
  0
LWPOLYLINE
  5
494
330
1E
100
AcDbEntity
  8
OPTION-RB-SJ
100
AcDbPolyline
 90
        4
 70
     0
 43
0.0
 10
3.649866693500512
 20
2.981531214596039
 10
3.650566007984978
 20
2.981896957539548
 10
3.651177633068543
 20
2.982010054970753
 10
3.651639668867629
 20
2.981857362194839
  0
LWPOLYLINE
  5
495
330
1E
100
AcDbEntity
  8
OPTION-RB-SJ
100
AcDbPolyline
 90
       10
 70
     0
 43
0.0
 10
3.648732878961443
 20
2.97256732502389
 10
3.649271338414132
 20
2.971756896639382
 10
3.649807517234661
 20
2.971027220655438
 10
3.650314092697946
 20
2.970421195671043
 10
3.650760529912616
 20
2.969976022461555
 10
3.651134314865163
 20
2.969699875619287
 10
3.651443896401641
 20
2.969587016222607
 10
3.651676878081913
 20
2.969643244675433
 10
3.651819356606374
 20
2.969841082665453
 10
3.651886847060967
 20
2.970120622393185
  0
LINE
  5
496
330
1E
100
AcDbEntity
  8
OPTION-RB-SJ
100
AcDbLine
 10
3.637467630827238
 20
2.980517311542907
 30
0.0
 11
3.648732878961441
 21
2.97256732502389
 31
0.0
  0
LINE
  5
497
330
1E
100
AcDbEntity
  8
OPTION-RB-SJ
100
AcDbLine
 10
3.651145455997395
 20
2.981183832734609
 30
0.0
 11
3.649866693500512
 21
2.981531214596037
 31
0.0
  0
ARC
  5
498
330
1E
100
AcDbEntity
  8
OPTION-RB-SJ
100
AcDbCircle
 10
3.655295449566167
 20
2.969689751645834
 30
0.0
 40
0.0034360670642135
100
AcDbArc
 50
172.7956303121367
 51
227.9412123793367
  0
ARC
  5
499
330
1E
100
AcDbEntity
  8
OPTION-RB-SJ
100
AcDbCircle
 10
3.64956180191512
 20
2.979120754702247
 30
0.0
 40
0.0034360662910986
100
AcDbArc
 50
352.7911169583369
 51
52.7911169583372
  0
LINE
  5
49A
330
1E
100
AcDbEntity
  8
OPTION-RB-SJ
100
AcDbLine
 10
3.44443861554797
 20
3.044730722387745
 30
0.0
 11
3.144016312369215
 21
3.082730206444516
 31
0.0
  0
LINE
  5
49B
330
1E
100
AcDbEntity
  8
OPTION-RB-SJ
100
AcDbLine
 10
1.7672373905645
 20
2.775418983366236
 30
0.0
 11
3.149668246592974
 21
2.776366384724905
 31
0.0
  0
LINE
  5
49C
330
1E
100
AcDbEntity
  8
OPTION-RB-SJ
100
AcDbLine
 10
1.77426266368196
 20
3.226979748357075
 30
0.0
 11
3.045761694294036
 21
3.066151785072207
 31
0.0
  0
LINE
  5
49D
330
1E
100
AcDbEntity
  8
OPTION-RB-SJ
100
AcDbLine
 10
1.73246605043854
 20
2.984630231718814
 30
0.0
 11
3.014932190573565
 21
2.822415072837179
 31
0.0
  0
INSERT
  5
49E
330
1E
100
AcDbEntity
  8
OPTION-RB-SJ
100
AcDbBlockReference
  2
*T1
 10
1.345524164579912
 20
4.477884670030777
 30
0.0
 41
-0.1718033145549324
 42
0.171803314554931
 43
-0.1718033145549309
 50
52.64065084763483
210
0.0
220
0.0
230
-1.0
  0
CIRCLE
  5
49F
330
1E
100
AcDbEntity
  8
OPTION-RB-SJ
100
AcDbCircle
 10
2.815771913354565
 20
2.927802271918533
 30
0.0
 40
0.0116296643550724
  0
LINE
  5
4A0
330
1E
100
AcDbEntity
  8
OPTION-RB-SJ
100
AcDbLine
 10
3.073037133582051
 20
3.084037493880606
 30
0.0
 11
3.04088954319569
 21
3.059109248668969
 31
0.0
  0
LINE
  5
4A1
330
1E
100
AcDbEntity
  8
OPTION-RB-SJ
100
AcDbLine
 10
3.075178185805713
 20
3.08738316629519
 30
0.0
 11
3.028312856360429
 21
3.051042326739391
 31
0.0
  0
LWPOLYLINE
  5
4A2
330
1E
100
AcDbEntity
  8
OPTION-RB-SJ
100
AcDbPolyline
 90
        4
 70
     0
 43
0.0
 10
3.10945111532458
 20
3.076432172021709
 10
3.109181161405966
 20
3.077965947086138
 10
3.108070124243958
 20
3.079204391430677
 10
3.10641562463934
 20
3.079815552142521
  0
LINE
  5
4A3
330
1E
100
AcDbEntity
  8
OPTION-RB-SJ
100
AcDbLine
 10
3.109970708276292
 20
3.080540051873839
 30
0.0
 11
3.105317411343305
 21
3.043751284429138
 31
0.0
  0
LINE
  5
4A4
330
1E
100
AcDbEntity
  8
OPTION-RB-SJ
100
AcDbLine
 10
3.106993298744296
 20
3.084382619022676
 30
0.0
 11
3.100994725102184
 21
3.036958978038144
 31
0.0
  0
LINE
  5
4A5
330
1E
100
AcDbEntity
  8
OPTION-RB-SJ
100
AcDbLine
 10
3.105964517185053
 20
2.781894333719655
 30
0.0
 11
3.144016312369215
 21
3.082730206444516
 31
0.0
  0
LINE
  5
4A6
330
1E
100
AcDbEntity
  8
OPTION-RB-SJ
100
AcDbLine
 10
3.103731224737642
 20
2.784774398918857
 30
0.0
 11
3.141136247207693
 21
3.080496914004584
 31
0.0
  0
LINE
  5
4A7
330
1E
100
AcDbEntity
  8
OPTION-RB-SJ
100
AcDbLine
 10
3.075694542894563
 20
2.836935987774745
 30
0.0
 11
3.005209183535981
 21
2.845851461961721
 31
0.0
  0
LINE
  5
4A8
330
1E
100
AcDbEntity
  8
OPTION-RB-SJ
100
AcDbLine
 10
3.075340692757453
 20
2.834138463655426
 30
0.0
 11
3.004855333398874
 21
2.843053937842402
 31
0.0
  0
LINE
  5
4A9
330
1E
100
AcDbEntity
  8
OPTION-RB-SJ
100
AcDbLine
 10
3.073883418420023
 20
2.822617314785075
 30
0.0
 11
3.011967009553061
 21
2.830448929026154
 31
0.0
  0
LWPOLYLINE
  5
4AA
330
1E
100
AcDbEntity
  8
OPTION-RB-SJ
100
AcDbPolyline
 90
        3
 70
     0
 43
0.0
 10
3.01234042394765
 20
2.833401127428993
 10
3.077405114531117
 20
2.825172315116205
 10
3.077665737892773
 20
2.825138331359941
  0
LINE
  5
4AB
330
1E
100
AcDbEntity
  8
OPTION-RB-SJ
100
AcDbLine
 10
3.011967009553061
 20
2.830448929026154
 30
0.0
 11
3.036895254754172
 21
2.79830133865337
 31
0.0
  0
LINE
  5
4AC
330
1E
100
AcDbEntity
  8
OPTION-RB-SJ
100
AcDbLine
 10
3.038135837015289
 20
2.794527933783481
 30
0.0
 11
3.001794997459493
 21
2.841393263228765
 31
0.0
  0
LINE
  5
4AD
330
1E
100
AcDbEntity
  8
OPTION-RB-SJ
100
AcDbLine
 10
3.01234042394765
 20
2.833401127428992
 30
0.0
 11
3.009829119854857
 21
2.831455688595385
 31
0.0
  0
LINE
  5
4AE
330
1E
100
AcDbEntity
  8
OPTION-RB-SJ
100
AcDbLine
 10
3.009829119854857
 20
2.831455688595385
 30
0.0
 11
3.009625072468467
 21
2.831295559120595
 31
0.0
  0
LINE
  5
4AF
330
1E
100
AcDbEntity
  8
OPTION-RB-SJ
100
AcDbLine
 10
3.01234042394765
 20
2.833401127428992
 30
0.0
 11
3.011967009553061
 21
2.830448929026154
 31
0.0
  0
LINE
  5
4B0
330
1E
100
AcDbEntity
  8
OPTION-RB-SJ
100
AcDbLine
 10
3.004855318261184
 20
2.843053939757121
 30
0.0
 11
3.005209200881286
 21
2.845851459106528
 31
0.0
  0
LINE
  5
4B1
330
1E
100
AcDbEntity
  8
OPTION-RB-SJ
100
AcDbLine
 10
3.01234042394765
 20
2.833401127428992
 30
0.0
 11
3.004855333398874
 21
2.843053937842402
 31
0.0
  0
LWPOLYLINE
  5
4B2
330
1E
100
AcDbEntity
  8
OPTION-RB-SJ
100
AcDbPolyline
 90
        3
 70
     0
 43
0.0
 10
2.999448729546804
 20
2.842205653883857
 10
3.014973991029093
 20
2.822744492753304
 10
3.015276962822268
 20
2.822371463666256
  0
LWPOLYLINE
  5
4B3
330
1E
100
AcDbEntity
  8
OPTION-RB-SJ
100
AcDbPolyline
 90
        4
 70
     0
 43
0.0
 10
3.009625072468467
 20
2.831295559120595
 10
3.010234811476383
 20
2.830764238066581
 10
3.011041909253922
 20
2.830471690787044
 10
3.011967009553063
 20
2.830448929026154
  0
LWPOLYLINE
  5
4B4
330
1E
100
AcDbEntity
  8
OPTION-RB-SJ
100
AcDbPolyline
 90
        4
 70
     0
 43
0.0
 10
3.001794997255843
 20
2.841393263070846
 10
3.001184501585623
 20
2.84191871786581
 10
3.000377275583302
 20
2.842198306284389
 10
2.999448760481106
 20
2.842205898449119
  0
LWPOLYLINE
  5
4B5
330
1E
100
AcDbEntity
  8
OPTION-RB-SJ
100
AcDbPolyline
 90
       10
 70
     0
 43
0.0
 10
3.004855333398874
 20
2.843053937842402
 10
3.003936512212957
 20
2.843462749043213
 10
3.003016243020574
 20
2.843791584750553
 10
3.0021474954897
 20
2.843986053031805
 10
3.001443032950662
 20
2.843982026138501
 10
3.000996823662196
 20
2.843743641422916
 10
3.00085838442055
 20
2.843282039542994
 10
3.001002347401311
 20
2.842684017261619
 10
3.001337310204186
 20
2.842043944607159
 10
3.001794997459493
 20
2.841393263228765
  0
LWPOLYLINE
  5
4B6
330
1E
100
AcDbEntity
  8
OPTION-RB-SJ
100
AcDbPolyline
 90
       10
 70
     0
 43
0.0
 10
3.005209183535981
 20
2.845851461961721
 10
3.003914964939347
 20
2.845970082581484
 10
3.00257924382501
 20
2.845981111929809
 10
3.00126210599406
 20
2.845837094292223
 10
3.000118661622533
 20
2.845501826314066
 10
2.999282804666862
 20
2.844975801701892
 10
2.998834552199872
 20
2.84429599577917
 10
2.998781684808093
 20
2.843561899094437
 10
2.999018316456934
 20
2.842862213062577
 10
2.999448729546804
 20
2.842205653883857
  0
ARC
  5
4B7
330
1E
100
AcDbEntity
  8
OPTION-RB-SJ
100
AcDbCircle
 10
3.014838934250127
 20
2.818964437515864
 30
0.0
 40
0.0034360389400109
100
AcDbArc
 50
37.77330382563711
 51
82.79111695663733
  0
LINE
  5
4B8
330
1E
100
AcDbEntity
  8
OPTION-RB-SJ
100
AcDbLine
 10
3.07027374582061
 20
2.794079396987598
 30
0.0
 11
3.036895254754172
 21
2.79830133865337
 31
0.0
  0
LINE
  5
4B9
330
1E
100
AcDbEntity
  8
OPTION-RB-SJ
100
AcDbLine
 10
3.040392077652171
 20
2.793218901375634
 30
0.0
 11
3.069696071724796
 21
2.789512330179752
 31
0.0
  0
LINE
  5
4BA
330
1E
100
AcDbEntity
  8
OPTION-RB-SJ
100
AcDbLine
 10
3.040420043108703
 20
2.793225646917548
 30
0.0
 11
3.040425756093543
 21
2.79321465825776
 31
0.0
  0
LINE
  5
4BB
330
1E
100
AcDbEntity
  8
OPTION-RB-SJ
100
AcDbLine
 10
3.036895254754172
 20
2.79830133865337
 30
0.0
 11
3.040420043108703
 21
2.793225646917548
 31
0.0
  0
LWPOLYLINE
  5
4BC
330
1E
100
AcDbEntity
  8
OPTION-RB-SJ
100
AcDbPolyline
 90
        4
 70
     0
 43
0.0
 10
3.034553317680107
 20
2.799147968734233
 10
3.035165830676138
 20
2.798615035240995
 10
3.035971077794367
 20
2.798323931545425
 10
3.036895254754172
 20
2.79830133865337
  0
LWPOLYLINE
  5
4BD
330
1E
100
AcDbEntity
  8
OPTION-RB-SJ
100
AcDbPolyline
 90
        3
 70
     0
 43
0.0
 10
3.040427894661815
 20
2.793214431484239
 10
3.039346512511627
 20
2.793538101831545
 10
3.038144876953983
 20
2.794516315981349
  0
LWPOLYLINE
  5
4BE
330
1E
100
AcDbEntity
  8
OPTION-RB-SJ
100
AcDbPolyline
 90
        4
 70
     0
 43
0.0
 10
3.078189769271584
 20
2.829281301130931
 10
3.078831012909689
 20
2.830682508952198
 10
3.080213849706588
 20
2.831592735502344
 10
3.081967757905712
 20
2.831768078280028
  0
LWPOLYLINE
  5
4BF
330
1E
100
AcDbEntity
  8
OPTION-RB-SJ
100
AcDbPolyline
 90
        4
 70
     0
 43
0.0
 10
3.074056065300835
 20
2.796600413524785
 10
3.073412651424476
 20
2.795182081775587
 10
3.072028226409274
 20
2.794259325655358
 10
3.07027374582061
 20
2.794079396987598
  0
LWPOLYLINE
  5
4C0
330
1E
100
AcDbEntity
  8
OPTION-RB-SJ
100
AcDbPolyline
 90
        5
 70
     0
 43
0.0
 10
3.077665737892773
 20
2.825138331359941
 10
3.077261691392057
 20
2.824038417884839
 10
3.07639028540189
 20
2.823169020632185
 10
3.075203721563191
 20
2.822673772145311
 10
3.073883418420023
 20
2.822617314785075
  0
LINE
  5
4C1
330
1E
100
AcDbEntity
  8
OPTION-RB-SJ
100
AcDbLine
 10
3.079747745493776
 20
2.814216754665167
 30
0.0
 11
3.081967757905712
 21
2.831768078280028
 31
0.0
  0
LINE
  5
4C2
330
1E
100
AcDbEntity
  8
OPTION-RB-SJ
100
AcDbLine
 10
3.078189769271584
 20
2.829281301130931
 30
0.0
 11
3.073536472352171
 21
2.792492533696758
 31
0.0
  0
LINE
  5
4C3
330
1E
100
AcDbEntity
  8
OPTION-RB-SJ
100
AcDbLine
 10
3.075694542894563
 20
2.836935987774745
 30
0.0
 11
3.069696071724796
 21
2.789512330179752
 31
0.0
  0
LINE
  5
4C4
330
1E
100
AcDbEntity
  8
OPTION-RB-SJ
100
AcDbLine
 10
3.078189104089095
 20
2.829276570999567
 30
0.0
 11
3.078188877020114
 21
2.829274688673386
 31
0.0
  0
LWPOLYLINE
  5
4C5
330
1E
100
AcDbEntity
  8
OPTION-RB-SJ
100
AcDbPolyline
 90
        7
 70
     0
 43
0.0
 10
3.078189769271584
 20
2.829281301130931
 10
3.078215695809795
 20
2.83032178539374
 10
3.078015271166562
 20
2.831431709204631
 10
3.077567034785631
 20
2.832491106922688
 10
3.076914284504566
 20
2.833343704027711
 10
3.076145160661539
 20
2.83389503127778
 10
3.075340692757456
 20
2.834138463655426
  0
LWPOLYLINE
  5
4C6
330
1E
100
AcDbEntity
  8
OPTION-RB-SJ
100
AcDbPolyline
 90
        7
 70
     0
 43
0.0
 10
3.081967757905712
 20
2.831768078280028
 10
3.081886312767001
 20
2.83279347581065
 10
3.081347223185637
 20
2.833916691325159
 10
3.080323843272165
 20
2.835021446645763
 10
3.078920115563851
 20
2.835947636918371
 10
3.077322385243743
 20
2.836591740606657
 10
3.075694542894563
 20
2.836935987774745
  0
LINE
  5
4C7
330
1E
100
AcDbEntity
  8
OPTION-RB-SJ
100
AcDbLine
 10
3.079747745484632
 20
2.814216754592852
 30
0.0
 11
3.107018986073907
 21
2.810767300071614
 31
0.0
  0
ARC
  5
4C8
330
1E
100
AcDbEntity
  8
OPTION-RB-SJ
100
AcDbCircle
 10
3.106287903545843
 20
2.78445101252038
 30
0.0
 40
0.002577049718324
100
AcDbArc
 50
172.7911169583365
 51
262.7911169583367
  0
ARC
  5
4C9
330
1E
100
AcDbEntity
  8
OPTION-RB-SJ
100
AcDbCircle
 10
3.079316563670241
 20
2.810807849525222
 30
0.0
 40
0.0034360662910986
100
AcDbArc
 50
82.79111695833741
 51
172.7911029399374
  0
ARC
  5
4CA
330
1E
100
AcDbEntity
  8
OPTION-RB-SJ
100
AcDbCircle
 10
3.070127253539187
 20
2.792921235247387
 30
0.0
 40
0.0034360662910986
100
AcDbArc
 50
262.7911169583367
 51
352.791116958337
  0
LWPOLYLINE
  5
4CB
330
1E
100
AcDbEntity
  8
OPTION-RB-SJ
100
AcDbPolyline
 90
       10
 70
     0
 43
0.0
 10
3.028312856360429
 20
3.051042326739391
 10
3.027700299497918
 20
3.050519157376831
 10
3.027212008635906
 20
3.049973538604577
 10
3.026928964208448
 20
3.049422278895887
 10
3.026966524043311
 20
3.048940513188236
 10
3.02735932788012
 20
3.048607983112528
 10
3.02804605874447
 20
3.048438879409467
 10
3.028926900438328
 20
3.048416645529561
 10
3.029885266603557
 20
3.048506647809956
 10
3.030863318363588
 20
3.048671959720405
  0
LWPOLYLINE
  5
4CC
330
1E
100
AcDbEntity
  8
OPTION-RB-SJ
100
AcDbPolyline
 90
       10
 70
     0
 43
0.0
 10
3.025838204475012
 20
3.05083971926866
 10
3.025251275165981
 20
3.050303499253402
 10
3.024846031549066
 20
3.049672426202858
 10
3.024725714909361
 20
3.048932998627142
 10
3.025016227926297
 20
3.048154497207198
 10
3.025717237701829
 20
3.047441761208373
 10
3.026744223542267
 20
3.046846163400967
 10
3.027968787827414
 20
3.046392034937886
 10
3.029244320206269
 20
3.046078241385576
 10
3.030509468215949
 20
3.045874435614663
  0
LWPOLYLINE
  5
4CD
330
1E
100
AcDbEntity
  8
OPTION-RB-SJ
100
AcDbPolyline
 90
        3
 70
     0
 43
0.0
 10
3.046106467073041
 20
3.066108175834209
 10
3.045719772614416
 20
3.06582204657707
 10
3.025838204475012
 20
3.05083971926866
  0
LWPOLYLINE
  5
4CE
330
1E
100
AcDbEntity
  8
OPTION-RB-SJ
100
AcDbPolyline
 90
        4
 70
     0
 43
0.0
 10
3.028312857592188
 20
3.051042325150909
 10
3.027590734165413
 20
3.050685535530991
 10
3.026739329777348
 20
3.050615829536942
 10
3.025838204613595
 20
3.050839720267477
  0
LINE
  5
4CF
330
1E
100
AcDbEntity
  8
OPTION-RB-SJ
100
AcDbLine
 10
3.030863318363588
 20
3.048671959720405
 30
0.0
 11
3.040516128790572
 21
3.056157050279709
 31
0.0
  0
LWPOLYLINE
  5
4D0
330
1E
100
AcDbEntity
  8
OPTION-RB-SJ
100
AcDbPolyline
 90
        4
 70
     0
 43
0.0
 10
3.038410560482175
 20
3.058872401758893
 10
3.039136478295845
 20
3.059236041344986
 10
3.039988846926906
 20
3.059317478323782
 10
3.04088954319569
 20
3.059109248668969
  0
LINE
  5
4D1
330
1E
100
AcDbEntity
  8
OPTION-RB-SJ
100
AcDbLine
 10
3.040516128790572
 20
3.056157050279709
 30
0.0
 11
3.04088954319569
 21
3.059109248668969
 31
0.0
  0
LINE
  5
4D2
330
1E
100
AcDbEntity
  8
OPTION-RB-SJ
100
AcDbLine
 10
3.030863318363588
 20
3.048671959720405
 30
0.0
 11
3.030509468215949
 21
3.045874435614663
 31
0.0
  0
LINE
  5
4D3
330
1E
100
AcDbEntity
  8
OPTION-RB-SJ
100
AcDbLine
 10
3.040516128790572
 20
3.056157050279709
 30
0.0
 11
3.038410560482175
 21
3.058872401758891
 31
0.0
  0
ARC
  5
4D4
330
1E
100
AcDbEntity
  8
OPTION-RB-SJ
100
AcDbCircle
 10
3.046530545537997
 20
3.069516966551558
 30
0.0
 40
0.0034360389571913
100
AcDbArc
 50
262.7911169603368
 51
307.8089292404367
  0
LWPOLYLINE
  5
4D5
330
1E
100
AcDbEntity
  8
OPTION-RB-SJ
100
AcDbPolyline
 90
        7
 70
     0
 43
0.0
 10
3.10099482757453
 20
3.036958961427689
 10
3.102647322170696
 20
3.036886655782762
 10
3.104339378107592
 20
3.037107196259338
 10
3.105924539649138
 20
3.037646082986404
 10
3.107202172870209
 20
3.038459215185556
 10
3.108017277832243
 20
3.039419284179954
 10
3.108357232858021
 20
3.040402143661783
  0
LWPOLYLINE
  5
4D6
330
1E
100
AcDbEntity
  8
OPTION-RB-SJ
100
AcDbPolyline
 90
        7
 70
     0
 43
0.0
 10
3.101348677722168
 20
3.03975648553343
 10
3.102183506330688
 20
3.039790950695628
 10
3.103057265125253
 20
3.040126748162812
 10
3.103898552813749
 20
3.040780776778946
 10
3.104602156133367
 20
3.041693950726266
 10
3.105079852495916
 20
3.04272648280631
 10
3.105317207553588
 20
3.043749675212495
  0
LINE
  5
4D7
330
1E
100
AcDbEntity
  8
OPTION-RB-SJ
100
AcDbLine
 10
3.108357232858022
 20
3.040402143661783
 30
0.0
 11
3.110577245269957
 21
3.057953467276647
 31
0.0
  0
LWPOLYLINE
  5
4D8
330
1E
100
AcDbEntity
  8
OPTION-RB-SJ
100
AcDbPolyline
 90
        5
 70
     0
 43
0.0
 10
3.10584144273569
 20
3.047894254210655
 10
3.105724854787906
 20
3.049056833383883
 10
3.105107041408519
 20
3.05010806394694
 10
3.104082059064343
 20
3.050887905563875
 10
3.102805952049072
 20
3.05127763441736
  0
LWPOLYLINE
  5
4D9
330
1E
100
AcDbEntity
  8
OPTION-RB-SJ
100
AcDbPolyline
 90
        4
 70
     0
 43
0.0
 10
3.105317132032564
 20
3.043749068271933
 10
3.105589591928676
 20
3.042234506495828
 10
3.106702254504909
 20
3.041008649478952
 10
3.108357232844447
 20
3.040402143651258
  0
LINE
  5
4DA
330
1E
100
AcDbEntity
  8
OPTION-RB-SJ
100
AcDbLine
 10
3.110577245265526
 20
3.057953467338432
 30
0.0
 11
3.1378484858548
 21
3.054504012817194
 31
0.0
  0
LINE
  5
4DB
330
1E
100
AcDbEntity
  8
OPTION-RB-SJ
100
AcDbLine
 10
3.04088954319569
 20
3.059109248668969
 30
0.0
 11
3.102805952049072
 21
3.05127763441736
 31
0.0
  0
LINE
  5
4DC
330
1E
100
AcDbEntity
  8
OPTION-RB-SJ
100
AcDbLine
 10
3.030863318363588
 20
3.048671959720405
 30
0.0
 11
3.101348677722168
 21
3.039756485533429
 31
0.0
  0
LINE
  5
4DD
330
1E
100
AcDbEntity
  8
OPTION-RB-SJ
100
AcDbLine
 10
3.030509468215949
 20
3.045874435614663
 30
0.0
 11
3.10099482757453
 21
3.036958961427687
 31
0.0
  0
LWPOLYLINE
  5
4DE
330
1E
100
AcDbEntity
  8
OPTION-RB-SJ
100
AcDbPolyline
 90
        5
 70
     0
 43
0.0
 10
3.040516128790572
 20
3.056157050279708
 10
3.103741039667591
 20
3.048161992198975
 10
3.104851328003298
 20
3.048016616964465
 10
3.105588002993778
 20
3.047929466621503
 10
3.10584144273569
 20
3.047894254210655
  0
ARC
  5
4DF
330
1E
100
AcDbEntity
  8
OPTION-RB-SJ
100
AcDbCircle
 10
3.111008427093493
 20
3.06136237241659
 30
0.0
 40
0.0034360662910986
100
AcDbArc
 50
172.7911310205367
 51
262.7911169583367
  0
LINE
  5
4E0
330
1E
100
AcDbEntity
  8
OPTION-RB-SJ
100
AcDbLine
 10
3.077564627493265
 20
3.087946155446145
 30
0.0
 11
3.073037133582051
 21
3.084037493880606
 31
0.0
  0
LINE
  5
4E1
330
1E
100
AcDbEntity
  8
OPTION-RB-SJ
100
AcDbLine
 10
3.077722991445207
 20
3.08808492923422
 30
0.0
 11
3.077564627493265
 21
3.087946155446145
 31
0.0
  0
LWPOLYLINE
  5
4E2
330
1E
100
AcDbEntity
  8
OPTION-RB-SJ
100
AcDbPolyline
 90
        3
 70
     0
 43
0.0
 10
3.075189833749057
 20
3.087392167363622
 10
3.076597190745228
 20
3.08804037814848
 10
3.077725106595568
 20
3.088084601253489
  0
LWPOLYLINE
  5
4E3
330
1E
100
AcDbEntity
  8
OPTION-RB-SJ
100
AcDbPolyline
 90
        4
 70
     0
 43
0.0
 10
3.070558150854961
 20
3.083800646960003
 10
3.071284068668629
 20
3.084164286546094
 10
3.072136437313271
 20
3.084245723535421
 10
3.073037133582051
 20
3.084037493880607
  0
LINE
  5
4E4
330
1E
100
AcDbEntity
  8
OPTION-RB-SJ
100
AcDbLine
 10
3.07768930464757
 20
3.088089190221607
 30
0.0
 11
3.106993298744296
 21
3.084382619022676
 31
0.0
  0
LINE
  5
4E5
330
1E
100
AcDbEntity
  8
OPTION-RB-SJ
100
AcDbLine
 10
3.106415624648489
 20
3.079815552214835
 30
0.0
 11
3.073037133582051
 21
3.084037493880606
 31
0.0
  0
ARC
  5
4E6
330
1E
100
AcDbEntity
  8
OPTION-RB-SJ
100
AcDbCircle
 10
3.106562116929908
 20
3.080973713955044
 30
0.0
 40
0.0034360662910986
100
AcDbArc
 50
352.791116958337
 51
82.79111695833741
  0
ARC
  5
4E7
330
1E
100
AcDbEntity
  8
OPTION-RB-SJ
100
AcDbCircle
 10
3.14369292600842
 20
3.08017352764379
 30
0.0
 40
0.002577049718324
100
AcDbArc
 50
82.79111695833741
 51
172.7911169583373
  0
LINE
  5
4E8
330
1E
100
AcDbEntity
  8
OPTION-RB-SJ
100
AcDbLine
 10
3.44419560692434
 20
2.768118876538895
 30
0.0
 11
3.475025106691655
 21
3.011855589273947
 31
0.0
  0
LINE
  5
4E9
330
1E
100
AcDbEntity
  8
OPTION-RB-SJ
100
AcDbLine
 10
3.437853731614318
 20
2.766384992543663
 30
0.0
 11
3.469314682543256
 21
3.015113931182565
 31
0.0
  0
LINE
  5
4EA
330
1E
100
AcDbEntity
  8
OPTION-RB-SJ
100
AcDbLine
 10
3.447864870055685
 20
3.042775717235315
 30
0.0
 11
3.410191945561572
 21
2.744935180056092
 31
0.0
  0
LINE
  5
4EB
330
1E
100
AcDbEntity
  8
OPTION-RB-SJ
100
AcDbLine
 10
3.406386820363809
 20
2.743894849662886
 30
0.0
 11
3.44443861554797
 21
3.044730722387745
 31
0.0
  0
LINE
  5
4EC
330
1E
100
AcDbEntity
  8
OPTION-RB-SJ
100
AcDbLine
 10
3.535589288348044
 20
2.735223079222407
 30
0.0
 11
3.50187289372575
 21
2.760823455669481
 31
0.0
  0
LINE
  5
4ED
330
1E
100
AcDbEntity
  8
OPTION-RB-SJ
100
AcDbLine
 10
3.555290003228544
 20
2.754066891395018
 30
0.0
 11
3.44419560692434
 21
2.768118876538895
 31
0.0
  0
LINE
  5
4EE
330
1E
100
AcDbEntity
  8
OPTION-RB-SJ
100
AcDbLine
 10
3.410834438791528
 20
2.750014704178914
 30
0.0
 11
3.486102077939405
 21
2.750014704178914
 31
0.0
  0
LINE
  5
4EF
330
1E
100
AcDbEntity
  8
OPTION-RB-SJ
100
AcDbLine
 10
3.437853731614318
 20
2.766384992543663
 30
0.0
 11
3.410191945561572
 21
2.744935180056092
 31
0.0
  0
ARC
  5
4F0
330
1E
100
AcDbEntity
  8
OPTION-RB-SJ
100
AcDbCircle
 10
3.407033593098977
 20
2.749008207274865
 30
0.0
 40
0.0051540994366479
100
AcDbArc
 50
262.7911169583367
 51
307.7911169583373
  0
ARC
  5
4F1
330
1E
100
AcDbEntity
  8
OPTION-RB-SJ
100
AcDbCircle
 10
3.443117652385308
 20
2.759596613845706
 30
0.0
 40
0.0085901657277465
100
AcDbArc
 50
82.79111695833741
 51
127.7911169583374
  0
LWPOLYLINE
  5
4F2
330
1E
100
AcDbEntity
  8
OPTION-RB-SJ
100
AcDbPolyline
 90
        3
 70
     0
 43
0.0
 10
3.561050652442725
 20
2.752463603520917
 10
3.548736872492519
 20
2.75405005557717
 10
3.540529342465856
 20
2.755933921517963
  0
LWPOLYLINE
  5
4F3
330
1E
100
AcDbEntity
  8
OPTION-RB-SJ
100
AcDbPolyline
 90
        4
 70
     0
 43
0.0
 10
3.537362263701586
 20
2.735549226810686
 10
3.536660371244511
 20
2.735182548344102
 10
3.53605075480918
 20
2.735070406381778
 10
3.535589288348044
 20
2.735223079222407
  0
LWPOLYLINE
  5
4F4
330
1E
100
AcDbEntity
  8
OPTION-RB-SJ
100
AcDbPolyline
 90
        4
 70
     0
 43
0.0
 10
3.568042409358493
 20
2.731668590475052
 10
3.568630896921191
 20
2.731138695933239
 10
3.56919339186169
 20
2.730878297169937
 10
3.56967833907259
 20
2.730911261072387
  0
LINE
  5
4F5
330
1E
100
AcDbEntity
  8
OPTION-RB-SJ
100
AcDbLine
 10
3.537362263701586
 20
2.735549226810686
 30
0.0
 11
3.504515664860042
 21
2.760489179744563
 31
0.0
  0
LWPOLYLINE
  5
4F6
330
1E
100
AcDbEntity
  8
OPTION-RB-SJ
100
AcDbPolyline
 90
       10
 70
     0
 43
0.0
 10
3.568042409358493
 20
2.731668590475052
 10
3.565973839537283
 20
2.730885227814397
 10
3.563589119290192
 20
2.730183885964098
 10
3.560856026429018
 20
2.729627804881687
 10
3.557743593177705
 20
2.729299832670903
 10
3.554225393595213
 20
2.729308788470232
 10
3.550305251428279
 20
2.729794882424441
 10
3.546071624870723
 20
2.73091264084781
 10
3.541689152483225
 20
2.732797665465579
 10
3.537362263701586
 20
2.735549226810686
  0
ARC
  5
4F7
330
1E
100
AcDbEntity
  8
OPTION-RB-SJ
100
AcDbCircle
 10
3.556367957764526
 20
2.762589154064102
 30
0.0
 40
0.0343606629109862
100
AcDbArc
 50
232.7911169583366
 51
292.7911169583367
  0
LINE
  5
4F8
330
1E
100
AcDbEntity
  8
OPTION-RB-SJ
100
AcDbLine
 10
3.468136224136062
 20
3.016633677070824
 30
0.0
 11
3.513507100023884
 21
3.016633677070824
 31
0.0
  0
LINE
  5
4F9
330
1E
100
AcDbEntity
  8
OPTION-RB-SJ
100
AcDbLine
 10
3.586119503009439
 20
2.997803604140598
 30
0.0
 11
3.475025106691655
 21
3.011855589273947
 31
0.0
  0
ARC
  5
4FA
330
1E
100
AcDbEntity
  8
OPTION-RB-SJ
100
AcDbCircle
 10
3.443791842836913
 20
3.03961736477272
 30
0.0
 40
0.0051540994366479
100
AcDbArc
 50
37.79111695833705
 51
82.79111695833721
  0
ARC
  5
4FB
330
1E
100
AcDbEntity
  8
OPTION-RB-SJ
100
AcDbCircle
 10
3.476103061241214
 20
3.020377851953558
 30
0.0
 40
0.0085901657277465
100
AcDbArc
 50
217.7911169583365
 51
262.7911169583367
  0
LINE
  5
4FC
330
1E
100
AcDbEntity
  8
OPTION-RB-SJ
100
AcDbLine
 10
3.469314682543256
 20
3.015113931182565
 30
0.0
 11
3.447864870055685
 21
3.042775717235315
 31
0.0
  0
LWPOLYLINE
  5
4FD
330
1E
100
AcDbEntity
  8
OPTION-RB-SJ
100
AcDbPolyline
 90
       10
 70
     0
 43
0.0
 10
3.573367096876438
 20
3.020201905036453
 10
3.578242431866087
 20
3.021789362421934
 10
3.58295602310402
 20
3.022523873611422
 10
3.587334585887859
 20
3.022552386746706
 10
3.591252425424483
 20
3.022047154181187
 10
3.594662321970492
 20
3.021179809145737
 10
3.597595404236689
 20
3.020087085778916
 10
3.60010421298165
 20
3.01886785947765
 10
3.602239212957656
 20
3.017594789996074
 10
3.604047242533352
 20
3.016321268700824
  0
ARC
  5
4FE
330
1E
100
AcDbEntity
  8
OPTION-RB-SJ
100
AcDbCircle
 10
3.585041548470411
 20
2.989281341447407
 30
0.0
 40
0.0343606629109862
100
AcDbArc
 50
52.7911169583372
 51
112.7911169583373
  0
LINE
  5
4FF
330
1E
100
AcDbEntity
  8
OPTION-RB-SJ
100
AcDbLine
 10
3.535345164640927
 20
3.004225892490138
 30
0.0
 11
3.573367096876438
 21
3.020201905036453
 31
0.0
  0
LINE
  5
500
330
1E
100
AcDbEntity
  8
OPTION-RB-SJ
100
AcDbLine
 10
3.532702393506647
 20
3.004560168415059
 30
0.0
 11
3.571731167138241
 21
3.02095923444217
 31
0.0
  0
LWPOLYLINE
  5
501
330
1E
100
AcDbEntity
  8
OPTION-RB-SJ
100
AcDbPolyline
 90
        4
 70
     0
 43
0.0
 10
3.573367096876438
 20
3.020201905036453
 10
3.572778618621428
 20
3.020731792425351
 10
3.572216122495064
 20
3.020992196334656
 10
3.571731167138239
 20
3.02095923444217
  0
LINE
  5
502
330
1E
100
AcDbEntity
  8
OPTION-RB-SJ
100
AcDbLine
 10
3.57129547140077
 20
2.99967864984503
 30
0.0
 11
3.580292377433595
 21
2.999412133091839
 31
0.0
  0
LWPOLYLINE
  5
503
330
1E
100
AcDbEntity
  8
OPTION-RB-SJ
100
AcDbPolyline
 90
        4
 70
     0
 43
0.0
 10
3.604047242533352
 20
3.016321268700824
 10
3.604749134993476
 20
3.016687947191512
 10
3.605358751415229
 20
3.016800089143309
 10
3.605820217900469
 20
3.016647416299623
  0
LINE
  5
504
330
1E
100
AcDbEntity
  8
OPTION-RB-SJ
100
AcDbLine
 10
3.406386820363809
 20
2.743894849662886
 30
0.0
 11
3.105964517185053
 21
2.781894333719655
 31
0.0
  0
LINE
  5
505
330
1E
100
AcDbEntity
  8
OPTION-RB-SJ
100
AcDbLine
 10
1.08725264256078
 20
2.774952979246521
 30
0.0
 11
1.7672373905645
 21
2.77517765667671
 31
0.0
  0
LINE
  5
506
330
1E
100
AcDbEntity
  8
OPTION-RB-SJ
100
AcDbLine
 10
1.087577664458473
 20
2.97851981536306
 30
0.0
 11
1.599361827175202
 21
2.978656115683397
 31
0.0
  0
LWPOLYLINE
  5
507
330
1E
100
AcDbEntity
  8
OPTION-RB-SJ
100
AcDbPolyline
 90
       26
 70
     0
 43
0.0
 10
1.087008715770146
 20
2.876698767498167
 10
1.082563234329606
 20
2.877089268446603
 10
1.078185938880494
 20
2.878275908594785
 10
1.073945862154421
 20
2.880239973882886
 10
1.069909872869038
 20
2.882950489744077
 10
1.066141621133567
 20
2.88636470963222
 10
1.062700534686891
 20
2.890428789098207
 10
1.059640881651084
 20
2.89507863502933
 10
1.057010914730024
 20
2.900240916402227
 10
1.054852110141261
 20
2.905834220736696
 10
1.053198513627509
 20
2.911770338074456
 10
1.052076203445088
 20
2.917955652032905
 10
1.051502879173364
 20
2.924292616301066
 10
1.05148758247555
 20
2.930681292903324
 10
1.052030554590431
 20
2.937020928320361
 10
1.053123232510068
 20
2.943211542478119
 10
1.054748383996819
 20
2.949155505455966
 10
1.056880379386529
 20
2.954759077148237
 10
1.059485595762096
 20
2.959933885666956
 10
1.06252294718483
 20
2.964598320999069
 10
1.06594453267897
 20
2.968678821995613
 10
1.069696391687564
 20
2.972111036582997
 10
1.073719354974647
 20
2.974840836527091
 10
1.077949977869509
 20
2.976825171169325
 10
1.082321540740808
 20
2.978032746258046
 10
1.087577664458471
 20
2.97851981536306
  0
LWPOLYLINE
  5
508
330
1E
100
AcDbEntity
  8
OPTION-RB-SJ
100
AcDbPolyline
 90
       29
 70
     0
 43
0.0
 10
1.08725264256078
 20
2.774952979246519
 10
1.079363552879183
 20
2.776188501000467
 10
1.071716584114123
 20
2.77996755007989
 10
1.064982082871793
 20
2.785959041580152
 10
1.059242406520622
 20
2.794089751348325
 10
1.054999862411216
 20
2.803647318218521
 10
1.05230645930435
 20
2.814514851360554
 10
1.051398508850547
 20
2.825740315513279
 10
1.052252662995786
 20
2.836969896905435
 10
1.054893963804037
 20
2.847850314871106
 10
1.059090664956508
 20
2.857427995631409
 10
1.064791317615193
 20
2.865586113396464
 10
1.071497033681115
 20
2.871609804062265
 10
1.079125807580241
 20
2.875425449752643
 10
1.08700888677469
 20
2.876698757438072
 10
1.094897559267683
 20
2.875463234669119
 10
1.102544528048276
 20
2.871684185589735
 10
1.109279029290564
 20
2.865692694105007
 10
1.115019122799347
 20
2.857561985320698
 10
1.1192616666589
 20
2.848004522743776
 10
1.121954652858047
 20
2.837136884309069
 10
1.122862603061992
 20
2.825911524449622
 10
1.122008449166609
 20
2.814681838764188
 10
1.119367565266077
 20
2.803801526091195
 10
1.115170864363463
 20
2.794223741037615
 10
1.109469794547165
 20
2.786065622288694
 10
1.102764078481284
 20
2.78004193160736
 10
1.095135304566625
 20
2.776226285916942
 10
1.08725264256078
 20
2.774952979246519
  0
ARC
  5
509
330
1E
100
AcDbEntity
  8
OPTION-RB-SJ
100
AcDbCircle
 10
1.660013459502933
 20
3.117612655128242
 30
0.0
 40
0.1142492041790291
100
AcDbArc
 50
179.9999999999991
 51
359.9999999999996
  0
ARC
  5
50A
330
1E
100
AcDbEntity
  8
OPTION-RB-SJ
100
AcDbCircle
 10
1.660013459502933
 20
3.117612655128242
 30
0.0
 40
0.1516164250947265
100
AcDbArc
 50
138.8980550269984
 51
40.8939614353996
  0
ARC
  5
50B
330
1E
100
AcDbEntity
  8
OPTION-RB-SJ
100
AcDbCircle
 10
1.660013459502933
 20
3.117612655128242
 30
0.0
 40
0.150106822733936
100
AcDbArc
 50
139.5629750600571
 51
40.23037778769977
  0
ARC
  5
50C
330
1E
100
AcDbEntity
  8
OPTION-RB-SJ
100
AcDbCircle
 10
1.660013459502933
 20
3.117612655128242
 30
0.0
 40
0.1192812067625154
100
AcDbArc
 50
163.2982969753234
 51
16.51342197939964
  0
LWPOLYLINE
  5
50D
330
1E
100
AcDbEntity
  8
OPTION-RB-SJ
100
AcDbPolyline
 90
        8
 70
     0
 43
0.0
 10
1.776355057538453
 20
3.001271057109903
 10
1.770293725117784
 20
2.996613355432625
 10
1.76378051860855
 20
2.992710924886527
 10
1.756638209525489
 20
2.989348067698712
 10
1.748636987278072
 20
2.986223559485639
 10
1.739727017651953
 20
2.983320840005555
 10
1.730011304001498
 20
2.980779265713129
 10
1.720190126756035
 20
2.978937018547812
  0
LINE
  5
50E
330
1E
100
AcDbEntity
  8
OPTION-RB-SJ
100
AcDbLine
 10
1.72073909809823
 20
2.978688441343537
 30
0.0
 11
1.779318251149222
 21
2.978704042368164
 31
0.0
  0
LWPOLYLINE
  5
50F
330
1E
100
AcDbEntity
  8
OPTION-RB-SJ
100
AcDbPolyline
 90
        8
 70
     0
 43
0.0
 10
1.798691802260452
 20
3.057440319156961
 10
1.796835279906189
 20
3.04756396298195
 10
1.794294419731419
 20
3.037862394121722
 10
1.791392778093791
 20
3.028961799098087
 10
1.788266392517179
 20
3.020960638390617
 10
1.784901695796917
 20
3.013819873269584
 10
1.781001424045365
 20
3.007316040881782
 10
1.776355057555632
 20
3.001271057092724
  0
LINE
  5
510
330
1E
100
AcDbEntity
  8
OPTION-RB-SJ
100
AcDbLine
 10
1.774262663681962
 20
3.117612655128242
 30
0.0
 11
1.545764255323903
 21
3.117612655128242
 31
0.0
  0
LINE
  5
511
330
1E
100
AcDbEntity
  8
OPTION-RB-SJ
100
AcDbLine
 10
2.404562688164349
 20
2.984257033492855
 30
0.0
 11
2.445812542635402
 21
3.048514421220041
 31
0.0
  0
LINE
  5
512
330
1E
100
AcDbEntity
  8
OPTION-RB-SJ
100
AcDbLine
 10
2.429905248956126
 20
3.014393374154986
 30
0.0
 11
2.456018744373495
 21
3.006358330719686
 31
0.0
  0
LINE
  5
513
330
1E
100
AcDbEntity
  8
OPTION-RB-SJ
100
AcDbLine
 10
2.429905248956126
 20
3.014393374154986
 30
0.0
 11
2.481282950250865
 21
2.980468813715939
 31
0.0
  0
LINE
  5
514
330
1E
100
AcDbEntity
  8
OPTION-RB-SJ
100
AcDbLine
 10
2.423553657398133
 20
3.05150073769543
 30
0.0
 11
2.445812578481341
 21
3.048514688335171
 31
0.0
  0
LINE
  5
515
330
1E
100
AcDbEntity
  8
OPTION-RB-SJ
100
AcDbLine
 10
2.424367976702789
 20
3.067706246735914
 30
0.0
 11
2.447158839656569
 21
3.061929696809958
 31
0.0
  0
LINE
  5
516
330
1E
100
AcDbEntity
  8
OPTION-RB-SJ
100
AcDbLine
 10
2.469287402831546
 20
3.044459054030268
 30
0.0
 11
2.424367887675912
 21
3.06770625867893
 31
0.0
  0
LINE
  5
517
330
1E
100
AcDbEntity
  8
OPTION-RB-SJ
100
AcDbLine
 10
2.203618367633517
 20
3.065596744897963
 30
0.0
 11
2.217203925193881
 21
3.086433644101273
 31
0.0
  0
LWPOLYLINE
  5
518
330
1E
100
AcDbEntity
  8
OPTION-RB-SJ
100
AcDbPolyline
 90
       94
 70
     0
 43
0.0
 10
2.216741147133111
 20
3.063836224486367
 10
2.217236486397951
 20
3.063879587414351
 10
2.217732104635575
 20
3.063934849230507
 10
2.218227547406414
 20
3.064002033452752
 10
2.218722360294968
 20
3.064081163595774
 10
2.219216088855203
 20
3.064172263129334
 10
2.219708278685282
 20
3.064275355578544
 10
2.22019847534562
 20
3.064390464461331
 10
2.220686224403851
 20
3.064517613257862
 10
2.221171071454898
 20
3.064656825469187
 10
2.221652562059174
 20
3.064808124613222
 10
2.222130241773889
 20
3.064971534183804
 10
2.222552575118944
 20
3.065127468206114
 10
2.222971195363858
 20
3.065293065557209
 10
2.223385780382749
 20
3.065468342889346
 10
2.223796008036093
 20
3.065653316844361
 10
2.224201556204488
 20
3.065848004122669
 10
2.224602102769246
 20
3.066052421338786
 10
2.224997325597305
 20
3.066266585182711
 10
2.225386902566021
 20
3.06649051233078
 10
2.225770511543064
 20
3.066724219387088
 10
2.22614783041225
 20
3.066967723076134
 10
2.226518537030828
 20
3.067221040015665
 10
2.226882309286572
 20
3.067484186868368
 10
2.227238825032764
 20
3.067757180313806
 10
2.227587762191699
 20
3.068040036997778
 10
2.227928798578906
 20
3.068332773592658
 10
2.228261612092608
 20
3.068635406747466
 10
2.228533000289125
 20
3.068895727128074
 10
2.228798096502949
 20
3.069162867460681
 10
2.229056568655447
 20
3.069436733567943
 10
2.229308084564455
 20
3.069717231323172
 10
2.229552312137684
 20
3.070004266538605
 10
2.229788919224248
 20
3.070297745046573
 10
2.230017573676501
 20
3.070597572703512
 10
2.230237943381293
 20
3.07090365534896
 10
2.23044969619817
 20
3.071215898801609
 10
2.230652499993137
 20
3.071534208928314
 10
2.23084602262574
 20
3.071858491547752
 10
2.231029931996483
 20
3.072188652509902
 10
2.23120389594083
 20
3.072524597636681
 10
2.23136758233522
 20
3.072866232781279
 10
2.231520659028757
 20
3.073213463776051
 10
2.231662793921962
 20
3.073566196470958
 10
2.231793654863956
 20
3.073924336698341
 10
2.231912909717505
 20
3.074287790300981
 10
2.232020226355817
 20
3.074656463107988
 10
2.232115272665732
 20
3.075030260958897
 10
2.232197716461883
 20
3.075409089702951
 10
2.232267225665614
 20
3.075792855162795
 10
2.23231111436189
 20
3.076086975762185
 10
2.232347316687036
 20
3.076383442411232
 10
2.232375772015328
 20
3.076681817623605
 10
2.232396419737963
 20
3.076981663947453
 10
2.232409199194697
 20
3.077282543913316
 10
2.232414049776716
 20
3.077584020069352
 10
2.232410910868726
 20
3.077885654915558
 10
2.232399721803318
 20
3.078187011020212
 10
2.232380422002932
 20
3.078487650890499
 10
2.232352950796938
 20
3.078787137070614
 10
2.232317247573271
 20
3.079085032084641
 10
2.232273251709445
 20
3.079380898470304
 10
2.23222090257256
 20
3.079674298778996
 10
2.232160139512816
 20
3.079964795527606
 10
2.232090901942235
 20
3.080251951236967
 10
2.232013129203834
 20
3.080535328461705
 10
2.231926760685562
 20
3.080814489725897
 10
2.231831735751266
 20
3.081088997556854
 10
2.231727993768044
 20
3.081358414505961
 10
2.231615474123839
 20
3.081622303097292
 10
2.231494116168861
 20
3.081880225847742
 10
2.231363859283852
 20
3.082131745319111
 10
2.23122464285353
 20
3.0823764240114
 10
2.231076406220903
 20
3.082613824479228
 10
2.230919088777143
 20
3.082843509270757
 10
2.230752629906968
 20
3.083065040885978
 10
2.230576968953378
 20
3.083277981879517
 10
2.230392045314752
 20
3.083481894761789
 10
2.230224622919972
 20
3.083650607475847
 10
2.230050189817129
 20
3.083811959482892
 10
2.229868706831329
 20
3.083965667898221
 10
2.229680134759653
 20
3.084111449902177
 10
2.22948443438948
 20
3.084249022602877
 10
2.229281566525072
 20
3.084378103142929
 10
2.229071491957036
 20
3.084498408654512
 10
2.228854171503293
 20
3.084609656290671
 10
2.228629565937569
 20
3.084711563149088
 10
2.228397636070587
 20
3.084803846420534
 10
2.228158342713809
 20
3.084886223209887
 10
2.227911646633757
 20
3.084958410652559
 10
2.227657508648363
 20
3.085020125901586
 10
2.227395889558651
 20
3.08507108607551
 10
2.227126750144811
 20
3.085111008320163
 10
2.22685005122153
 20
3.085139609764508
  0
LWPOLYLINE
  5
519
330
1E
100
AcDbEntity
  8
OPTION-RB-SJ
100
AcDbPolyline
 90
       92
 70
     0
 43
0.0
 10
2.215027285949443
 20
3.044125778699394
 10
2.216225433445217
 20
3.04407769005796
 10
2.217426539044699
 20
3.044061488722231
 10
2.218629433582861
 20
3.044077392540103
 10
2.21983294786019
 20
3.044125619376353
 10
2.221035912660257
 20
3.044206387061265
 10
2.222237158807626
 20
3.04431991345638
 10
2.223435517099535
 20
3.044466416402402
 10
2.224495406280687
 20
3.044624186590523
 10
2.225551285009405
 20
3.044808240294397
 10
2.226602336653399
 20
3.045018729622471
 10
2.227647744569228
 20
3.045255806782742
 10
2.228686692127839
 20
3.045519623907738
 10
2.229718362682551
 20
3.04581033318138
 10
2.230741939566571
 20
3.046128086728991
 10
2.231756606160546
 20
3.046473036755349
 10
2.232761545821764
 20
3.046845335382554
 10
2.233755941879461
 20
3.047245134797746
 10
2.234738977728674
 20
3.047672587130232
 10
2.235709836712293
 20
3.048127844577576
 10
2.236667702166761
 20
3.048611059289196
 10
2.237561192771045
 20
3.049093965687848
 10
2.238441778258791
 20
3.049601564049867
 10
2.239308913108808
 20
3.050133389445848
 10
2.240162051796697
 20
3.050688976922309
 10
2.241000648787611
 20
3.051267861539402
 10
2.241824158570798
 20
3.051869578354061
 10
2.242632035608194
 20
3.05249366240238
 10
2.243423734378615
 20
3.053139648754939
 10
2.244198709371297
 20
3.053807072468678
 10
2.244956415037756
 20
3.054495468593335
 10
2.245696305870469
 20
3.055204372209921
 10
2.246417836341787
 20
3.055933318340869
 10
2.247120460906456
 20
3.056681842059997
 10
2.247803634064136
 20
3.057449478410582
 10
2.248466810283221
 20
3.058235762476876
 10
2.249109444036079
 20
3.059040229281299
 10
2.249730989801514
 20
3.059862413894448
 10
2.250330902044709
 20
3.060701851376478
 10
2.250908635241231
 20
3.061558076773906
 10
2.251463643880336
 20
3.062430625143665
 10
2.251995382427183
 20
3.063319031545919
 10
2.25250330536059
 20
3.064222831051255
 10
2.252986867152924
 20
3.065141558682105
 10
2.253445522286221
 20
3.066074749533136
 10
2.253831831638506
 20
3.066915977342
 10
2.254197321176059
 20
3.067767419342498
 10
2.254541283639341
 20
3.068628228185756
 10
2.254863011737552
 20
3.069497556563884
 10
2.255161798194274
 20
3.070374557093495
 10
2.255436935742771
 20
3.07125838246346
 10
2.255687717109878
 20
3.072148185314478
 10
2.255913435011955
 20
3.073043118300919
 10
2.256113382168635
 20
3.073942334101214
 10
2.256286851317153
 20
3.074844985342421
 10
2.256433135187546
 20
3.075750224689322
 10
2.256551526499442
 20
3.07665720482036
 10
2.256641317965994
 20
3.077565078365813
 10
2.256701802320468
 20
3.078472998014548
 10
2.256732272300117
 20
3.079380116393613
 10
2.256732020610887
 20
3.080285586171026
 10
2.256700339993254
 20
3.08118855999792
 10
2.256636523153183
 20
3.082088190542302
 10
2.256539862844792
 20
3.082983630465735
 10
2.256409651757154
 20
3.083874032401729
 10
2.256245182647629
 20
3.084758549035919
 10
2.256045748218952
 20
3.085636333012237
 10
2.255831079370892
 20
3.086436800203456
 10
2.255586865989066
 20
3.087229864419999
 10
2.255313729293367
 20
3.088014532528875
 10
2.255012290455533
 20
3.088789811403563
 10
2.254683170733193
 20
3.089554707918271
 10
2.254326991287648
 20
3.090308228960134
 10
2.253944373376547
 20
3.091049381403363
 10
2.253535938171614
 20
3.091777172121426
 10
2.253102306892746
 20
3.09249060798135
 10
2.252644100763068
 20
3.09318869587422
 10
2.252161940967973
 20
3.093870442683938
 10
2.251656448751428
 20
3.094534855274298
 10
2.251128245274756
 20
3.095180940532424
 10
2.250577951781923
 20
3.095807705322101
 10
2.250022972110392
 20
3.096396962056727
 10
2.24944831295609
 20
3.096966150215003
 10
2.248854543328024
 20
3.097514360115628
 10
2.248242232203903
 20
3.098040682118281
 10
2.247611948616801
 20
3.098544206538447
 10
2.246964261544421
 20
3.099024023735797
 10
2.246299740009423
 20
3.09947922403947
 10
2.245618953010371
 20
3.099908897781833
 10
2.244922469535395
 20
3.100312135308906
 10
2.244210858610383
 20
3.100688026973909
 10
2.243484689230655
 20
3.101035663085125
  0
LINE
  5
51A
330
1E
100
AcDbEntity
  8
OPTION-RB-SJ
100
AcDbLine
 10
2.197109733839037
 20
3.012087078648082
 30
0.0
 11
2.220282428135714
 21
3.008978445991472
 31
0.0
  0
LINE
  5
51B
330
1E
100
AcDbEntity
  8
OPTION-RB-SJ
100
AcDbLine
 10
2.191815655930347
 20
3.047494146125051
 30
0.0
 11
2.197109644812166
 21
3.012087090591096
 31
0.0
  0
LINE
  5
51C
330
1E
100
AcDbEntity
  8
OPTION-RB-SJ
100
AcDbLine
 10
2.171013107673336
 20
3.015587958748055
 30
0.0
 11
2.191815655930347
 21
3.047494146125051
 31
0.0
  0
LINE
  5
51D
330
1E
100
AcDbEntity
  8
OPTION-RB-SJ
100
AcDbLine
 10
2.302171752247827
 20
2.997992937620997
 30
0.0
 11
2.324430673320605
 21
2.995006888274392
 31
0.0
  0
LINE
  5
51E
330
1E
100
AcDbEntity
  8
OPTION-RB-SJ
100
AcDbLine
 10
2.302171752247827
 20
2.997992937620997
 30
0.0
 11
2.343421529614172
 21
3.062250426345384
 31
0.0
  0
LINE
  5
51F
330
1E
100
AcDbEntity
  8
OPTION-RB-SJ
100
AcDbLine
 10
2.203618444727798
 20
3.065596643914417
 30
0.0
 11
2.216741147133111
 21
3.063836224486367
 31
0.0
  0
LINE
  5
520
330
1E
100
AcDbEntity
  8
OPTION-RB-SJ
100
AcDbLine
 10
2.284213078632753
 20
3.070193370843531
 30
0.0
 11
2.314930300681433
 21
3.066072634671971
 31
0.0
  0
LINE
  5
521
330
1E
100
AcDbEntity
  8
OPTION-RB-SJ
100
AcDbLine
 10
2.289781132789304
 20
3.047585522473809
 30
0.0
 11
2.283199755748974
 21
3.027729264480269
 31
0.0
  0
LINE
  5
522
330
1E
100
AcDbEntity
  8
OPTION-RB-SJ
100
AcDbLine
 10
2.271834795837885
 20
3.029253881560538
 30
0.0
 11
2.289781043748776
 21
3.047585534406403
 31
0.0
  0
LINE
  5
523
330
1E
100
AcDbEntity
  8
OPTION-RB-SJ
100
AcDbLine
 10
2.215027285949443
 20
3.044125778699392
 30
0.0
 11
2.220282428135714
 21
3.008978445991472
 31
0.0
  0
LINE
  5
524
330
1E
100
AcDbEntity
  8
OPTION-RB-SJ
100
AcDbLine
 10
2.278022408892225
 20
3.01210896791605
 30
0.0
 11
2.274570856249099
 21
3.001695525910294
 31
0.0
  0
LINE
  5
525
330
1E
100
AcDbEntity
  8
OPTION-RB-SJ
100
AcDbLine
 10
2.248305329390186
 20
3.005219064152818
 30
0.0
 11
2.257717108798783
 21
3.014832937683248
 31
0.0
  0
LINE
  5
526
330
1E
100
AcDbEntity
  8
OPTION-RB-SJ
100
AcDbLine
 10
2.271834807784137
 20
3.029253970611494
 30
0.0
 11
2.283199767705647
 21
3.027729353517568
 31
0.0
  0
LINE
  5
527
330
1E
100
AcDbEntity
  8
OPTION-RB-SJ
100
AcDbLine
 10
2.278022343740957
 20
3.012109157926468
 30
0.0
 11
2.257717132688049
 21
3.014833115761078
 31
0.0
  0
LINE
  5
528
330
1E
100
AcDbEntity
  8
OPTION-RB-SJ
100
AcDbLine
 10
2.296829789251236
 20
2.998709565580137
 30
0.0
 11
2.274570868192115
 21
3.001695614937167
 31
0.0
  0
LINE
  5
529
330
1E
100
AcDbEntity
  8
OPTION-RB-SJ
100
AcDbLine
 10
2.248305252295899
 20
3.005219165136365
 30
0.0
 11
2.223820439128453
 21
3.008503819429419
 31
0.0
  0
LINE
  5
52A
330
1E
100
AcDbEntity
  8
OPTION-RB-SJ
100
AcDbLine
 10
2.314930365819049
 20
3.066072444651126
 30
0.0
 11
2.296829765361978
 21
2.998709387502309
 31
0.0
  0
LINE
  5
52B
330
1E
100
AcDbEntity
  8
OPTION-RB-SJ
100
AcDbLine
 10
2.223820516222736
 20
3.008503718445876
 30
0.0
 11
2.284212953773601
 21
3.070193115681844
 31
0.0
  0
LINE
  5
52C
330
1E
100
AcDbEntity
  8
OPTION-RB-SJ
100
AcDbLine
 10
2.37903590430676
 20
3.057472824466479
 30
0.0
 11
2.401294825389966
 21
3.054486775106216
 31
0.0
  0
LINE
  5
52D
330
1E
100
AcDbEntity
  8
OPTION-RB-SJ
100
AcDbLine
 10
2.343421719648673
 20
3.062250491493418
 30
0.0
 11
2.365680640707796
 21
3.059264442136388
 31
0.0
  0
LINE
  5
52E
330
1E
100
AcDbEntity
  8
OPTION-RB-SJ
100
AcDbLine
 10
2.382303868088775
 20
2.987243159944171
 30
0.0
 11
2.404562789158318
 21
2.984257110573487
 31
0.0
  0
LINE
  5
52F
330
1E
100
AcDbEntity
  8
OPTION-RB-SJ
100
AcDbLine
 10
2.401294647312139
 20
3.054486798995478
 30
0.0
 11
2.403732276492419
 21
3.020623636365591
 31
0.0
  0
LINE
  5
530
330
1E
100
AcDbEntity
  8
OPTION-RB-SJ
100
AcDbLine
 10
2.403732276492419
 20
3.020623636365591
 30
0.0
 11
2.423553633508875
 21
3.051500559617601
 31
0.0
  0
LINE
  5
531
330
1E
100
AcDbEntity
  8
OPTION-RB-SJ
100
AcDbLine
 10
2.381473456403186
 20
3.023609762806479
 30
0.0
 11
2.382303856156178
 21
2.987243070903643
 31
0.0
  0
LINE
  5
532
330
1E
100
AcDbEntity
  8
OPTION-RB-SJ
100
AcDbLine
 10
2.360044846035677
 20
2.990229132220573
 30
0.0
 11
2.381473355433294
 21
3.02360968572262
 31
0.0
  0
LINE
  5
533
330
1E
100
AcDbEntity
  8
OPTION-RB-SJ
100
AcDbLine
 10
2.337786025956869
 20
2.99321525864781
 30
0.0
 11
2.360044947029649
 21
2.990229209301205
 31
0.0
  0
LINE
  5
534
330
1E
100
AcDbEntity
  8
OPTION-RB-SJ
100
AcDbLine
 10
2.324430673320605
 20
2.995006888274392
 30
0.0
 11
2.365680551680918
 21
3.059264454079407
 31
0.0
  0
LINE
  5
535
330
1E
100
AcDbEntity
  8
OPTION-RB-SJ
100
AcDbLine
 10
2.337785924962899
 20
2.993215181567181
 30
0.0
 11
2.379035803323214
 21
3.057472747372196
 31
0.0
  0
LINE
  5
536
330
1E
100
AcDbEntity
  8
OPTION-RB-SJ
100
AcDbLine
 10
2.203418542278093
 20
3.10641056387338
 30
0.0
 11
2.243484689230655
 21
3.101035663085125
 31
0.0
  0
LINE
  5
537
330
1E
100
AcDbEntity
  8
OPTION-RB-SJ
100
AcDbLine
 10
2.217204014220756
 20
3.086433632158257
 30
0.0
 11
2.226850051221528
 21
3.085139609764508
 31
0.0
  0
LINE
  5
538
330
1E
100
AcDbEntity
  8
OPTION-RB-SJ
100
AcDbLine
 10
2.507713919915127
 20
3.067401802059027
 30
0.0
 11
2.499125342259955
 21
3.091213557835796
 31
0.0
  0
LINE
  5
539
330
1E
100
AcDbEntity
  8
OPTION-RB-SJ
100
AcDbLine
 10
2.499125419340581
 20
3.091213456841826
 30
0.0
 11
2.534298709034325
 21
3.052395674171405
 31
0.0
  0
LINE
  5
53A
330
1E
100
AcDbEntity
  8
OPTION-RB-SJ
100
AcDbLine
 10
2.45228382765777
 20
3.086620727360921
 30
0.0
 11
2.478017088174392
 21
3.048726241202107
 31
0.0
  0
LINE
  5
53B
330
1E
100
AcDbEntity
  8
OPTION-RB-SJ
100
AcDbLine
 10
2.459156983488123
 20
3.070290318397018
 30
0.0
 11
2.452283916684641
 21
3.086620715417907
 31
0.0
  0
LINE
  5
53C
330
1E
100
AcDbEntity
  8
OPTION-RB-SJ
100
AcDbLine
 10
2.535280441964517
 20
3.036492627889007
 30
0.0
 11
2.52081988328809
 21
3.015928842855082
 31
0.0
  0
LINE
  5
53D
330
1E
100
AcDbEntity
  8
OPTION-RB-SJ
100
AcDbLine
 10
2.49898415746434
 20
3.063134715860307
 30
0.0
 11
2.506519512117269
 21
3.058498322676701
 31
0.0
  0
LINE
  5
53E
330
1E
100
AcDbEntity
  8
OPTION-RB-SJ
100
AcDbLine
 10
2.456540086948255
 20
3.06429671638139
 30
0.0
 11
2.454672520776178
 21
3.067266391853008
 31
0.0
  0
LINE
  5
53F
330
1E
100
AcDbEntity
  8
OPTION-RB-SJ
100
AcDbLine
 10
2.505552959400743
 20
3.037781154230794
 30
0.0
 11
2.49844102058362
 21
3.05233092662482
 31
0.0
  0
LINE
  5
540
330
1E
100
AcDbEntity
  8
OPTION-RB-SJ
100
AcDbLine
 10
2.506747379144847
 20
3.046684722664073
 30
0.0
 11
2.49898397938651
 21
3.063134739749568
 31
0.0
  0
LINE
  5
541
330
1E
100
AcDbEntity
  8
OPTION-RB-SJ
100
AcDbLine
 10
2.485943377993772
 20
3.013220481598482
 30
0.0
 11
2.483869517340657
 21
3.018030591737709
 31
0.0
  0
LINE
  5
542
330
1E
100
AcDbEntity
  8
OPTION-RB-SJ
100
AcDbLine
 10
2.504065505624791
 20
3.03344897813251
 30
0.0
 11
2.500688687232887
 21
3.042059310553193
 31
0.0
  0
LINE
  5
543
330
1E
100
AcDbEntity
  8
OPTION-RB-SJ
100
AcDbLine
 10
2.45262042269368
 20
3.06210340180891
 30
0.0
 11
2.451317476901143
 21
3.065903713141318
 31
0.0
  0
LINE
  5
544
330
1E
100
AcDbEntity
  8
OPTION-RB-SJ
100
AcDbLine
 10
2.544804450671662
 20
2.979039206900385
 30
0.0
 11
2.54362093491965
 21
2.983729786025964
 31
0.0
  0
LINE
  5
545
330
1E
100
AcDbEntity
  8
OPTION-RB-SJ
100
AcDbLine
 10
2.551514817472682
 20
2.98176461754244
 30
0.0
 11
2.543338486673917
 21
2.988292667400202
 31
0.0
  0
LINE
  5
546
330
1E
100
AcDbEntity
  8
OPTION-RB-SJ
100
AcDbLine
 10
2.500688687232887
 20
3.042059310553193
 30
0.0
 11
2.505553060397947
 21
3.037781231335506
 31
0.0
  0
LINE
  5
547
330
1E
100
AcDbEntity
  8
OPTION-RB-SJ
100
AcDbLine
 10
2.45601865534662
 20
3.006358342662702
 30
0.0
 11
2.447180354901152
 21
3.01479504717872
 31
0.0
  0
LINE
  5
548
330
1E
100
AcDbEntity
  8
OPTION-RB-SJ
100
AcDbLine
 10
2.47846219732938
 20
3.011504946867951
 30
0.0
 11
2.472055982486496
 21
3.017802534661969
 31
0.0
  0
LINE
  5
549
330
1E
100
AcDbEntity
  8
OPTION-RB-SJ
100
AcDbLine
 10
2.468071062190345
 20
3.008367024368533
 30
0.0
 11
2.459352114691126
 21
3.017694097661262
 31
0.0
  0
LINE
  5
54A
330
1E
100
AcDbEntity
  8
OPTION-RB-SJ
100
AcDbLine
 10
2.493039101227876
 20
3.015440915732417
 30
0.0
 11
2.469287313791012
 21
3.044459065962858
 31
0.0
  0
LINE
  5
54B
330
1E
100
AcDbEntity
  8
OPTION-RB-SJ
100
AcDbLine
 10
2.504569357510377
 20
2.992880509975618
 30
0.0
 11
2.495766644353936
 21
2.982528529728988
 31
0.0
  0
LINE
  5
54C
330
1E
100
AcDbEntity
  8
OPTION-RB-SJ
100
AcDbLine
 10
2.534145346194015
 20
3.004089188746382
 30
0.0
 11
2.525633616764189
 21
3.005116974868355
 31
0.0
  0
LINE
  5
54D
330
1E
100
AcDbEntity
  8
OPTION-RB-SJ
100
AcDbLine
 10
2.543620958808914
 20
2.983729964103792
 30
0.0
 11
2.551514728421725
 21
2.98176462948869
 31
0.0
  0
LINE
  5
54E
330
1E
100
AcDbEntity
  8
OPTION-RB-SJ
100
AcDbLine
 10
2.483869517340657
 20
3.018030591737709
 30
0.0
 11
2.493039190254752
 21
3.015440903789402
 31
0.0
  0
LINE
  5
54F
330
1E
100
AcDbEntity
  8
OPTION-RB-SJ
100
AcDbLine
 10
2.519009005661781
 20
2.997164579751153
 30
0.0
 11
2.524415718797701
 21
2.995555424807712
 31
0.0
  0
LINE
  5
550
330
1E
100
AcDbEntity
  8
OPTION-RB-SJ
100
AcDbLine
 10
2.451317476901143
 20
3.065903713141318
 30
0.0
 11
2.456540175988783
 21
3.064296704448798
 31
0.0
  0
LINE
  5
551
330
1E
100
AcDbEntity
  8
OPTION-RB-SJ
100
AcDbLine
 10
2.447180265860623
 20
3.014795059111309
 30
0.0
 11
2.468071062190345
 21
3.008367024368533
 31
0.0
  0
LINE
  5
552
330
1E
100
AcDbEntity
  8
OPTION-RB-SJ
100
AcDbLine
 10
2.459352114691126
 20
3.017694097661262
 30
0.0
 11
2.47846219732938
 21
3.011504946867951
 31
0.0
  0
LINE
  5
553
330
1E
100
AcDbEntity
  8
OPTION-RB-SJ
100
AcDbLine
 10
2.472055982486496
 20
3.017802534661969
 30
0.0
 11
2.485943455074401
 21
3.01322038060451
 31
0.0
  0
LINE
  5
554
330
1E
100
AcDbEntity
  8
OPTION-RB-SJ
100
AcDbLine
 10
2.454672520776178
 20
3.067266391853008
 30
0.0
 11
2.458559684589197
 21
3.065838546123396
 31
0.0
  0
LINE
  5
555
330
1E
100
AcDbEntity
  8
OPTION-RB-SJ
100
AcDbLine
 10
2.478017254305979
 20
3.04872612826189
 30
0.0
 11
2.504065481735527
 21
3.03344880005468
 31
0.0
  0
LINE
  5
556
330
1E
100
AcDbEntity
  8
OPTION-RB-SJ
100
AcDbLine
 10
2.498441109634575
 20
3.052330914678575
 30
0.0
 11
2.506747468195803
 21
3.046684710717828
 31
0.0
  0
ARC
  5
557
330
1E
100
AcDbEntity
  8
OPTION-RB-SJ
100
AcDbCircle
 10
2.487361998352436
 20
2.989675344732345
 30
0.0
 40
0.0110324539040362
100
AcDbArc
 50
236.5633226578655
 51
319.6241228802656
  0
ARC
  5
558
330
1E
100
AcDbEntity
  8
OPTION-RB-SJ
100
AcDbCircle
 10
2.526460213802984
 20
3.011962533625121
 30
0.0
 40
0.0068952836857275
100
AcDbArc
 50
144.8849175260654
 51
263.1149030813656
  0
ARC
  5
559
330
1E
100
AcDbEntity
  8
OPTION-RB-SJ
100
AcDbCircle
 10
2.532772565310922
 20
2.992720345345675
 30
0.0
 40
0.0114561348683466
100
AcDbArc
 50
337.263747176565
 51
83.11490308136525
  0
ARC
  5
55A
330
1E
100
AcDbEntity
  8
OPTION-RB-SJ
100
AcDbCircle
 10
2.515075165011447
 20
2.983946991215397
 30
0.0
 40
0.0137905673886354
100
AcDbArc
 50
73.42585473396521
 51
139.6241228802652
  0
ARC
  5
55B
330
1E
100
AcDbEntity
  8
OPTION-RB-SJ
100
AcDbCircle
 10
2.516653188694997
 20
2.965130113825303
 30
0.0
 40
0.0313999430275772
100
AcDbArc
 50
26.29324862376514
 51
75.68724158406531
  0
LINE
  5
55C
330
1E
100
AcDbEntity
  8
OPTION-RB-SJ
100
AcDbLine
 10
2.506519423066313
 20
3.058498334622949
 30
0.0
 11
2.500297841093314
 21
3.072928665030199
 31
0.0
  0
LINE
  5
55D
330
1E
100
AcDbEntity
  8
OPTION-RB-SJ
100
AcDbLine
 10
2.500297918198021
 20
3.072928564032997
 30
0.0
 11
2.507713997009412
 21
3.067401701075482
 31
0.0
  0
ARC
  5
55E
330
1E
100
AcDbEntity
  8
OPTION-RB-SJ
100
AcDbCircle
 10
2.524845830510673
 20
3.043830299954795
 30
0.0
 40
0.0127562748383533
100
AcDbArc
 50
324.884917526065
 51
42.18012680566527
  0
LINE
  5
55F
330
1E
100
AcDbEntity
  8
OPTION-RB-SJ
100
AcDbLine
 10
2.458559684589197
 20
3.065838546123396
 30
0.0
 11
2.454824641258257
 21
3.07177788511319
 31
0.0
  0
LINE
  5
560
330
1E
100
AcDbEntity
  8
OPTION-RB-SJ
100
AcDbLine
 10
2.447158738673025
 20
3.061929619715673
 30
0.0
 11
2.442413819440984
 21
3.067098144828438
 31
0.0
  0
LINE
  5
561
330
1E
100
AcDbEntity
  8
OPTION-RB-SJ
100
AcDbLine
 10
2.45482462931201
 20
3.071777796062233
 30
0.0
 11
2.459156971541873
 21
3.070290229346063
 31
0.0
  0
LINE
  5
562
330
1E
100
AcDbEntity
  8
OPTION-RB-SJ
100
AcDbLine
 10
2.442413896521617
 20
3.067098043834469
 30
0.0
 11
2.452620333656379
 21
3.06210341376558
 31
0.0
  0
LINE
  5
563
330
1E
100
AcDbEntity
  8
OPTION-RB-SJ
100
AcDbLine
 10
2.146359304785803
 20
3.018895283126679
 30
0.0
 11
2.203418542278093
 21
3.10641056387338
 31
0.0
  0
LINE
  5
564
330
1E
100
AcDbEntity
  8
OPTION-RB-SJ
100
AcDbLine
 10
2.146359304785803
 20
3.018895283126679
 30
0.0
 11
2.171013107673336
 21
3.015587958748055
 31
0.0
  0
LINE
  5
565
330
1E
100
AcDbEntity
  8
OPTION-RB-SJ
100
AcDbLine
 10
2.649410831854043
 20
2.951410579579464
 30
0.0
 11
2.690660609234043
 21
3.015668068314273
 31
0.0
  0
LINE
  5
566
330
1E
100
AcDbEntity
  8
OPTION-RB-SJ
100
AcDbLine
 10
2.660985559853024
 20
2.949857821980186
 30
0.0
 11
2.681448185976444
 21
2.947112746807102
 31
0.0
  0
LINE
  5
567
330
1E
100
AcDbEntity
  8
OPTION-RB-SJ
100
AcDbLine
 10
2.668401789144813
 20
3.018654194755166
 30
0.0
 11
2.690660710203933
 21
3.015668145398134
 31
0.0
  0
LINE
  5
568
330
1E
100
AcDbEntity
  8
OPTION-RB-SJ
100
AcDbLine
 10
2.5470198839945
 20
2.965146394680733
 30
0.0
 11
2.600441205495076
 21
2.957979888168809
 31
0.0
  0
LINE
  5
569
330
1E
100
AcDbEntity
  8
OPTION-RB-SJ
100
AcDbLine
 10
2.547019794943549
 20
2.965146406626976
 30
0.0
 11
2.604078943408967
 21
3.052661699316695
 31
0.0
  0
LINE
  5
56A
330
1E
100
AcDbEntity
  8
OPTION-RB-SJ
100
AcDbLine
 10
2.604079121486797
 20
3.052661675427435
 30
0.0
 11
2.640579612460476
 21
3.047765109807123
 31
0.0
  0
LINE
  5
56B
330
1E
100
AcDbEntity
  8
OPTION-RB-SJ
100
AcDbLine
 10
2.60563733158197
 20
3.013931487739583
 30
0.0
 11
2.617864314368081
 21
3.032684690507288
 31
0.0
  0
LINE
  5
56C
330
1E
100
AcDbEntity
  8
OPTION-RB-SJ
100
AcDbLine
 10
2.617864504402583
 20
3.03268475565533
 30
0.0
 11
2.6275105413897
 21
3.03139073325115
 31
0.0
  0
LINE
  5
56D
330
1E
100
AcDbEntity
  8
OPTION-RB-SJ
100
AcDbLine
 10
2.627151821743963
 20
2.954396640882743
 30
0.0
 11
2.668401700117934
 21
3.018654206698181
 31
0.0
  0
LINE
  5
56E
330
1E
100
AcDbEntity
  8
OPTION-RB-SJ
100
AcDbLine
 10
2.594769089677627
 20
2.997261868470491
 30
0.0
 11
2.604415126664749
 21
2.995967846066319
 31
0.0
  0
LINE
  5
56F
330
1E
100
AcDbEntity
  8
OPTION-RB-SJ
100
AcDbLine
 10
2.627151999835449
 20
2.954396617003904
 30
0.0
 11
2.649410920894575
 21
2.951410567646878
 31
0.0
  0
LWPOLYLINE
  5
570
330
1E
100
AcDbEntity
  8
OPTION-RB-SJ
100
AcDbPolyline
 90
      102
 70
     0
 43
0.0
 10
2.594604839455377
 20
2.976890441923371
 10
2.594975726609046
 20
2.976827357104385
 10
2.595342580758251
 20
2.976775389236616
 10
2.595705451954534
 20
2.976734414010937
 10
2.596064390276738
 20
2.976704307139089
 10
2.596419445741869
 20
2.976684944328841
 10
2.596770668449639
 20
2.976676201264613
 10
2.597118108420292
 20
2.976677953678255
 10
2.597461815739867
 20
2.976690077243762
 10
2.597801840439042
 20
2.976712447679336
 10
2.598138232593426
 20
2.976744940672618
 10
2.598471042233705
 20
2.97678743194181
 10
2.598800319449145
 20
2.976839797184986
 10
2.599126114280839
 20
2.97690191210669
 10
2.599448476804413
 20
2.976973652394567
 10
2.599767457040117
 20
2.977054893780474
 10
2.600083105073978
 20
2.977145511938397
 10
2.60039547093669
 20
2.977245382586545
 10
2.600704604717512
 20
2.977354381422982
 10
2.601010556443898
 20
2.97747238414183
 10
2.601313376194679
 20
2.977599266454824
 10
2.601657815225982
 20
2.977755998733718
 10
2.601998254453555
 20
2.977924121035316
 10
2.60233477001234
 20
2.978103444363906
 10
2.602667438051663
 20
2.978293779648337
 10
2.602996334699998
 20
2.978494937844743
 10
2.603321536061723
 20
2.978706729912502
 10
2.603643118289402
 20
2.978928966804531
 10
2.603961157508271
 20
2.979161459452889
 10
2.604275729863692
 20
2.979404018848226
 10
2.604586911491336
 20
2.979656455908955
 10
2.604894778498811
 20
2.979918581618523
 10
2.605138697913588
 20
2.980135132921171
 10
2.605380228162913
 20
2.980357569445633
 10
2.605619053036416
 20
2.980585695652303
 10
2.605854856334154
 20
2.980819315987906
 10
2.606087321848977
 20
2.981058234936924
 10
2.606316133370506
 20
2.98130225695974
 10
2.606540974722885
 20
2.98155118649986
 10
2.606761529674876
 20
2.98180482804498
 10
2.606977482050625
 20
2.982062986038609
 10
2.607188515629324
 20
2.98232546495479
 10
2.607394314235104
 20
2.982592069237027
 10
2.607594561623101
 20
2.982862603362589
 10
2.607788941620655
 20
2.983136871799072
 10
2.607977138027835
 20
2.983414678993199
 10
2.608158834623827
 20
2.983695829419025
 10
2.608333715222356
 20
2.983980127533701
 10
2.608501463626685
 20
2.984267377808043
 10
2.608661763612796
 20
2.984557384692021
 10
2.608814298994397
 20
2.984849952642786
 10
2.608958753550679
 20
2.985144886134387
 10
2.609094811109015
 20
2.985441989634413
 10
2.609222155455801
 20
2.985741067579164
 10
2.609340470373452
 20
2.986041924466769
 10
2.609449439672463
 20
2.98634436473031
 10
2.609548747156112
 20
2.986648192840597
 10
2.609638076627676
 20
2.986953213268447
 10
2.609717111863125
 20
2.987259230463827
 10
2.609785536665747
 20
2.987566048897544
 10
2.609843034849249
 20
2.987873473026761
 10
2.609889290192824
 20
2.988181307325531
 10
2.609923986520608
 20
2.988489356237341
 10
2.609946807598144
 20
2.988797424225825
 10
2.609957437242372
 20
2.989105315772214
 10
2.609955559253352
 20
2.989412835323246
 10
2.609940857410278
 20
2.989719787352969
 10
2.609913015537272
 20
2.990025976304876
 10
2.609871717413544
 20
2.990331206653028
 10
2.609816646839146
 20
2.990635282844147
 10
2.609759644779722
 20
2.990889328748952
 10
2.609692900102342
 20
2.991142002878923
 10
2.609616588279186
 20
2.991392883657104
 10
2.60953088476553
 20
2.991641549472033
 10
2.609435965016678
 20
2.991887578712246
 10
2.60933200452563
 20
2.992130549773481
 10
2.609219178750929
 20
2.992370041068349
 10
2.609097663144611
 20
2.992605630961318
 10
2.608967633175622
 20
2.992836897851342
 10
2.608829264326577
 20
2.993063420147812
 10
2.608682732049513
 20
2.99328477621519
 10
2.608528211806184
 20
2.993500544490171
 10
2.608365879096811
 20
2.993710303330756
 10
2.608195909342169
 20
2.99391363114236
 10
2.608018478021635
 20
2.994110106310294
 10
2.607833760617799
 20
2.994299307243958
 10
2.607658881805943
 20
2.994465353994078
 10
2.607478208181321
 20
2.994624663462467
 10
2.60729187331468
 20
2.99477691471035
 10
2.607100010811258
 20
2.994921786782077
 10
2.606902754238565
 20
2.995058958714794
 10
2.606700237174527
 20
2.995188109532008
 10
2.606492593189888
 20
2.995308918294943
 10
2.606279955876233
 20
2.995421064037527
 10
2.60606245880107
 20
2.995524225796893
 10
2.605840235545566
 20
2.995618082620641
 10
2.605613419687636
 20
2.995702313532255
 10
2.605382144822118
 20
2.995776597589738
 10
2.605146544506082
 20
2.995840613843895
 10
2.604906752327892
 20
2.995894041304573
 10
2.604662901858274
 20
2.995936559032996
 10
2.604415126664749
 20
2.995967846066319
  0
LINE
  5
571
330
1E
100
AcDbEntity
  8
OPTION-RB-SJ
100
AcDbLine
 10
2.582541916843367
 20
2.978508600544326
 30
0.0
 11
2.594768899653553
 21
2.9972618033088
 31
0.0
  0
LWPOLYLINE
  5
572
330
1E
100
AcDbEntity
  8
OPTION-RB-SJ
100
AcDbPolyline
 90
       81
 70
     0
 43
0.0
 10
2.600441205495076
 20
2.957979888168809
 10
2.601279414959983
 20
2.957979554480532
 10
2.602112405745898
 20
2.958002232270137
 10
2.602940057933902
 20
2.958047560302095
 10
2.603762251543263
 20
2.958115177336903
 10
2.604578866658287
 20
2.958204722163115
 10
2.605389783298252
 20
2.958315833541233
 10
2.60619488154423
 20
2.958448150235724
 10
2.60699404141872
 20
2.958601311031175
 10
2.607787142975505
 20
2.958774954671197
 10
2.608574066288456
 20
2.958968719958003
 10
2.609354691387273
 20
2.95918224563843
 10
2.610128898332191
 20
2.959415170504268
 10
2.610896567163318
 20
2.959667133288704
 10
2.611657577930473
 20
2.959937772797168
 10
2.612411810714728
 20
2.960226727794131
 10
2.613229838445934
 20
2.960563739429398
 10
2.614039436639335
 20
2.9609218074481
 10
2.614840447761533
 20
2.961300457428679
 10
2.61563271429924
 20
2.961699215008154
 10
2.616416078752827
 20
2.96211760583397
 10
2.617190383554385
 20
2.962555155501457
 10
2.617955471231593
 20
2.963011389678912
 10
2.618711184226967
 20
2.963485833947997
 10
2.619457365051302
 20
2.963978013942513
 10
2.620193856180884
 20
2.964487455313134
 10
2.620920500061469
 20
2.965013683665612
 10
2.621637139214267
 20
2.965556224620076
 10
2.622343616101913
 20
2.966114603816786
 10
2.623039773221551
 20
2.966688346879111
 10
2.623725453008495
 20
2.967276979426449
 10
2.624400497997627
 20
2.967880027089371
 10
2.625064750634697
 20
2.968497015473614
 10
2.625611910015446
 20
2.969023640440495
 10
2.626150285376271
 20
2.969559804140653
 10
2.626678757105408
 20
2.970105619423367
 10
2.627196205618408
 20
2.970661199158762
 10
2.627701511313925
 20
2.971226656182469
 10
2.628193554617928
 20
2.971802103350954
 10
2.628671215905001
 20
2.972387653503069
 10
2.629133375604345
 20
2.972983419519366
 10
2.629578914138704
 20
2.973589514232235
 10
2.630006711861799
 20
2.974206050507843
 10
2.630415649234111
 20
2.974833141185776
 10
2.630804606630224
 20
2.975470899104882
 10
2.631172464468902
 20
2.976119437159365
 10
2.63151810315924
 20
2.976778868171205
 10
2.631840403103136
 20
2.977449305000092
 10
2.632138244712885
 20
2.978130860492077
 10
2.632410508390394
 20
2.978823647506866
 10
2.632656074523894
 20
2.979527778893727
 10
2.632841019655618
 20
2.98012817298304
 10
2.633005959116416
 20
2.980735715056104
 10
2.633150530766122
 20
2.981349462437629
 10
2.63327437239954
 20
2.981968472424286
 10
2.633377121907786
 20
2.982591802299815
 10
2.633458417109746
 20
2.98321850935765
 10
2.633517895851606
 20
2.983847650912075
 10
2.633555195976321
 20
2.984478284253292
 10
2.633569955326854
 20
2.985109466671508
 10
2.63356181173574
 20
2.985740255470579
 10
2.633530403056361
 20
2.986369707927051
 10
2.633475367124483
 20
2.986996881368868
 10
2.633396341793492
 20
2.987620833072577
 10
2.633310932969961
 20
2.988143009893402
 10
2.63320804355409
 20
2.988661671515076
 10
2.633087457344961
 20
2.989176255217079
 10
2.632948958148863
 20
2.989686198241145
 10
2.632792329785732
 20
2.990190937839432
 10
2.632617356051427
 20
2.99068991126734
 10
2.632423820789961
 20
2.991182555773793
 10
2.632211507762702
 20
2.991668308631069
 10
2.631980200824078
 20
2.992146607074447
 10
2.631729683769948
 20
2.992616888359318
 10
2.631459740385757
 20
2.993078589754727
 10
2.631170154512281
 20
2.993531148485526
 10
2.630860709948615
 20
2.993974001831189
 10
2.63053119050427
 20
2.994406587057531
 10
2.630181379995955
 20
2.994828341392631
 10
2.629811062229956
 20
2.99523870207823
 10
2.629420021008582
 20
2.995637106417877
  0
LINE
  5
573
330
1E
100
AcDbEntity
  8
OPTION-RB-SJ
100
AcDbLine
 10
2.582542017837337
 20
2.978508677624951
 30
0.0
 11
2.594604839455377
 21
2.976890441923371
 31
0.0
  0
LWPOLYLINE
  5
574
330
1E
100
AcDbEntity
  8
OPTION-RB-SJ
100
AcDbPolyline
 90
       90
 70
     0
 43
0.0
 10
2.629420021008582
 20
2.995637106417877
 10
2.630210511299468
 20
2.995702499121149
 10
2.630992199557568
 20
2.995792850623351
 10
2.631765004839589
 20
2.995907702458509
 10
2.632528846178162
 20
2.996046596163878
 10
2.633283642626763
 20
2.996209073249412
 10
2.634029313228449
 20
2.996394675238702
 10
2.634765777032729
 20
2.996602943703516
 10
2.635492953089859
 20
2.996833420129723
 10
2.636210760456542
 20
2.997085646051344
 10
2.636919118141332
 20
2.997359163008871
 10
2.637617945238669
 20
2.997653512543521
 10
2.638307160764298
 20
2.997968236158051
 10
2.638986683774928
 20
2.998302875386483
 10
2.639777211128992
 20
2.998723441652508
 10
2.6405539491642
 20
2.99917042967025
 10
2.641316761272482
 20
2.999643081155573
 10
2.642065510811295
 20
3.000140637841212
 10
2.642800061165385
 20
3.000662341480772
 10
2.643520275743578
 20
3.00120743382461
 10
2.644226017903319
 20
3.001775156605466
 10
2.644917151053432
 20
3.002364751573702
 10
2.64559353855137
 20
3.002975460462074
 10
2.646255043802725
 20
3.003606524996849
 10
2.646901530157741
 20
3.004257186948523
 10
2.647532861046103
 20
3.004926688040132
 10
2.648148899814832
 20
3.00561427001808
 10
2.648749509872747
 20
3.006319174632738
 10
2.649334554577296
 20
3.007040643616841
 10
2.6498206946864
 20
3.007668101482034
 10
2.650294527154595
 20
3.008306585848844
 10
2.650755151963075
 20
3.008955639937369
 10
2.651201669117115
 20
3.009614806964464
 10
2.651633178581012
 20
3.010283630115722
 10
2.652048780370481
 20
3.010961652594344
 10
2.652447574463458
 20
3.011648417596349
 10
2.652828660854806
 20
3.012343468352245
 10
2.653191139546574
 20
3.013046348054823
 10
2.653534110506282
 20
3.013756599913742
 10
2.653856673746402
 20
3.014473767108137
 10
2.654157929261791
 20
3.015197392868515
 10
2.654436977019966
 20
3.015927020404552
 10
2.654692917033419
 20
3.016662192895374
 10
2.654924849293746
 20
3.017402453547408
 10
2.655131873771725
 20
3.01814734559441
 10
2.65531309047982
 20
3.018896412215511
 10
2.655467599395987
 20
3.019649196606708
 10
2.655594500515082
 20
3.020405241998529
 10
2.655692893839145
 20
3.021164091583754
 10
2.655761879335713
 20
3.021925288572054
 10
2.655800557030904
 20
3.022688376152972
 10
2.655807941425614
 20
3.023498632908033
 10
2.655782060574015
 20
3.024309826817495
 10
2.65572470141534
 20
3.025121284591666
 10
2.655637650830255
 20
3.025932332960948
 10
2.655522695785306
 20
3.02674229865649
 10
2.65538162316833
 20
3.027550508370968
 10
2.655216219887309
 20
3.028356288855643
 10
2.655028272871047
 20
3.029158966834465
 10
2.654819569045132
 20
3.029957869007303
 10
2.654591895314293
 20
3.030752322101342
 10
2.654347038583277
 20
3.031541652843761
 10
2.654048490168912
 20
3.032434859293093
 10
2.653729250940003
 20
3.033319234281238
 10
2.65338866249885
 20
3.034193487269615
 10
2.653026066485497
 20
3.035056327726826
 10
2.652640804488591
 20
3.035906465103852
 10
2.652232218124104
 20
3.036742608872536
 10
2.651799648994344
 20
3.037563468494287
 10
2.651342438725702
 20
3.038367753427284
 10
2.650859928893174
 20
3.039154173112084
 10
2.650473290240488
 20
3.039742962917729
 10
2.650071163288231
 20
3.040319962751047
 10
2.649653253239048
 20
3.040884594695356
 10
2.649219265250624
 20
3.041436280864518
 10
2.648768904491098
 20
3.041974443358736
 10
2.648301876166316
 20
3.042498504285417
 10
2.647817885406684
 20
3.043007885737569
 10
2.647316637431719
 20
3.043502009833011
 10
2.646797837395888
 20
3.043980298661525
 10
2.646261190491402
 20
3.044442174320089
 10
2.645706401851877
 20
3.044887058925793
 10
2.645133176693599
 20
3.045314374572381
 10
2.644541220184712
 20
3.045723543360054
 10
2.643930237493317
 20
3.046113987389022
 10
2.643299933801221
 20
3.046485128769916
 10
2.64265001426288
 20
3.046836389592511
 10
2.641980184087391
 20
3.047167191988288
 10
2.641290148426
 20
3.047476958022951
 10
2.640579612460476
 20
3.047765109807123
  0
LINE
  5
575
330
1E
100
AcDbEntity
  8
OPTION-RB-SJ
100
AcDbLine
 10
2.605637420608848
 20
3.013931475796566
 30
0.0
 11
2.617700242226885
 21
3.012313240094986
 31
0.0
  0
LWPOLYLINE
  5
576
330
1E
100
AcDbEntity
  8
OPTION-RB-SJ
100
AcDbPolyline
 90
      102
 70
     0
 43
0.0
 10
2.617700242226885
 20
3.012313240094986
 10
2.618048318753789
 20
3.01224442781362
 10
2.618393558368216
 20
3.012187036607983
 10
2.618735957098119
 20
3.012140882639551
 10
2.619075510947335
 20
3.012105782073035
 10
2.619412215909292
 20
3.01208155108679
 10
2.619746067987844
 20
3.012068005845518
 10
2.620077063183601
 20
3.01206496248985
 10
2.620405197493234
 20
3.012072237222222
 10
2.620730466931009
 20
3.01208964619369
 10
2.621052867487116
 20
3.012117005558527
 10
2.621372395192725
 20
3.012154131502285
 10
2.621689046027606
 20
3.01220084019291
 10
2.622002815981946
 20
3.012256947784674
 10
2.622313701083685
 20
3.012322270439058
 10
2.622621697339898
 20
3.012396624344841
 10
2.6229268007167
 20
3.012479825659536
 10
2.623229007266105
 20
3.012571690541388
 10
2.623528312957461
 20
3.012672035171982
 10
2.623824713791373
 20
3.012780675691951
 10
2.624118205788595
 20
3.012897428300499
 10
2.624408784949739
 20
3.01302210913826
 10
2.624755771806058
 20
3.013182966064928
 10
2.625098498674072
 20
3.013354791144934
 10
2.625436958573803
 20
3.013537260709725
 10
2.625771144428938
 20
3.01373005110366
 10
2.626101049211345
 20
3.013932838664652
 10
2.626426665882442
 20
3.014145299744258
 10
2.626747987400438
 20
3.014367110669956
 10
2.627065006740421
 20
3.014597947803734
 10
2.627377716860591
 20
3.014837487473066
 10
2.627686110708717
 20
3.015085406019089
 10
2.62799018128075
 20
3.015341379776485
 10
2.628247135711394
 20
3.015566809333401
 10
2.628500579455723
 20
3.015797797959624
 10
2.628750178898395
 20
3.016034232256451
 10
2.628995600434485
 20
3.016275998811519
 10
2.629236510442188
 20
3.016522984177955
 10
2.629472575333476
 20
3.0167750749779
 10
2.629703461472892
 20
3.017032157754062
 10
2.629928835282818
 20
3.017294119114929
 10
2.630148363134261
 20
3.017560845651365
 10
2.630361711415841
 20
3.017832223902845
 10
2.63056854651868
 20
3.018108140518823
 10
2.630768534841809
 20
3.018388482025121
 10
2.630961342783556
 20
3.01867313503345
 10
2.631146636711688
 20
3.018961986110607
 10
2.63132408303493
 20
3.01925492185464
 10
2.631493348145149
 20
3.019551828829115
 10
2.631654098416568
 20
3.019852593648973
 10
2.631806000251458
 20
3.020157102864121
 10
2.63194872004814
 20
3.020465243086267
 10
2.632081924184807
 20
3.02077690086855
 10
2.632205279046113
 20
3.021091962812258
 10
2.632318451051228
 20
3.021410315501798
 10
2.632421106567911
 20
3.021731845503955
 10
2.632512911980821
 20
3.022056439420019
 10
2.632593533709122
 20
3.022383983834403
 10
2.632662638120588
 20
3.022714365313886
 10
2.632719891610294
 20
3.023047470446106
 10
2.632764960573326
 20
3.023383185818701
 10
2.632797511391105
 20
3.023721398008882
 10
2.632817210472374
 20
3.024061993614711
 10
2.632823561769781
 20
3.024341641484721
 10
2.632821128048261
 20
3.024622326779432
 10
2.632809910326278
 20
3.024903574301331
 10
2.632789909601461
 20
3.025184908880197
 10
2.632761126902717
 20
3.025465855304849
 10
2.632723563217231
 20
3.025745938418724
 10
2.632677219611657
 20
3.026024683017848
 10
2.63262209707319
 20
3.026301613945655
 10
2.632558196617069
 20
3.026576255980547
 10
2.632485519264998
 20
3.026848133949068
 10
2.632404066038689
 20
3.027116772677779
 10
2.632313837956624
 20
3.027381696969156
 10
2.632214836016411
 20
3.027642431652989
 10
2.632107061260619
 20
3.027898501528511
 10
2.631990514697293
 20
3.028149431411867
 10
2.631865197324063
 20
3.028394746132832
 10
2.631731110169819
 20
3.028633970480232
 10
2.631588254269929
 20
3.028866629291046
 10
2.631436630632448
 20
3.029092247381406
 10
2.631276240262184
 20
3.029310349543356
 10
2.631107084170432
 20
3.029520460617112
 10
2.630929163399738
 20
3.029722105401917
 10
2.630775767324069
 20
3.029881765983226
 10
2.63061640596552
 20
3.03003507276778
 10
2.630451079927027
 20
3.030181758886543
 10
2.630279789749706
 20
3.030321557466502
 10
2.630102536002738
 20
3.030454201569604
 10
2.629919319289053
 20
3.030579424326802
 10
2.62973014013289
 20
3.03069695883059
 10
2.629534999147621
 20
3.030806538198264
 10
2.629333896881554
 20
3.030907895519066
 10
2.629126833910324
 20
3.031000763903126
 10
2.628913810809559
 20
3.031084876460541
 10
2.628694828154888
 20
3.031159966301407
 10
2.628469886494622
 20
3.031225766514991
 10
2.628238986418057
 20
3.031282010221817
 10
2.628002128497589
 20
3.031328430507917
 10
2.627759313295185
 20
3.031364760472962
 10
2.6275105413897
 20
3.03139073325115
  0
LINE
  5
577
330
1E
100
AcDbEntity
  8
OPTION-RB-SJ
100
AcDbLine
 10
2.68144808500656
 20
2.947112669723242
 30
0.0
 11
2.698256990000333
 21
2.970186534591256
 31
0.0
  0
LINE
  5
578
330
1E
100
AcDbEntity
  8
OPTION-RB-SJ
100
AcDbLine
 10
2.660985381775193
 20
2.949857845869448
 30
0.0
 11
2.707090394176461
 21
3.013146677843023
 31
0.0
  0
LINE
  5
579
330
1E
100
AcDbEntity
  8
OPTION-RB-SJ
100
AcDbLine
 10
2.775838211178064
 20
3.004241525871439
 30
0.0
 11
2.805516742906577
 21
3.000260130710813
 31
0.0
  0
LINE
  5
57A
330
1E
100
AcDbEntity
  8
OPTION-RB-SJ
100
AcDbLine
 10
2.789623505056545
 20
2.984264618056005
 30
0.0
 11
2.794414515234102
 21
2.983621900791217
 31
0.0
  0
LWPOLYLINE
  5
57B
330
1E
100
AcDbEntity
  8
OPTION-RB-SJ
100
AcDbPolyline
 90
       95
 70
     0
 43
0.0
 10
2.776449629311871
 20
2.952495840041487
 10
2.777033626715468
 20
2.952468303763064
 10
2.777609810932567
 20
2.952460003285906
 10
2.778178348193245
 20
2.952470506432542
 10
2.778739404768535
 20
2.952499381056751
 10
2.779293146943128
 20
2.952546195022753
 10
2.779839740971179
 20
2.952610516149823
 10
2.780379353137386
 20
2.952691912302187
 10
2.780912149685464
 20
2.952789951312777
 10
2.781438296876035
 20
2.952904201049044
 10
2.781957961014648
 20
2.953034229347892
 10
2.782471308345027
 20
2.953179604042253
 10
2.782978505114122
 20
2.953339892989161
 10
2.783479717630717
 20
2.953514664049585
 10
2.783975112124875
 20
2.953703485046052
 10
2.78463436356099
 20
2.953979651726308
 10
2.785283741428594
 20
2.954279531254375
 10
2.785923653691799
 20
2.954602063291874
 10
2.786554508311456
 20
2.954946187476361
 10
2.78717671323802
 20
2.955310843459042
 10
2.787790676456438
 20
2.95569497087423
 10
2.788396805917139
 20
2.956097509373144
 10
2.788995509581017
 20
2.956517398593325
 10
2.789587195398486
 20
2.956953578185975
 10
2.790172271357748
 20
2.957404987809505
 10
2.790751145381926
 20
2.957870567094262
 10
2.791324225469622
 20
2.958349255684998
 10
2.791891919560858
 20
2.958839993246565
 10
2.792454635637348
 20
2.959341719389213
 10
2.793012781642341
 20
2.959853373801879
 10
2.793566765533483
 20
2.960373896098028
 10
2.794116995298942
 20
2.960902225936068
 10
2.79466387887551
 20
2.961437302956774
 10
2.795207824224059
 20
2.9619780667977
 10
2.795609751512641
 20
2.962382720322697
 10
2.796009008602429
 20
2.962790314163035
 10
2.796404319920236
 20
2.963201238729599
 10
2.796794409862341
 20
2.963615884388341
 10
2.797178002841892
 20
2.96403464153972
 10
2.797553823255169
 20
2.964457900549687
 10
2.79792059549125
 20
2.964886051821926
 10
2.798277043960062
 20
2.965319485732818
 10
2.798621893085191
 20
2.965758592669166
 10
2.798953867242063
 20
2.96620376302423
 10
2.799271690840603
 20
2.966655387174384
 10
2.799574088304404
 20
2.967113855506436
 10
2.799859784008884
 20
2.967579558413646
 10
2.800127502377614
 20
2.968052886282817
 10
2.800375967796458
 20
2.968534229493553
 10
2.800603904675344
 20
2.969023978422237
 10
2.800810037427429
 20
2.969522523469324
 10
2.800993090452217
 20
2.970030255024841
 10
2.801151788135555
 20
2.970547563468402
 10
2.801284854897796
 20
2.971074839162726
 10
2.801391015131257
 20
2.971612472535582
 10
2.801448986808587
 20
2.971997043141167
 10
2.801493104184659
 20
2.972386235356417
 10
2.80152346553529
 20
2.972779349562893
 10
2.801540169101829
 20
2.973175686159011
 10
2.801543313156138
 20
2.973574545588146
 10
2.801532995957186
 20
2.973975228197346
 10
2.801509315752748
 20
2.974377034433199
 10
2.801472370805029
 20
2.974779264666835
 10
2.801422259358581
 20
2.97518121932077
 10
2.8013590797029
 20
2.97558219878697
 10
2.80128293005524
 20
2.975981503467108
 10
2.801193908705088
 20
2.97637843375316
 10
2.801092113897016
 20
2.976772290067634
 10
2.800977643896445
 20
2.977162372805739
 10
2.800850596944692
 20
2.97754798236591
 10
2.800711071320837
 20
2.977928419153776
 10
2.800559165266215
 20
2.978302983567772
 10
2.800394977035807
 20
2.97867097601676
 10
2.80021860490546
 20
2.979031696882284
 10
2.800030147109305
 20
2.979384446600521
 10
2.799829701933611
 20
2.979728525539359
 10
2.799617367622944
 20
2.980063234121317
 10
2.799393242418633
 20
2.980387872744833
 10
2.799157424586093
 20
2.980701741805106
 10
2.798910012393972
 20
2.981004141721419
 10
2.798651104104456
 20
2.981294372864903
 10
2.79838079793802
 20
2.981571735661301
 10
2.798099192208236
 20
2.98183553049936
 10
2.797839246490329
 20
2.982058241739162
 10
2.797570504570419
 20
2.982269168213658
 10
2.797293035638063
 20
2.982467817343357
 10
2.797006908893223
 20
2.982653696535104
 10
2.796712193498122
 20
2.982826313188557
 10
2.796408958652744
 20
2.982985174710565
 10
2.796097273519312
 20
2.983129788500782
 10
2.795777207301027
 20
2.983259661990134
 10
2.795448829180974
 20
2.98337430255097
 10
2.795112208348685
 20
2.983473217603794
 10
2.794767413966411
 20
2.98355591454826
 10
2.794414515234102
 20
2.983621900791217
  0
LWPOLYLINE
  5
57C
330
1E
100
AcDbEntity
  8
OPTION-RB-SJ
100
AcDbPolyline
 90
       97
 70
     0
 43
0.0
 10
2.778512574040303
 20
2.934091493302865
 10
2.77930508373672
 20
2.933956539843094
 10
2.780090814711919
 20
2.933861227826852
 10
2.780869813005278
 20
2.933804113466536
 10
2.781642124697156
 20
2.933783753005814
 10
2.782407795861442
 20
2.933798702640196
 10
2.783166872554394
 20
2.933847518616573
 10
2.783919400846676
 20
2.933928757106382
 10
2.784665426808223
 20
2.934040974366942
 10
2.78540499651614
 20
2.934182726617835
 10
2.786138156020243
 20
2.934352570057809
 10
2.786864951387219
 20
2.934549060920099
 10
2.787948689404295
 20
2.934892451917464
 10
2.789018226551971
 20
2.935288175272132
 10
2.790073720662864
 20
2.935731284476743
 10
2.791115329572823
 20
2.936216833048028
 10
2.792143211124866
 20
2.936739874464985
 10
2.793157523127534
 20
2.937295462223492
 10
2.794158423427091
 20
2.937878649826625
 10
2.795146069845722
 20
2.938484490780691
 10
2.796120620236896
 20
2.939108038551021
 10
2.797475074356848
 20
2.940011679375345
 10
2.798804568324215
 20
2.940941262253993
 10
2.800109949596038
 20
2.94189727637802
 10
2.801392065728904
 20
2.942880210949644
 10
2.802651764203951
 20
2.943890555156681
 10
2.803889892515957
 20
2.944928798197388
 10
2.805107298180552
 20
2.945995429242703
 10
2.806304828695749
 20
2.947090937514952
 10
2.807483331601258
 20
2.948215812181848
 10
2.808643654357354
 20
2.949370542458526
 10
2.80949589142533
 20
2.950249832565802
 10
2.810336995824119
 20
2.951145684118964
 10
2.811165441842439
 20
2.952057839308107
 10
2.811979703768262
 20
2.952986040409232
 10
2.812778255869451
 20
2.953930029639741
 10
2.813559572427521
 20
2.954889549227477
 10
2.814322127723998
 20
2.955864341400273
 10
2.815064396057274
 20
2.956854148420463
 10
2.815784851705644
 20
2.957858712491814
 10
2.816481968929765
 20
2.958877775869458
 10
2.817154222032011
 20
2.959911080753933
 10
2.8178000852867
 20
2.960958369410803
 10
2.818418032985782
 20
2.962019384054244
 10
2.819006539389911
 20
2.963093866939408
 10
2.819564078815115
 20
2.964181560277241
 10
2.820089125508412
 20
2.965282206312469
 10
2.820580153761738
 20
2.966395547259265
 10
2.821035637873494
 20
2.967521325379973
 10
2.821454052125198
 20
2.968659282902427
 10
2.821833870771053
 20
2.969809162033616
 10
2.822173568119893
 20
2.970970705022221
 10
2.822471618442812
 20
2.972143654109734
 10
2.822726496024545
 20
2.973327751548067
 10
2.82293667514015
 20
2.974522739516903
 10
2.823065512524512
 20
2.975437912476037
 10
2.82316654140691
 20
2.976357920109153
 10
2.823238655697836
 20
2.977281454875402
 10
2.823280749229069
 20
2.978207209195449
 10
2.823291715876595
 20
2.979133875545349
 10
2.82327044951712
 20
2.98006014631523
 10
2.823215844012975
 20
2.980984713970704
 10
2.823126793220019
 20
2.981906270929224
 10
2.823002191024658
 20
2.982823509653165
 10
2.822840931306835
 20
2.983735122556753
 10
2.822641907877482
 20
2.984639802087974
 10
2.822404014657507
 20
2.985536240692329
 10
2.822126145492358
 20
2.986423130800911
 10
2.821807194265196
 20
2.987299164852029
 10
2.821511095667544
 20
2.988016172129754
 10
2.821186852782235
 20
2.988723734677105
 10
2.82083531454658
 20
2.989420767024588
 10
2.820457329897927
 20
2.990106183702703
 10
2.820053747759941
 20
2.990778899231512
 10
2.819625417045881
 20
2.991437828144754
 10
2.819173186703487
 20
2.992081884959263
 10
2.818697905638823
 20
2.992709984246515
 10
2.818200422820483
 20
2.993321040496027
 10
2.817681587127224
 20
2.993913968258423
 10
2.817142247520445
 20
2.99448768206097
 10
2.816583252899743
 20
2.995041096426964
 10
2.816005452226531
 20
2.995573125883678
 10
2.815409694403624
 20
2.9960826849785
 10
2.814796828368363
 20
2.99656868824192
 10
2.81416770304119
 20
2.997030050169932
 10
2.813523167376305
 20
2.997465685327544
 10
2.81286407027331
 20
2.997874508238057
 10
2.812191260655891
 20
2.998255433421546
 10
2.811505587475021
 20
2.998607375418924
 10
2.81080789964394
 20
2.998929248763936
 10
2.810099046096766
 20
2.999219967962979
 10
2.809357323025398
 20
2.999485967681001
 10
2.808605561325204
 20
2.999716498461882
 10
2.807844691725154
 20
2.999910370219428
 10
2.807075644957459
 20
3.000066392891527
 10
2.806299351778415
 20
3.000183376412836
 10
2.805516742906577
 20
3.000260130710813
  0
LINE
  5
57D
330
1E
100
AcDbEntity
  8
OPTION-RB-SJ
100
AcDbLine
 10
2.69825700194658
 20
2.970186623642215
 30
0.0
 11
2.703108253038154
 21
2.944207034119992
 31
0.0
  0
LINE
  5
57E
330
1E
100
AcDbEntity
  8
OPTION-RB-SJ
100
AcDbLine
 10
2.703108253038154
 20
2.944207034119992
 30
0.0
 11
2.722341652522624
 21
2.941626860534238
 31
0.0
  0
LINE
  5
57F
330
1E
100
AcDbEntity
  8
OPTION-RB-SJ
100
AcDbLine
 10
2.717526002957857
 20
2.967415775532142
 30
0.0
 11
2.722341652522624
 21
2.941626860534238
 31
0.0
  0
LINE
  5
580
330
1E
100
AcDbEntity
  8
OPTION-RB-SJ
100
AcDbLine
 10
2.707793832749325
 20
2.983277816615949
 30
0.0
 11
2.718771175706123
 21
2.998346634783391
 31
0.0
  0
LWPOLYLINE
  5
581
330
1E
100
AcDbEntity
  8
OPTION-RB-SJ
100
AcDbPolyline
 90
       99
 70
     0
 43
0.0
 10
2.718685758029619
 20
2.98181674808127
 10
2.71901319999604
 20
2.981809836617534
 10
2.719340114430127
 20
2.981811180188088
 10
2.719666342280746
 20
2.981820709696826
 10
2.719991724435703
 20
2.981838355957778
 10
2.720316101819802
 20
2.981864049878062
 10
2.720639315361789
 20
2.981897722302988
 10
2.720961205935091
 20
2.981939304122054
 10
2.721281614482115
 20
2.981988726190985
 10
2.721600381897123
 20
2.98204591937198
 10
2.721917349088026
 20
2.982110814537648
 10
2.722232357010916
 20
2.982183342554144
 10
2.722545246525525
 20
2.98226343430055
 10
2.722855858574272
 20
2.982351020632588
 10
2.723164034065088
 20
2.982446032422878
 10
2.723469613902644
 20
2.98254840051995
 10
2.723772439011734
 20
2.982658055830929
 10
2.724072350293828
 20
2.982774929180271
 10
2.724369188673711
 20
2.982898951475091
 10
2.724662795042414
 20
2.983030053553504
 10
2.724953010345599
 20
2.983168166295321
 10
2.725239675453425
 20
2.983313220565953
 10
2.725522631321976
 20
2.983465147231568
 10
2.725801718835087
 20
2.983623877168001
 10
2.726077488895747
 20
2.98378978028878
 10
2.726349050229956
 20
2.983962382951784
 10
2.726616242482406
 20
2.984141615475916
 10
2.726878905321873
 20
2.984327408176856
 10
2.72713687843401
 20
2.984519691404788
 10
2.727390001473954
 20
2.984718395464961
 10
2.727638114113698
 20
2.984923450697136
 10
2.727881056008354
 20
2.985134787406567
 10
2.72811866685726
 20
2.985352335953855
 10
2.728350786291444
 20
2.985576026647494
 10
2.728577253993328
 20
2.98580578981358
 10
2.728797909634922
 20
2.986041555791871
 10
2.729012592895438
 20
2.986283254884389
 10
2.729221143422786
 20
2.986530817434124
 10
2.729423400888979
 20
2.986784173780836
 10
2.729619204973214
 20
2.987043254226547
 10
2.729808395333849
 20
2.98730798910058
 10
2.729990811642873
 20
2.98757830874271
 10
2.730128740843271
 20
2.987793780929784
 10
2.730262017700715
 20
2.988012507018321
 10
2.730390240222793
 20
2.988234360400978
 10
2.73051300645735
 20
2.988459214587567
 10
2.730629914422399
 20
2.988686942957073
 10
2.730740562162533
 20
2.988917418995251
 10
2.730844547678163
 20
2.989150516132474
 10
2.730941469010658
 20
2.989386107830398
 10
2.731030924208574
 20
2.989624067512952
 10
2.731112511299627
 20
2.989864268631366
 10
2.731185828273785
 20
2.99010658462968
 10
2.731250473196509
 20
2.990350888966315
 10
2.73130604409228
 20
2.990597055068434
 10
2.731352138988801
 20
2.990844956387261
 10
2.731388355900142
 20
2.991094466363612
 10
2.731414292864434
 20
2.991345458435059
 10
2.73142954791261
 20
2.991597806076923
 10
2.731433719090021
 20
2.991851382689038
 10
2.731428628902635
 20
2.992060338682668
 10
2.731415890935125
 20
2.992269704858722
 10
2.731395598140838
 20
2.992479148420251
 10
2.731367843473082
 20
2.992688336570308
 10
2.731332719864359
 20
2.992896936539253
 10
2.731290320292067
 20
2.99310461552691
 10
2.73124073766138
 20
2.993311040742788
 10
2.731184064973794
 20
2.993515879383485
 10
2.731120395148121
 20
2.993718798668933
 10
2.731049821137704
 20
2.993919465802184
 10
2.730972435885434
 20
2.994117547999948
 10
2.730888332368734
 20
2.994312712462047
 10
2.730797603492774
 20
2.994504626397995
 10
2.730700342262271
 20
2.994692957028458
 10
2.730596641568734
 20
2.994877371552529
 10
2.730486594403236
 20
2.995057537180453
 10
2.730370293705449
 20
2.995233121104858
 10
2.730247832421511
 20
2.995403790566529
 10
2.730119303491092
 20
2.995569212758095
 10
2.729984799881187
 20
2.995729054893034
 10
2.729844414531467
 20
2.995882984163973
 10
2.729698240408905
 20
2.996030667784387
 10
2.729560639429756
 20
2.996159019697548
 10
2.72941841606514
 20
2.996281703873005
 10
2.729271639803129
 20
2.996398471534075
 10
2.729120380128557
 20
2.996509073879995
 10
2.728964706533459
 20
2.996613262072255
 10
2.728804688509139
 20
2.996710787358257
 10
2.728640395544393
 20
2.996801400875414
 10
2.728471897130519
 20
2.996884853871122
 10
2.72829926277321
 20
2.996960897517306
 10
2.7281225619573
 20
2.997029283013196
 10
2.727941864153978
 20
2.997089761547613
 10
2.727757238875386
 20
2.997142084340625
 10
2.727568755627215
 20
2.997186002564165
 10
2.727376483859802
 20
2.997221267434351
 10
2.727180493092478
 20
2.997247630133529
 10
2.726980852820517
 20
2.997264841847284
 10
2.726777632521568
 20
2.997272653812576
  0
LWPOLYLINE
  5
582
330
1E
100
AcDbEntity
  8
OPTION-RB-SJ
100
AcDbPolyline
 90
       92
 70
     0
 43
0.0
 10
2.717526002957857
 20
2.967415775532142
 10
2.718510229173034
 20
2.967372831076476
 10
2.719497937983569
 20
2.967349063315218
 10
2.720488110543124
 20
2.967345368304014
 10
2.721479727967614
 20
2.967362642091311
 10
2.72247177139381
 20
2.967401780698244
 10
2.723463221968173
 20
2.967463680218202
 10
2.724453060824245
 20
2.967549236648233
 10
2.72531616900336
 20
2.967644102665014
 10
2.726176586752288
 20
2.967758327260396
 10
2.727033633618904
 20
2.96789250890426
 10
2.727886629089292
 20
2.968047246062523
 10
2.728734892708104
 20
2.968223137180986
 10
2.729577743992682
 20
2.968420780684599
 10
2.730414502456404
 20
2.968640775060128
 10
2.731244487630269
 20
2.968883718742954
 10
2.732136418178096
 20
2.969173523874609
 10
2.733019566155037
 20
2.969489739536701
 10
2.733893917948726
 20
2.969831073548203
 10
2.734759459981307
 20
2.97019623371119
 10
2.735616178619572
 20
2.970583927871938
 10
2.736464060309739
 20
2.970992863829289
 10
2.737303091391275
 20
2.971421749408674
 10
2.738022610656294
 20
2.97180869598079
 10
2.738734252540265
 20
2.972210336319379
 10
2.739436792689961
 20
2.972627360869799
 10
2.740129006717622
 20
2.973060460094295
 10
2.740809670249144
 20
2.973510324465536
 10
2.741477558917638
 20
2.973977644418452
 10
2.742131448324911
 20
2.974463110428954
 10
2.74277011413138
 20
2.974967412952816
 10
2.743392331911554
 20
2.975491242445089
 10
2.743996877339502
 20
2.976035289371985
 10
2.744537910847646
 20
2.976555474860175
 10
2.745062545172987
 20
2.977092884738866
 10
2.745570460134347
 20
2.977646953248209
 10
2.746061335513542
 20
2.978217114535263
 10
2.746534851139816
 20
2.978802802826518
 10
2.74699068678456
 20
2.979403452282678
 10
2.747428522263361
 20
2.98001849711982
 10
2.747848037374926
 20
2.980647371519504
 10
2.748248911931608
 20
2.981289509673707
 10
2.748630825708028
 20
2.981944345767232
 10
2.748993458540632
 20
2.982611313988829
 10
2.749336490193612
 20
2.983289848536943
 10
2.749659600492983
 20
2.983979383613991
 10
2.749962469234212
 20
2.984679353377455
 10
2.750244776222468
 20
2.98538919205705
 10
2.750473802138054
 20
2.986015729447327
 10
2.750686045611546
 20
2.986648602575316
 10
2.750880602744593
 20
2.987287073108795
 10
2.751056569693476
 20
2.98793040275723
 10
2.75121304257027
 20
2.988577853174724
 10
2.751349117555326
 20
2.989228686067523
 10
2.751463890739882
 20
2.989882163117039
 10
2.751556458273741
 20
2.990537545984585
 10
2.751625916302766
 20
2.991194096393277
 10
2.751671360949451
 20
2.991851075983577
 10
2.751691888345995
 20
2.99250774646817
 10
2.751686594655864
 20
2.9931633695188
 10
2.751654575983944
 20
2.993817206827309
 10
2.751594928469629
 20
2.994468520068652
 10
2.751506748265961
 20
2.995116570928221
 10
2.751396896259262
 20
2.995723970962194
 10
2.751261572415844
 20
2.996327154335018
 10
2.751101476805241
 20
2.99692546140519
 10
2.750917309469652
 20
2.997518232510346
 10
2.75070977044808
 20
2.998104807964049
 10
2.75047955977554
 20
2.998684528141682
 10
2.750227377507903
 20
2.999256733391309
 10
2.749953923694587
 20
2.999820764012833
 10
2.749659898356956
 20
3.000375960371211
 10
2.749346001574958
 20
3.000921662811276
 10
2.749012933353077
 20
3.001457211663483
 10
2.748661393760852
 20
3.001981947286317
 10
2.748292082850908
 20
3.002495210003772
 10
2.747905700641383
 20
3.002996340156713
 10
2.74750294720182
 20
3.003484678103633
 10
2.747084522547114
 20
3.003959564161329
 10
2.746651126760451
 20
3.004420338698716
 10
2.746203459856733
 20
3.004866342032586
 10
2.745727697321843
 20
3.005310023760639
 10
2.745238275524919
 20
3.005736578940336
 10
2.744735961748838
 20
3.006145284577701
 10
2.744221523259612
 20
3.006535417644254
 10
2.743695727319289
 20
3.006906255173328
 10
2.743159341204295
 20
3.007257074122792
 10
2.742613132173441
 20
3.007587151501899
 10
2.742057867495963
 20
3.007895764306248
 10
2.741494314444334
 20
3.008182189555521
 10
2.740923240281326
 20
3.008445704197159
 10
2.740345412293061
 20
3.008685585261261
  0
LINE
  5
583
330
1E
100
AcDbEntity
  8
OPTION-RB-SJ
100
AcDbLine
 10
2.70709058421096
 20
3.013146742991061
 30
0.0
 11
2.740345412293061
 21
3.008685585261261
 31
0.0
  0
LINE
  5
584
330
1E
100
AcDbEntity
  8
OPTION-RB-SJ
100
AcDbLine
 10
2.718771276689672
 20
2.998346711877678
 30
0.0
 11
2.726777632521568
 21
2.997272653812576
 31
0.0
  0
LINE
  5
585
330
1E
100
AcDbEntity
  8
OPTION-RB-SJ
100
AcDbLine
 10
2.707793844692344
 20
2.983277905642827
 30
0.0
 11
2.718685758029617
 21
2.981816748081268
 31
0.0
  0
LINE
  5
586
330
1E
100
AcDbEntity
  8
OPTION-RB-SJ
100
AcDbLine
 10
2.769516776727592
 20
2.953425886917822
 30
0.0
 11
2.789623416029672
 21
2.984264629999023
 31
0.0
  0
LINE
  5
587
330
1E
100
AcDbEntity
  8
OPTION-RB-SJ
100
AcDbLine
 10
2.769516954805419
 20
2.953425863028561
 30
0.0
 11
2.776449629311871
 21
2.952495840041487
 31
0.0
  0
LINE
  5
588
330
1E
100
AcDbEntity
  8
OPTION-RB-SJ
100
AcDbLine
 10
2.733994731897977
 20
2.940063592020162
 30
0.0
 11
2.778512574040303
 21
2.934091493302865
 31
0.0
  0
LINE
  5
589
330
1E
100
AcDbEntity
  8
OPTION-RB-SJ
100
AcDbLine
 10
2.733994553844226
 20
2.940063615906195
 30
0.0
 11
2.775838033100235
 21
3.004241549760701
 31
0.0
  0
LEADER
  5
58A
330
1E
100
AcDbEntity
  8
TEXT-RB-SJ-LEADERS
100
AcDbLeader
  3
Standard
 76
     3
 10
2.269550307269677
 20
3.164332352613463
 30
0.0
 10
4.002540172203119
 20
3.924406846010381
 30
0.0
 10
4.358532326400016
 20
3.924406846010381
 30
0.0
1001
ACAD
1000
DSTYLE
1002
{
1070
   340
1005
24
1070
   287
1070
     5
1002
}
  0
LEADER
  5
58B
330
1E
100
AcDbEntity
  8
TEXT-RB-SJ-LEADERS
100
AcDbLeader
  3
Standard
 76
     3
 10
2.810723322552924
 20
2.77613410049879
 30
0.0
 10
4.002540172203119
 20
1.684035560084031
 30
0.0
 10
4.356274345988172
 20
1.684035560084032
 30
0.0
1001
ACAD
1000
DSTYLE
1002
{
1070
   340
1005
24
1070
   287
1070
     5
1002
}
  0
LEADER
  5
58C
330
1E
100
AcDbEntity
  8
TEXT-RB-SJ-LEADERS
100
AcDbLeader
  3
Standard
 76
     3
 10
3.782715023731353
 20
2.750014704178914
 30
0.0
 10
4.002540172203119
 20
2.049908427536401
 30
0.0
 10
4.353265434922128
 20
2.049908427536401
 30
0.0
1001
ACAD
1000
DSTYLE
1002
{
1070
   340
1005
24
1070
   287
1070
     5
1002
}
  0
TEXT
  5
58D
330
1E
100
AcDbEntity
  8
TEXT-RB-SJ-LEADERS
100
AcDbText
 10
4.404857879999999
 20
1.988582527087872
 30
0.0
 40
0.125
  1
PVC SCH 40 TEE OR ELL
  7
ROMANS
100
AcDbText
  0
TEXT
  5
58E
330
1E
100
AcDbEntity
  8
TEXT-RB-SJ-LEADERS
100
AcDbText
 10
4.404857879999999
 20
1.63858252616227
 30
0.0
 40
0.125
  1
LATERAL PIPE
  7
ROMANS
100
AcDbText
  0
CIRCLE
  5
58F
330
1E
100
AcDbEntity
  8
TEXT-RB-SJ-BUBBLES
100
AcDbCircle
 10
3.611266928600104
 20
2.037528790831899
 30
0.0
 40
0.15625
  0
LEADER
  5
590
330
1E
100
AcDbEntity
  8
TEXT-RB-SJ-BUBBLES
100
AcDbLeader
  3
Standard
 76
     2
 10
3.789978701444218
 20
2.750014704178914
 30
0.0
 10
3.641182321805878
 20
2.190888276190138
 30
0.0
1001
ACAD
1000
DSTYLE
1002
{
1070
   340
1005
0
1070
   287
1070
     5
1002
}
  0
TEXT
  5
591
330
1E
100
AcDbEntity
  8
TEXT-RB-SJ-BUBBLES
100
AcDbText
 10
3.548766928600104
 20
1.975028790831899
 30
0.0
 40
0.125
  1
4
  7
ROMANS
 72
     4
 11
3.611266928600104
 21
2.037528790831899
 31
0.0
100
AcDbText
  0
LEADER
  5
593
330
1E
100
AcDbEntity
  8
TEXT-RB-SJ-BUBBLES
100
AcDbLeader
  3
Standard
 76
     2
 10
2.836230971022745
 20
2.776151581286861
 30
0.0
 10
2.702506782779393
 20
2.192562751613785
 30
0.0
1001
ACAD
1000
DSTYLE
1002
{
1070
   340
1005
0
1070
   287
1070
     5
1002
}
  0
CIRCLE
  5
594
330
1E
100
AcDbEntity
  8
TEXT-RB-SJ-BUBBLES
100
AcDbCircle
 10
2.683050845272284
 20
2.037528790831899
 30
0.0
 40
0.15625
  0
TEXT
  5
595
330
1E
100
AcDbEntity
  8
TEXT-RB-SJ-BUBBLES
100
AcDbText
 10
2.623527035748475
 20
1.975028790831899
 30
0.0
 40
0.125
  1
5
  7
ROMANS
 72
     4
 11
2.683050845272284
 21
2.037528790831899
 31
0.0
100
AcDbText
  0
TEXT
  5
596
330
1E
100
AcDbEntity
  8
TEXT-RB-SJ-LEADERS
100
AcDbText
 10
4.404857879999999
 20
3.697348430514571
 30
0.0
 40
0.125
  1
  RAIN BIRD TSJ-12075
  7
ROMANS
100
AcDbText
  0
TEXT
  5
597
330
1E
100
AcDbEntity
  8
TEXT-RB-SJ-LEADERS
100
AcDbText
 10
4.404857879999999
 20
3.872348430514572
 30
0.0
 40
0.125
  1
PRE-FABRICATED SWING JOINT:
  7
ROMANS
100
AcDbText
  0
TEXT
  5
598
330
1E
100
AcDbEntity
  8
TEXT-RB-SJ-BUBBLES
100
AcDbText
 10
4.404857899999999
 20
4.6313062
 30
0.0
 40
0.125
  1
  RAIN BIRD TSJ-12075
  7
ROMANS
100
AcDbText
  0
TEXT
  5
599
330
1E
100
AcDbEntity
  8
TEXT-RB-SJ-BUBBLES
100
AcDbText
 10
4.404857899999999
 20
4.4563062
 30
0.0
 40
0.125
  1

  7
ROMANS
100
AcDbText
  0
TEXT
  5
59A
330
1E
100
AcDbEntity
  8
TEXT-RB-SJ-BUBBLES
100
AcDbText
 10
4.404857899999999
 20
4.106306199999999
 30
0.0
 40
0.125
  1

  7
ROMANS
100
AcDbText
  0
CIRCLE
  5
59B
330
1E
100
AcDbEntity
  8
TEXT-RB-SJ-BUBBLES
100
AcDbCircle
 10
4.124215285818168
 20
4.869320947128129
 30
0.0
 40
0.15625
  0
CIRCLE
  5
59C
330
1E
100
AcDbEntity
  8
TEXT-RB-SJ-BUBBLES
100
AcDbCircle
 10
4.124215285818168
 20
4.343747912036533
 30
0.0
 40
0.15625
  0
TEXT
  5
59D
330
1E
100
AcDbEntity
  8
TEXT-RB-SJ-BUBBLES
100
AcDbText
 10
4.061715285818168
 20
4.281247912036533
 30
0.0
 40
0.125
  1
4
  7
ROMANS
 72
     4
 11
4.124215285818168
 21
4.343747912036533
 31
0.0
100
AcDbText
  0
TEXT
  5
59E
330
1E
100
AcDbEntity
  8
TEXT-RB-SJ-BUBBLES
100
AcDbText
 10
4.064691476294359
 20
4.806820947128129
 30
0.0
 40
0.125
  1
3
  7
ROMANS
 72
     4
 11
4.124215285818168
 21
4.869320947128129
 31
0.0
100
AcDbText
  0
CIRCLE
  5
59F
330
1E
100
AcDbEntity
  8
TEXT-RB-SJ-BUBBLES
100
AcDbCircle
 10
4.124215285818168
 20
4.002272723370143
 30
0.0
 40
0.15625
  0
TEXT
  5
5A0
330
1E
100
AcDbEntity
  8
TEXT-RB-SJ-BUBBLES
100
AcDbText
 10
4.064691476294359
 20
3.939772723370143
 30
0.0
 40
0.125
  1
5
  7
ROMANS
 72
     4
 11
4.124215285818168
 21
4.002272723370143
 31
0.0
100
AcDbText
  0
TEXT
  5
5A1
330
1E
100
AcDbEntity
  8
TEXT-RB-SJ-BUBBLES
100
AcDbText
 10
4.404857899999999
 20
3.7563062
 30
0.0
 40
0.1215
  1

  7
ROMANS
100
AcDbText
  0
LINE
  5
5A4
330
1E
100
AcDbEntity
  8
OPTION-RB-SJ
100
AcDbLine
 10
1.774262663681962
 20
3.387343858979482
 30
0.0
 11
1.774262663681962
 21
3.453745717214394
 31
0.0
  0
LINE
  5
5A5
330
1E
100
AcDbEntity
  8
OPTION-RB-SJ
100
AcDbLine
 10
1.545764255323903
 20
3.387343858979482
 30
0.0
 11
1.545764255323903
 21
3.453745577571728
 31
0.0
  0
LWPOLYLINE
  5
5A6
330
1E
100
AcDbEntity
  8
OPTION-RB-SJ
100
AcDbPolyline
 90
        4
 70
     0
 43
0.0
 10
1.774262663681962
 20
3.387343858979484
 10
1.773562075123372
 20
3.388436257933701
 10
1.772567272873203
 20
3.389465121238984
 10
1.771286942980604
 20
3.390319579680841
  0
LWPOLYLINE
  5
5A7
330
1E
100
AcDbEntity
  8
OPTION-RB-SJ
100
AcDbPolyline
 90
        4
 70
     0
 43
0.0
 10
1.771286942980604
 20
3.390319579680841
 10
1.770669830233675
 20
3.39056963760124
 10
1.770000406177857
 20
3.39072644752027
 10
1.769303129179701
 20
3.390779925270582
  0
LWPOLYLINE
  5
5A8
330
1E
100
AcDbEntity
  8
OPTION-RB-SJ
100
AcDbPolyline
 90
        4
 70
     0
 43
0.0
 10
1.548739976025262
 20
3.390319579680841
 10
1.549357088772191
 20
3.39056963760124
 10
1.550026512828008
 20
3.39072644752027
 10
1.550723789826164
 20
3.390779925270582
  0
LWPOLYLINE
  5
5A9
330
1E
100
AcDbEntity
  8
OPTION-RB-SJ
100
AcDbPolyline
 90
        4
 70
     0
 43
0.0
 10
1.545764255323903
 20
3.387343858979484
 10
1.546464843882493
 20
3.388436257933701
 10
1.547459646132663
 20
3.389465121238984
 10
1.548739976025262
 20
3.390319579680841
  0
LINE
  5
5AA
330
1E
100
AcDbEntity
  8
OPTION-RB-SJ
100
AcDbLine
 10
1.769303129179701
 20
3.390779925270582
 30
0.0
 11
1.550723789826164
 21
3.390779925270582
 31
0.0
  0
LINE
  5
5AB
330
1E
100
AcDbEntity
  8
OPTION-RB-SJ
100
AcDbLine
 10
1.574657023660502
 20
3.423158392418482
 30
0.0
 11
1.745369631716939
 21
3.423158392418482
 31
0.0
  0
LINE
  5
618
330
1E
100
AcDbEntity
  8
OPTION-SJ
100
AcDbLine
 10
3.707751751772755
 20
2.411347047303714
 30
0.0
 11
3.722978642887599
 21
2.382605771883399
 31
0.0
  0
LEADER
  5
61D
330
1E
100
AcDbEntity
  8
TEXT-SJ-LEADERS
100
AcDbLeader
  3
Standard
 76
     3
 10
3.707751751772752
 20
2.411347047303713
 30
0.0
 10
4.002540172203119
 20
2.781358947379183
 30
0.0
 10
4.299856504284992
 20
2.781358947379183
 30
0.0
  0
LEADER
  5
61E
330
1E
100
AcDbEntity
  8
TEXT-SJ-LEADERS
100
AcDbLeader
  3
Standard
 76
     3
 10
2.627149499779082
 20
2.627602847684645
 30
0.0
 10
4.002540172203119
 20
3.295894751454962
 30
0.0
 10
4.299856504284992
 20
3.295894751454962
 30
0.0
  0
LEADER
  5
61F
330
1E
100
AcDbEntity
  8
TEXT-SJ-LEADERS
100
AcDbLeader
  3
Standard
 76
     3
 10
1.936548357135069
 20
2.78708238671346
 30
0.0
 10
4.002540172203119
 20
3.65010289654109
 30
0.0
 10
4.299856504284992
 20
3.65010289654109
 30
0.0
  0
LEADER
  5
620
330
1E
100
AcDbEntity
  8
TEXT-SJ-LEADERS
100
AcDbLeader
  3
Standard
 76
     3
 10
1.789187173544434
 20
2.870517705601804
 30
0.0
 10
4.002540172203119
 20
3.997006472536653
 30
0.0
 10
4.299856504284992
 20
3.997006472536653
 30
0.0
  0
LEADER
  5
621
330
1E
100
AcDbEntity
  8
TEXT-SJ-LEADERS
100
AcDbLeader
  3
Standard
 76
     3
 10
2.786412436053771
 20
2.153960531227304
 30
0.0
 10
4.002540172203119
 20
1.313005194474291
 30
0.0
 10
4.299856504284992
 20
1.313005194474291
 30
0.0
211
-1.0
221
0.0
231
0.0
210
0.0
220
0.0
230
-1.0
  0
LEADER
  5
622
330
1E
100
AcDbEntity
  8
TEXT-SJ-LEADERS
100
AcDbLeader
  3
Standard
 76
     3
 10
3.847509588830542
 20
2.124586744964302
 30
0.0
 10
4.002540172203119
 20
1.661237861589195
 30
0.0
 10
4.299856504284992
 20
1.661237861589196
 30
0.0
211
-1.0
221
0.0
231
0.0
210
0.0
220
0.0
230
-1.0
  0
TEXT
  5
623
330
1E
100
AcDbEntity
  8
TEXT-SJ-LEADERS
100
AcDbText
 10
4.404857879999999
 20
1.252462453873373
 30
0.0
 40
0.125
  1
PVC LATERAL PIPE
  7
ROMANS
100
AcDbText
  0
TEXT
  5
624
330
1E
100
AcDbEntity
  8
TEXT-SJ-LEADERS
100
AcDbText
 10
4.404857879999999
 20
1.602462453873373
 30
0.0
 40
0.125
  1
PVC SCH 40 TEE OR ELL
  7
ROMANS
100
AcDbText
  0
TEXT
  5
625
330
1E
100
AcDbEntity
  8
TEXT-SJ-LEADERS
100
AcDbText
 10
4.404857879999999
 20
2.718561069554148
 30
0.0
 40
0.125
  1
PVC SCH 40 STREET ELL
  7
ROMANS
100
AcDbText
  0
TEXT
  5
626
330
1E
100
AcDbEntity
  8
TEXT-SJ-LEADERS
100
AcDbText
 10
4.404857879999999
 20
3.243561069554148
 30
0.0
 40
0.125
  1
PVC SCH 80 NIPPLE
  7
ROMANS
100
AcDbText
  0
TEXT
  5
629
330
1E
100
AcDbEntity
  8
TEXT-SJ-BUBBLES
100
AcDbText
 10
4.061715285818168
 20
3.406017691556705
 30
0.0
 40
0.1250000000000003
  1
6
  7
ROMANS
 72
     4
 11
4.124215285818168
 21
3.468517691556705
 31
0.0
100
AcDbText
  0
TEXT
  5
62A
330
1E
100
AcDbEntity
  8
TEXT-SJ-BUBBLES
100
AcDbText
 10
4.064691476294359
 20
3.057038519176233
 30
0.0
 40
0.1250000000000003
  1
7
  7
ROMANS
 72
     4
 11
4.124215285818168
 21
3.119538519176233
 31
0.0
100
AcDbText
  0
CIRCLE
  5
62B
330
1E
100
AcDbEntity
  8
TEXT-SJ-BUBBLES
100
AcDbCircle
 10
4.124215285818168
 20
3.468517691556705
 30
0.0
 40
0.1562500000000004
  0
CIRCLE
  5
62D
330
1E
100
AcDbEntity
  8
TEXT-SJ-BUBBLES
100
AcDbCircle
 10
4.124215285818168
 20
3.119538519176233
 30
0.0
 40
0.1562500000000004
  0
TEXT
  5
62E
330
1E
100
AcDbEntity
  8
TEXT-SJ-BUBBLES
100
AcDbText
 10
5.269686059999999
 20
1.404159729999999
 30
0.0
 40
0.125
  1

  7
ROMANS
100
AcDbText
  0
TEXT
  5
62F
330
1E
100
AcDbEntity
  8
TEXT-SJ-BUBBLES
100
AcDbText
 10
5.269686059999999
 20
1.05415973
 30
0.0
 40
0.125
  1

  7
ROMANS
100
AcDbText
  0
LWPOLYLINE
  5
631
330
1E
100
AcDbEntity
  8
OPTION-SJ
100
AcDbPolyline
 90
        4
 70
     0
 43
0.0
 10
0.8309925993592866
 20
2.417618617121566
 42
0.6332430429610296
 10
0.8309925993592866
 20
2.285789574174435
 42
-0.6332430429610812
 10
0.8309925993592866
 20
2.153960531227304
 42
-0.6134111328532366
 10
0.8309925993592887
 20
2.285789574174434
 42
-0.6134111328532366
  0
LINE
  5
632
330
1E
100
AcDbEntity
  8
OPTION-SJ
100
AcDbLine
 10
2.00683388297542
 20
2.772184898193614
 30
0.0
 11
1.789299829074092
 21
2.818292699649515
 31
0.0
  0
LINE
  5
633
330
1E
100
AcDbEntity
  8
OPTION-SJ
100
AcDbLine
 10
1.789064353650617
 20
2.932080671588121
 30
0.0
 11
1.789478127510637
 21
2.724678228232841
 31
0.0
  0
LWPOLYLINE
  5
634
330
1E
100
AcDbEntity
  8
OPTION-SJ
100
AcDbPolyline
 90
        2
 70
     0
 43
0.0
 10
2.027880377392579
 20
2.739231865128008
 10
1.988769340542219
 20
2.554498334837821
  0
LINE
  5
635
330
1E
100
AcDbEntity
  8
OPTION-SJ
100
AcDbLine
 10
2.056167821386296
 20
2.749400549646616
 30
0.0
 11
2.010374520466961
 21
2.533104618274713
 31
0.0
  0
LINE
  5
636
330
1E
100
AcDbEntity
  8
OPTION-SJ
100
AcDbLine
 10
2.00683388297542
 20
2.772184898193614
 30
0.0
 11
1.95603324291418
 21
2.530748800393211
 31
0.0
  0
LINE
  5
637
330
1E
100
AcDbEntity
  8
OPTION-SJ
100
AcDbLine
 10
1.770528150495105
 20
3.453745717214394
 30
0.0
 11
1.770525008521046
 21
2.932080671588122
 31
0.0
  0
LINE
  5
638
330
1E
100
AcDbEntity
  8
OPTION-SJ
100
AcDbLine
 10
1.549467628152774
 20
3.453745717214394
 30
0.0
 11
1.54946879337344
 21
2.932080671588122
 31
0.0
  0
LWPOLYLINE
  5
639
330
1E
100
AcDbEntity
  8
OPTION-SJ
100
AcDbPolyline
 90
        2
 70
     0
 43
0.0
 10
1.564011042237212
 20
2.957573404554901
 10
1.752839404558622
 20
2.957573404554901
  0
LINE
  5
63A
330
1E
100
AcDbEntity
  8
OPTION-SJ
100
AcDbLine
 10
1.549468269267054
 20
2.984808064927403
 30
0.0
 11
1.770558649738767
 21
2.984808064927403
 31
0.0
  0
LINE
  5
63B
330
1E
100
AcDbEntity
  8
OPTION-SJ
100
AcDbLine
 10
1.529841985839739
 20
2.932080671588121
 30
0.0
 11
1.528758617845182
 21
2.724678228232841
 31
0.0
  0
ARC
  5
63C
330
1E
100
AcDbEntity
  8
OPTION-SJ
100
AcDbCircle
 10
1.659118372677909
 20
2.724678228232841
 30
0.0
 40
0.1303597548327282
100
AcDbArc
 50
179.379115872957
 51
0.2371380430744096
  0
LINE
  5
63D
330
1E
100
AcDbEntity
  8
OPTION-SJ
100
AcDbLine
 10
1.529841985839739
 20
2.932080671588121
 30
0.0
 11
1.789064353650615
 21
2.932080671588121
 31
0.0
  0
LINE
  5
63E
330
1E
100
AcDbEntity
  8
OPTION-SJ
100
AcDbLine
 10
1.95603324291418
 20
2.530748800393209
 30
0.0
 11
1.6522787920199
 21
2.594498023069097
 31
0.0
  0
LINE
  5
63F
330
1E
100
AcDbEntity
  8
OPTION-SJ
100
AcDbLine
 10
3.306781172745437
 20
2.257723328018492
 30
0.0
 11
3.306781172745438
 21
2.124586744964304
 31
0.0
  0
LINE
  5
640
330
1E
100
AcDbEntity
  8
OPTION-SJ
100
AcDbLine
 10
3.335562527930786
 20
2.477853908300977
 30
0.0
 11
3.289769227011453
 21
2.261557976929074
 31
0.0
  0
LWPOLYLINE
  5
641
330
1E
100
AcDbEntity
  8
OPTION-SJ
100
AcDbPolyline
 90
        2
 70
     0
 43
0.0
 10
3.357814033649515
 20
2.456799724265629
 10
3.318702996799156
 20
2.272066193975442
  0
LINE
  5
642
330
1E
100
AcDbEntity
  8
OPTION-SJ
100
AcDbLine
 10
3.388952525245032
 20
2.479018725388253
 30
0.0
 11
3.33736481345212
 21
2.237749576213125
 31
0.0
  0
LINE
  5
645
330
1E
100
AcDbEntity
  8
OPTION-SJ
100
AcDbLine
 10
2.551546241342452
 20
2.417618617121566
 30
0.0
 11
0.8309925993592866
 21
2.417618617121566
 31
0.0
  0
LINE
  5
646
330
1E
100
AcDbEntity
  8
OPTION-SJ
100
AcDbLine
 10
3.340422726697979
 20
2.2506008741019
 30
0.0
 11
1.958641733858742
 21
2.543145964563655
 31
0.0
  0
LINE
  5
647
330
1E
100
AcDbEntity
  8
OPTION-SJ
100
AcDbLine
 10
3.386650927367837
 20
2.466804273242512
 30
0.0
 11
2.004869934528598
 21
2.759349363704267
 31
0.0
  0
LINE
  5
648
330
1E
100
AcDbEntity
  8
OPTION-SJ
100
AcDbLine
 10
3.306781172745438
 20
2.153960531227304
 30
0.0
 11
0.8309925993592866
 21
2.153960531227304
 31
0.0
  0
TEXT
  5
649
330
1E
100
AcDbEntity
  8
TEXT-SJ-LEADERS
100
AcDbText
 10
4.404857879999999
 20
3.068561069554148
 30
0.0
 40
0.125
  1
  (LENGTH AS REQUIRED)
  7
ROMANS
100
AcDbText
  0
LWPOLYLINE
  5
64A
330
1E
100
AcDbEntity
  8
TEXT-SJ-LEADERS
100
AcDbPolyline
 90
        2
 70
     0
 43
0.0
 10
4.002540172203119
 20
2.781358947379183
 10
4.299856504284992
 20
2.781358947379183
  0
LWPOLYLINE
  5
64B
330
1E
100
AcDbEntity
  8
OPTION-SJ
100
AcDbPolyline
 90
        4
 70
     0
 43
0.0
 10
4.548629268328405
 20
2.419518628915618
 42
-0.6332430429610296
 10
4.548629268328405
 20
2.287689585968487
 42
0.6332430429610812
 10
4.548629268328405
 20
2.155860543021356
 42
0.6134111328532366
 10
4.548629268328403
 20
2.287689585968486
 42
0.6134111328532366
  0
LINE
  5
64C
330
1E
100
AcDbEntity
  8
OPTION-SJ
100
AcDbLine
 10
4.049652354531603
 20
2.452008059850736
 30
0.0
 11
4.049652354531602
 21
2.124586744964302
 31
0.0
  0
LINE
  5
64D
330
1E
100
AcDbEntity
  8
OPTION-SJ
100
AcDbLine
 10
4.548629268328405
 20
2.419518628915618
 30
0.0
 11
4.049652354531603
 21
2.419518628915618
 31
0.0
  0
LINE
  5
64E
330
1E
100
AcDbEntity
  8
OPTION-SJ
100
AcDbLine
 10
4.548629268328405
 20
2.155860543021356
 30
0.0
 11
4.049652354531602
 21
2.155860543021356
 31
0.0
  0
LINE
  5
650
330
1E
100
AcDbEntity
  8
OPTION-SJ
100
AcDbLine
 10
3.656063161020724
 20
2.169606100101672
 30
0.0
 11
3.683322671581122
 21
2.18631086538617
 31
0.0
  0
LINE
  5
651
330
1E
100
AcDbEntity
  8
OPTION-SJ
100
AcDbLine
 10
3.33736481345212
 20
2.237749576213125
 30
0.0
 11
3.656063161020724
 21
2.169606100101672
 31
0.0
  0
LINE
  5
652
330
1E
100
AcDbEntity
  8
OPTION-SJ
100
AcDbLine
 10
3.388952525245032
 20
2.479018725388253
 30
0.0
 11
3.707751751772752
 21
2.411347047303713
 31
0.0
  0
LINE
  5
653
330
1E
100
AcDbEntity
  8
OPTION-SJ
100
AcDbLine
 10
3.683322671581122
 20
2.186310865386169
 30
0.0
 11
3.722978642887599
 21
2.382605771883399
 31
0.0
  0
ARC
  5
654
330
1E
100
AcDbEntity
  8
OPTION-SJ
100
AcDbCircle
 10
3.679025345712076
 20
2.289332172361095
 30
0.0
 40
0.1031108951587901
100
AcDbArc
 50
272.3885930691139
 51
64.76879059918146
  0
LINE
  5
655
330
1E
100
AcDbEntity
  8
OPTION-SJ
100
AcDbLine
 10
4.049652354531603
 20
2.124586744964302
 30
0.0
 11
3.306781172745438
 21
2.124586744964302
 31
0.0
  0
LINE
  5
656
330
1E
100
AcDbEntity
  8
OPTION-SJ
100
AcDbLine
 10
3.707751751772755
 20
2.411347047303714
 30
0.0
 11
3.656063161020724
 21
2.169606100101672
 31
0.0
  0
LINE
  5
657
330
1E
100
AcDbEntity
  8
OPTION-SJ
100
AcDbLine
 10
3.516198952777119
 20
2.452008059850737
 30
0.0
 11
4.049652354531603
 21
2.452008059850737
 31
0.0
  0
LEADER
  5
65F
330
1E
100
AcDbEntity
  8
TEXT-SJ-LEADERS
100
AcDbLeader
  3
Standard
 76
     3
 10
1.770526411180334
 20
3.164965573840055
 30
0.0
 10
4.002540172203119
 20
4.522904779682026
 30
0.0
 10
4.299856504284992
 20
4.522904779682026
 30
0.0
  0
LWPOLYLINE
  5
660
330
1E
100
AcDbEntity
  8
TEXT-SJ-LEADERS
100
AcDbPolyline
 90
        2
 70
     0
 43
0.0
 10
4.002540172203119
 20
3.295894751454962
 10
4.299856504284992
 20
3.295894751454962
  0
LWPOLYLINE
  5
661
330
1E
100
AcDbEntity
  8
TEXT-SJ-LEADERS
100
AcDbPolyline
 90
        2
 70
     0
 43
0.0
 10
4.002540172203119
 20
4.522904779682026
 10
4.299856504284992
 20
4.522904779682026
  0
TEXT
  5
662
330
1E
100
AcDbEntity
  8
TEXT-SJ-LEADERS
100
AcDbText
 10
4.404857879999999
 20
4.468561069554147
 30
0.0
 40
0.125
  1
PVC SCH 80 NIPPLE
  7
ROMANS
100
AcDbText
  0
TEXT
  5
663
330
1E
100
AcDbEntity
  8
TEXT-SJ-LEADERS
100
AcDbText
 10
4.404857879999999
 20
3.593561069554147
 30
0.0
 40
0.125
  1
PVC SCH 40 STREET ELL
  7
ROMANS
100
AcDbText
  0
TEXT
  5
664
330
1E
100
AcDbEntity
  8
TEXT-SJ-LEADERS
100
AcDbText
 10
4.404857879999999
 20
3.943561069554148
 30
0.0
 40
0.125
  1
PVC SCH 40 ELL
  7
ROMANS
100
AcDbText
  0
TEXT
  5
665
330
1E
100
AcDbEntity
  8
TEXT-SJ-LEADERS
100
AcDbText
 10
4.404857879999999
 20
4.293561069554148
 30
0.0
 40
0.125
  1
  (LENGTH AS REQUIRED)
  7
ROMANS
100
AcDbText
  0
TEXT
  5
668
330
1E
100
AcDbEntity
  8
TEXT-SJ-BUBBLES
100
AcDbText
 10
4.064691476294359
 20
4.805046374702004
 30
0.0
 40
0.1250000000000003
  1
3
  7
ROMANS
 72
     4
 11
4.124215285818168
 21
4.867546374702004
 31
0.0
100
AcDbText
  0
CIRCLE
  5
669
330
1E
100
AcDbEntity
  8
TEXT-SJ-BUBBLES
100
AcDbCircle
 10
4.124215285818168
 20
4.867546374702004
 30
0.0
 40
0.1562500000000004
  0
TEXT
  5
66A
330
1E
100
AcDbEntity
  8
TEXT-SJ-BUBBLES
100
AcDbText
 10
4.404857899999999
 20
4.106306199999999
 30
0.0
 40
0.125
  1

  7
ROMANS
100
AcDbText
  0
TEXT
  5
66C
330
1E
100
AcDbEntity
  8
TEXT-SJ-BUBBLES
100
AcDbText
 10
4.061715285818168
 20
4.286529605158729
 30
0.0
 40
0.1250000000000003
  1
4
  7
ROMANS
 72
     4
 11
4.124215285818168
 21
4.349029605158729
 31
0.0
100
AcDbText
  0
TEXT
  5
66D
330
1E
100
AcDbEntity
  8
TEXT-SJ-BUBBLES
100
AcDbText
 10
4.404857899999999
 20
3.7563062
 30
0.0
 40
0.125
  1
  (1 OF 2)
  7
ROMANS
100
AcDbText
  0
TEXT
  5
66E
330
1E
100
AcDbEntity
  8
TEXT-SJ-BUBBLES
100
AcDbText
 10
4.404857899999999
 20
3.2313062
 30
0.0
 40
0.125
  1

  7
ROMANS
100
AcDbText
  0
CIRCLE
  5
66F
330
1E
100
AcDbEntity
  8
TEXT-SJ-BUBBLES
100
AcDbCircle
 10
4.124215285818168
 20
3.992716423089224
 30
0.0
 40
0.1562500000000004
  0
TEXT
  5
670
330
1E
100
AcDbEntity
  8
TEXT-SJ-BUBBLES
100
AcDbText
 10
4.064691476294359
 20
3.930216423089224
 30
0.0
 40
0.1250000000000003
  1
5
  7
ROMANS
 72
     4
 11
4.124215285818168
 21
3.992716423089224
 31
0.0
100
AcDbText
  0
TEXT
  5
671
330
1E
100
AcDbEntity
  8
TEXT-SJ-BUBBLES
100
AcDbText
 10
4.404857899999999
 20
3.406306199999999
 30
0.0
 40
0.125
  1
PVC SCH 40 TEE OR ELL
  7
ROMANS
100
AcDbText
  0
CIRCLE
  5
672
330
1E
100
AcDbEntity
  8
TEXT-SJ-BUBBLES
100
AcDbCircle
 10
4.124215285818168
 20
4.349029605158729
 30
0.0
 40
0.1562500000000004
  0
LWPOLYLINE
  5
673
330
1E
100
AcDbEntity
  8
TEXT-SJ-LEADERS
100
AcDbPolyline
 90
        2
 70
     0
 43
0.0
 10
4.002540172203119
 20
3.997006472536653
 10
4.299856504284992
 20
3.997006472536653
  0
LWPOLYLINE
  5
674
330
1E
100
AcDbEntity
  8
TEXT-SJ-LEADERS
100
AcDbPolyline
 90
        2
 70
     0
 43
0.0
 10
4.002540172203119
 20
3.65010289654109
 10
4.299856504284992
 20
3.65010289654109
  0
TEXT
  5
683
330
1E
100
AcDbEntity
  8
TEXT-SJ-BUBBLES
100
AcDbText
 10
4.404857899999999
 20
4.2813062
 30
0.0
 40
0.125
  1
PVC SCH 40 ELL
  7
ROMANS
100
AcDbText
  0
TEXT
  5
684
330
1E
100
AcDbEntity
  8
TEXT-SJ-BUBBLES
100
AcDbText
 10
4.404857899999999
 20
2.8813062
 30
0.0
 40
0.125
  1

  7
ROMANS
100
AcDbText
  0
TEXT
  5
685
330
1E
100
AcDbEntity
  8
TEXT-SJ-BUBBLES
100
AcDbText
 10
4.404857899999999
 20
2.531306199999999
 30
0.0
 40
0.125
  1

  7
ROMANS
100
AcDbText
  0
TEXT
  5
688
330
1E
100
AcDbEntity
  8
TEXT-SJ-BUBBLES
100
AcDbText
 10
4.404857899999999
 20
4.806306199999999
 30
0.0
 40
0.125
  1
PVC SCH 80 NIPPLE
  7
ROMANS
100
AcDbText
  0
TEXT
  5
689
330
1E
100
AcDbEntity
  8
TEXT-SJ-BUBBLES
100
AcDbText
 10
4.404857899999999
 20
4.6313062
 30
0.0
 40
0.125
  1
  (LENGTH AS REQUIRED)
  7
ROMANS
100
AcDbText
  0
TEXT
  5
68A
330
1E
100
AcDbEntity
  8
TEXT-SJ-BUBBLES
100
AcDbText
 10
4.404857899999999
 20
3.931306199999999
 30
0.0
 40
0.125
  1
PVC SCH 40 STREET ELL
  7
ROMANS
100
AcDbText
  0
TEXT
  5
68B
330
1E
100
AcDbEntity
  8
TEXT-SJ-BUBBLES
100
AcDbText
 10
4.404857899999999
 20
3.056306199999999
 30
0.0
 40
0.125
  1
PVC LATERAL PIPE
  7
ROMANS
100
AcDbText
  0
LWPOLYLINE
  5
68E
330
1E
100
AcDbEntity
  8
OPTION-SJ
100
AcDbPolyline
 90
        2
 70
     0
 43
0.0
 10
1.564011042237212
 20
3.428252984247614
 10
1.752839404558622
 20
3.428252984247614
  0
LINE
  5
68F
330
1E
100
AcDbEntity
  8
OPTION-SJ
100
AcDbLine
 10
1.549468269267054
 20
3.401018323875113
 30
0.0
 11
1.770558649738767
 21
3.401018323875113
 31
0.0
  0
TEXT
  5
695
330
1E
100
AcDbEntity
  8
IMAGE
100
AcDbText
 10
10.62057318999999
 20
12.19007017
 30
0.0
 40
0.1215
  1

  7
ROMANS
100
AcDbText
  0
TEXT
  5
699
330
1E
100
AcDbEntity
  8
IMAGE
100
AcDbText
 10
10.62057318999999
 20
11.84007017
 30
0.0
 40
0.125
  1

  7
ROMANS
100
AcDbText
  0
TEXT
  5
6A1
330
1E
100
AcDbEntity
  8
TEXT_BUBBLES
100
AcDbText
 10
4.404857901174219
 20
5.3313062
 30
0.0
 40
0.125
  1
IMPACT ROTOR POP-UP SPRINKLER:
  7
ROMANS
100
AcDbText
  0
TEXT
  5
6A2
330
1E
100
AcDbEntity
  8
TEXT-RB-SJ-BUBBLES
100
AcDbText
 10
4.404857899999999
 20
4.806306199999999
 30
0.0
 40
0.125
  1
PRE-FABRICATED SWING JOINT:
  7
ROMANS
100
AcDbText
  0
TEXT
  5
6A3
330
1E
100
AcDbEntity
  8
TEXT-RB-SJ-BUBBLES
100
AcDbText
 10
4.404857899999999
 20
4.2813062
 30
0.0
 40
0.125
  1
PVC SCH 40 TEE OR ELL
  7
ROMANS
100
AcDbText
  0
TEXT
  5
6A4
330
1E
100
AcDbEntity
  8
TEXT-RB-SJ-BUBBLES
100
AcDbText
 10
4.404857899999999
 20
3.931306199999999
 30
0.0
 40
0.125
  1
LATERAL PIPE
  7
ROMANS
100
AcDbText
  0
TEXT
  5
6A6
330
1E
100
AcDbEntity
  8
TEXT-RB-SJ-BUBBLES
100
AcDbText
 10
2.051417565763157
 20
1.975028790831899
 30
0.0
 40
0.125
  1
3
  7
ROMANS
 72
     4
 11
2.110941375286967
 21
2.037528790831899
 31
0.0
100
AcDbText
  0
CIRCLE
  5
6A7
330
1E
100
AcDbEntity
  8
TEXT-RB-SJ-BUBBLES
100
AcDbCircle
 10
2.110941375286967
 20
2.037528790831899
 30
0.0
 40
0.15625
  0
LEADER
  5
6A8
330
1E
100
AcDbEntity
  8
TEXT-RB-SJ-BUBBLES
100
AcDbLeader
  3
Standard
 76
     2
 10
2.29301895340168
 20
2.91372763603223
 30
0.0
 10
2.130285039857039
 20
2.19257679998068
 30
0.0
1001
ACAD
1000
DSTYLE
1002
{
1070
   340
1005
0
1070
   287
1070
     5
1002
}
  0
TEXT
  5
6AC
330
1E
100
AcDbEntity
  8
INSTRUCT-OPTION
100
AcDbText
 10
10.43083360110576
 20
5.190099328120914
 30
0.0
 40
0.125
  1
%%U2045A-MAXI-PAW-SAM
  7
ROMANS
100
AcDbText
  0
TEXT
  5
6AD
330
1E
100
AcDbEntity
  8
INSTRUCT-OPTION
100
AcDbText
 10
10.43083360110576
 20
4.587277972873068
 30
0.0
 40
0.125
  1
%%U2045A-MAXI-PAW-SAM-NP
  7
ROMANS
100
AcDbText
  0
TEXT
  5
6C4
330
1E
100
AcDbEntity
  8
INSTRUCT-OPTION
100
AcDbText
 10
10.43083360110576
 20
4.361471402074553
 30
0.0
 40
0.125
  1
  OPTION-SAM-NP
  7
ROMANS
100
AcDbText
  0
TEXT
  5
6D3
330
1E
100
AcDbEntity
  8
INSTRUCT-OPTION
100
AcDbText
 10
10.43083360110576
 20
3.209841032862853
 30
0.0
 40
0.1250000018625
  1
%%URAIN BIRD SWING JOINT
  7
ROMANS
100
AcDbText
  0
TEXT
  5
6D4
330
1E
100
AcDbEntity
  8
INSTRUCT-OPTION
100
AcDbText
 10
10.19752064645742
 20
2.74459805017164
 30
0.0
 40
0.1250000018625
  1
  %%UAND EITHER%%U TEXT-RB-SJ-LEADERS
  7
ROMANS
100
AcDbText
  0
TEXT
  5
6D5
330
1E
100
AcDbEntity
  8
INSTRUCT-OPTION
100
AcDbText
 10
10.44752657968408
 20
2.522756684572253
 30
0.0
 40
0.1250000018625
  1
  %%UOR%%U TEXT-RB-SJ-BUBBLES
  7
ROMANS
100
AcDbText
  0
TEXT
  5
6D6
330
1E
100
AcDbEntity
  8
INSTRUCT-OPTION
100
AcDbText
 10
10.44752657968408
 20
2.966439415771026
 30
0.0
 40
0.1250000018625
  1
  OPTION-RB-SJ
  7
ROMANS
100
AcDbText
  0
TEXT
  5
6D7
330
1E
100
AcDbEntity
  8
INSTRUCT-OPTION
100
AcDbText
 10
10.27191827294654
 20
0.4109205422609472
 30
0.0
 40
0.1250000018625
  1
  %%UAND EITHER%%U TEXT-SJ-LEADERS
  7
ROMANS
100
AcDbText
  0
TEXT
  5
6D8
330
1E
100
AcDbEntity
  8
INSTRUCT-OPTION
100
AcDbText
 10
10.50523122759488
 20
0.8761635249521608
 30
0.0
 40
0.1250000018625
  1
%%UCONTRACTOR ASSEMBLED SWING JOINT
  7
ROMANS
100
AcDbText
  0
TEXT
  5
6D9
330
1E
100
AcDbEntity
  8
INSTRUCT-OPTION
100
AcDbText
 10
10.5219242061732
 20
0.1890791766615605
 30
0.0
 40
0.1250000018625
  1
  %%UOR%%U TEXT-SJ-BUBBLES
  7
ROMANS
100
AcDbText
  0
TEXT
  5
6DA
330
1E
100
AcDbEntity
  8
INSTRUCT-OPTION
100
AcDbText
 10
10.5219242061732
 20
0.632761907860334
 30
0.0
 40
0.1250000018625
  1
  OPTION-SJ
  7
ROMANS
100
AcDbText
  0
TEXT
  5
6DB
330
1E
100
AcDbEntity
  8
INSTRUCT-OPTION
100
AcDbText
 10
10.46803815531433
 20
3.666097144056172
 30
0.0
 40
0.1250000018625002
  1
TURNING ON THE APPROPRIATE LAYER:
  7
ROMANS
100
AcDbText
  0
TEXT
  5
6DC
330
1E
100
AcDbEntity
  8
INSTRUCT-OPTION
100
AcDbText
 10
10.46803815531433
 20
3.868471900392423
 30
0.0
 40
0.1250000018625002
  1
SELECT THE DESIRED SWING JOINT BY
  7
ROMANS
100
AcDbText
  0
TEXT
  5
6E1
330
1E
100
AcDbEntity
  8
OPTION-SAM-NP
100
AcDbText
 10
4.404857901174219
 20
5.1563062
 30
0.0
 40
0.125
  1
                        -SAM-NP
  7
ROMANS
100
AcDbText
  0
LEADER
  5
859
330
1E
100
AcDbEntity
  8
TEXT-RB-SJ-PRS-LEADERS
100
AcDbLeader
  3
Standard
 76
     3
 10
1.907182487674371
 20
2.556125408714159
 30
0.0
 10
4.057755804181837
 20
1.589753728900595
 30
0.0
 10
4.373436278973804
 20
1.589753728900595
 30
0.0
1001
ACAD
1000
DSTYLE
1002
{
1070
   147
1040
0.09
1070
    77
1070
     0
1070
   279
1070
     2
1070
   340
1005
6F9
1002
}
  0
LEADER
  5
85A
330
1E
100
AcDbEntity
  8
TEXT-RB-SJ-PRS-LEADERS
100
AcDbLeader
  3
Standard
 76
     3
 10
3.797281963660542
 20
2.531666466392954
 30
0.0
 10
4.047890757996545
 20
1.944747404061495
 30
0.0
 10
4.363571271370719
 20
1.944747404061495
 30
0.0
1001
ACAD
1000
DSTYLE
1002
{
1070
   147
1040
0.09
1070
    77
1070
     0
1070
   279
1070
     2
1070
   340
1005
6F9
1002
}
  0
LEADER
  5
85B
330
1E
100
AcDbEntity
  8
TEXT-RB-SJ-PRS-LEADERS
100
AcDbLeader
  3
Standard
 76
     3
 10
2.001119934743448
 20
2.979734256906145
 30
0.0
 10
4.03988406244253
 20
4.943349333151956
 30
0.0
 10
4.360283835754545
 20
4.943349333151956
 30
0.0
1001
ACAD
1000
DSTYLE
1002
{
1070
   147
1040
0.09
1070
    77
1070
     0
1070
   279
1070
     2
1070
   340
1005
6F9
1002
}
  0
TEXT
  5
85C
330
1E
100
AcDbEntity
  8
TEXT-RB-SJ-PRS-BUBBLES
100
AcDbText
 10
4.404857901174219
 20
4.873160128964299
 30
0.0
 40
0.125
  1
PRE-FABRICATED SWING JOINT:
  7
ROMANS
100
AcDbText
  0
TEXT
  5
85D
330
1E
100
AcDbEntity
  8
TEXT-RB-SJ-PRS-BUBBLES
100
AcDbText
 10
4.404857901174219
 20
4.698160128964302
 30
0.0
 40
0.125
  1
  RAIN BIRD TSJ-075-PRS
  7
ROMANS
100
AcDbText
  0
TEXT
  5
85E
330
1E
100
AcDbEntity
  8
TEXT-RB-SJ-PRS-BUBBLES
100
AcDbText
 10
4.404857901174219
 20
4.201724974212607
 30
0.0
 40
0.125
  1
PVC SCH 40 TEE OR ELL
  7
ROMANS
100
AcDbText
  0
TEXT
  5
85F
330
1E
100
AcDbEntity
  8
TEXT-RB-SJ-PRS-BUBBLES
100
AcDbText
 10
4.404857901174219
 20
3.851724974212606
 30
0.0
 40
0.125
  1
LATERAL PIPE
  7
ROMANS
100
AcDbText
  0
TEXT
  5
860
330
1E
100
AcDbEntity
  8
TEXT-RB-SJ-PRS-BUBBLES
100
AcDbText
 10
4.404857901174219
 20
4.51346383019672
 30
0.0
 40
0.125
  1
  WITH 45 PSI PRESSURE REGULATOR
  7
ROMANS
100
AcDbText
  0
TEXT
  5
861
330
1E
100
AcDbEntity
  8
TEXT-RB-SJ-PRS-LEADERS
100
AcDbText
 10
4.404857879999999
 20
4.519750154689604
 30
0.0
 40
0.125
  1
  WITH 45 PSI PRESSURE REGULATOR
  7
ROMANS
100
AcDbText
  0
ARC
  5
862
330
1E
100
AcDbEntity
  8
OPTION-RB-SJ-PRS
100
AcDbCircle
 10
1.827682464058801
 20
3.369569792928874
 30
0.0
 40
0.0041914217507463
100
AcDbArc
 50
359.9266674661092
 51
90.00000000000044
  0
ARC
  5
863
330
1E
100
AcDbEntity
  8
OPTION-RB-SJ-PRS
100
AcDbCircle
 10
1.794347470442896
 20
3.369569792928876
 30
0.0
 40
0.0041914217507463
100
AcDbArc
 50
90.0
 51
180.0
  0
ARC
  5
864
330
1E
100
AcDbEntity
  8
OPTION-RB-SJ-PRS
100
AcDbCircle
 10
1.73980558934218
 20
3.370711980658963
 30
0.0
 40
0.0041914217507463
100
AcDbArc
 50
359.9266674661092
 51
90.0000000000009
  0
ARC
  5
865
330
1E
100
AcDbEntity
  8
OPTION-RB-SJ-PRS
100
AcDbCircle
 10
1.706470595726275
 20
3.370711980658963
 30
0.0
 40
0.0041914217507463
100
AcDbArc
 50
90.0
 51
180.0
  0
ARC
  5
866
330
1E
100
AcDbEntity
  8
OPTION-RB-SJ-PRS
100
AcDbCircle
 10
1.619897054355589
 20
3.369569792928874
 30
0.0
 40
0.0041914217507463
100
AcDbArc
 50
359.9266674661092
 51
90.00000000000044
  0
ARC
  5
867
330
1E
100
AcDbEntity
  8
OPTION-RB-SJ-PRS
100
AcDbCircle
 10
1.586562060739683
 20
3.369569792928876
 30
0.0
 40
0.0041914217507463
100
AcDbArc
 50
90.0
 51
180.0
  0
ARC
  5
868
330
1E
100
AcDbEntity
  8
OPTION-RB-SJ-PRS
100
AcDbCircle
 10
1.52348006355286
 20
3.369569792928874
 30
0.0
 40
0.0041914217507463
100
AcDbArc
 50
359.9266674661092
 51
90.00000000000044
  0
ARC
  5
869
330
1E
100
AcDbEntity
  8
OPTION-RB-SJ-PRS
100
AcDbCircle
 10
1.490145069936955
 20
3.369569792928876
 30
0.0
 40
0.0041914217507463
100
AcDbArc
 50
90.0
 51
180.0
  0
LWPOLYLINE
  5
86A
330
1E
100
AcDbEntity
  8
OPTION-RB-SJ-PRS
100
AcDbPolyline
 90
        2
 70
   128
 43
0.0
 10
1.515870825781446
 20
3.017280070405057
 42
0.0008240863683312
 10
1.803489069022856
 20
3.017280070405057
 42
2.821968236869615
  0
LWPOLYLINE
  5
86B
330
1E
100
AcDbEntity
  8
OPTION-RB-SJ-PRS
100
AcDbPolyline
 90
        2
 70
   128
 43
0.0
 10
1.501343384324758
 20
3.045321470271402
 42
0.0155688402775604
 10
1.818016510479545
 20
3.045321470271402
 42
4.294897269690976
  0
LWPOLYLINE
  5
86C
330
1E
100
AcDbEntity
  8
OPTION-RB-SJ-PRS
100
AcDbPolyline
 90
        6
 70
   128
 43
0.0
 10
1.697676715004759
 20
3.237929869482258
 42
0.3041142020588742
 10
1.709792164368253
 20
3.256729654350955
 10
1.721138184931311
 20
3.321753172800571
 10
1.805085343263485
 20
3.321864874448808
 10
1.811892955601319
 20
3.266670493891124
 42
0.2421582479142593
 10
1.829290161566878
 20
3.240963527009236
 42
1.371174814995273
  0
LWPOLYLINE
  5
86D
330
1E
100
AcDbEntity
  8
OPTION-RB-SJ-PRS
100
AcDbPolyline
 90
        6
 70
   128
 43
0.0
 10
1.504025004823339
 20
3.240309832414775
 42
0.3041142020588742
 10
1.516140454186832
 20
3.259109617283471
 10
1.527486474749891
 20
3.324133135733088
 10
1.601613681272882
 20
3.324133135733088
 10
1.61976728860931
 20
3.255329187469728
 42
0.2679665732332179
 10
1.646247039018579
 20
3.237469938404778
 42
1.371174814995273
  0
LWPOLYLINE
  5
86E
330
1E
100
AcDbEntity
  8
OPTION-RB-SJ-PRS
100
AcDbPolyline
 90
        3
 70
   128
 43
0.0
 10
1.471354640694561
 20
3.240962195263602
 10
1.660612911507391
 20
3.237183080215329
 10
1.848005225537124
 20
3.240958800881248
  0
LINE
  5
86F
330
1E
100
AcDbEntity
  8
OPTION-RB-SJ-PRS
100
AcDbLine
 10
1.765976226229187
 20
3.452402179631137
 30
0.0
 11
1.807921308041255
 21
3.373761214679623
 31
0.0
  0
LINE
  5
870
330
1E
100
AcDbEntity
  8
OPTION-RB-SJ-PRS
100
AcDbLine
 10
1.5533834049479
 20
3.452402179631137
 30
0.0
 11
1.511438323135832
 21
3.373761214679623
 31
0.0
  0
LINE
  5
871
330
1E
100
AcDbEntity
  8
OPTION-RB-SJ-PRS
100
AcDbLine
 10
1.673361961002317
 20
3.452402179631137
 30
0.0
 11
1.673243782369992
 21
3.360067538997919
 31
0.0
  0
LINE
  5
872
330
1E
100
AcDbEntity
  8
OPTION-RB-SJ-PRS
100
AcDbLine
 10
1.657364818490764
 20
3.452402179631137
 30
0.0
 11
1.657246666063809
 21
3.36008801362492
 31
0.0
  0
LWPOLYLINE
  5
873
330
1E
100
AcDbEntity
  8
OPTION-RB-SJ-PRS
100
AcDbPolyline
 90
        4
 70
   128
 43
0.0
 10
1.764609679066669
 20
3.453745717214394
 10
1.765976226229187
 20
3.452402179631137
 10
1.765976226229187
 20
3.426132031640758
 10
1.766060585348845
 20
3.360221055650194
  0
LWPOLYLINE
  5
874
330
1E
100
AcDbEntity
  8
OPTION-RB-SJ-PRS
100
AcDbPolyline
 90
        4
 70
   128
 43
0.0
 10
1.554749952110418
 20
3.453745717214394
 10
1.5533834049479
 20
3.452402179631137
 10
1.5533834049479
 20
3.426132031640758
 10
1.553299045828242
 20
3.360221055650194
  0
LINE
  5
875
330
1E
100
AcDbEntity
  8
OPTION-RB-SJ-PRS
100
AcDbLine
 10
1.545431267439908
 20
2.901449216361716
 30
0.0
 11
1.545431267439908
 21
2.961697998736658
 31
0.0
  0
LINE
  5
876
330
1E
100
AcDbEntity
  8
OPTION-RB-SJ-PRS
100
AcDbLine
 10
1.773928627364395
 20
2.901449216361716
 30
0.0
 11
1.773928627364395
 21
2.961697998736658
 31
0.0
  0
LWPOLYLINE
  5
877
330
1E
100
AcDbEntity
  8
OPTION-RB-SJ-PRS
100
AcDbPolyline
 90
        2
 70
   128
 43
0.0
 10
1.545431267439907
 20
2.961697998736658
 42
0.032452391362471
 10
1.773928627364395
 20
2.961697998736658
 42
1.833078206779899
  0
LWPOLYLINE
  5
878
330
1E
100
AcDbEntity
  8
OPTION-RB-SJ-PRS
100
AcDbPolyline
 90
        7
 70
   128
 43
0.0
 10
1.773928627364395
 20
2.961697998736658
 42
0.2873983003127189
 10
1.801986210857743
 20
2.992243089864947
 10
1.803489069022856
 20
3.017280070405057
 42
-0.3148458370097231
 10
1.818016510479545
 20
3.045321470271402
 42
0.1810074811729221
 10
1.833545848858153
 20
3.083878397210147
 42
0.0372106418098649
 10
1.847572354636113
 20
3.189534412978599
 10
1.849005943902639
 20
3.359842581910072
  0
LINE
  5
879
330
1E
100
AcDbEntity
  8
OPTION-RB-SJ-PRS
100
AcDbLine
 10
1.831873882376503
 20
3.369564428354097
 30
0.0
 11
1.831861467520065
 21
3.359864525037341
 31
0.0
  0
LINE
  5
87A
330
1E
100
AcDbEntity
  8
OPTION-RB-SJ-PRS
100
AcDbLine
 10
1.794347470442896
 20
3.373761214679623
 30
0.0
 11
1.827682464058801
 21
3.373761214679623
 31
0.0
  0
LINE
  5
87B
330
1E
100
AcDbEntity
  8
OPTION-RB-SJ-PRS
100
AcDbLine
 10
1.79015604869215
 20
3.359917903588705
 30
0.0
 11
1.79015604869215
 21
3.369569792928876
 31
0.0
  0
LINE
  5
87C
330
1E
100
AcDbEntity
  8
OPTION-RB-SJ-PRS
100
AcDbLine
 10
1.743997007659882
 20
3.370706616084184
 30
0.0
 11
1.743983274879214
 21
3.359976999884768
 31
0.0
  0
LINE
  5
87D
330
1E
100
AcDbEntity
  8
OPTION-RB-SJ-PRS
100
AcDbLine
 10
1.706470595726275
 20
3.374903402409708
 30
0.0
 11
1.73980558934218
 21
3.374903402409708
 31
0.0
  0
LINE
  5
87E
330
1E
100
AcDbEntity
  8
OPTION-RB-SJ-PRS
100
AcDbLine
 10
1.702279173975529
 20
3.360030376749326
 30
0.0
 11
1.702279173975529
 21
3.370711980658963
 31
0.0
  0
LINE
  5
87F
330
1E
100
AcDbEntity
  8
OPTION-RB-SJ-PRS
100
AcDbLine
 10
1.62408847267329
 20
3.369564428354097
 30
0.0
 11
1.624076556139378
 21
3.360253871489595
 31
0.0
  0
LINE
  5
880
330
1E
100
AcDbEntity
  8
OPTION-RB-SJ-PRS
100
AcDbLine
 10
1.582370638988938
 20
3.360307250678758
 30
0.0
 11
1.582370638988937
 21
3.369569792928876
 31
0.0
  0
LINE
  5
881
330
1E
100
AcDbEntity
  8
OPTION-RB-SJ-PRS
100
AcDbLine
 10
1.586562060739683
 20
3.373761214679623
 30
0.0
 11
1.619897054355589
 21
3.373761214679623
 31
0.0
  0
LINE
  5
882
330
1E
100
AcDbEntity
  8
OPTION-RB-SJ-PRS
100
AcDbLine
 10
1.527671481870562
 20
3.369564428354097
 30
0.0
 11
1.527659565336649
 21
3.360253871489595
 31
0.0
  0
LINE
  5
883
330
1E
100
AcDbEntity
  8
OPTION-RB-SJ-PRS
100
AcDbLine
 10
1.490145069936955
 20
3.373761214679623
 30
0.0
 11
1.52348006355286
 21
3.373761214679623
 31
0.0
  0
LINE
  5
884
330
1E
100
AcDbEntity
  8
OPTION-RB-SJ-PRS
100
AcDbLine
 10
1.485953648186208
 20
3.360307250678758
 30
0.0
 11
1.485953648186208
 21
3.369569792928876
 31
0.0
  0
LINE
  5
885
330
1E
100
AcDbEntity
  8
OPTION-RB-SJ-PRS
100
AcDbLine
 10
1.470349871387141
 20
3.360327221872545
 30
0.0
 11
1.849005943902639
 21
3.359842581910072
 31
0.0
  0
LWPOLYLINE
  5
886
330
1E
100
AcDbEntity
  8
OPTION-RB-SJ-PRS
100
AcDbPolyline
 90
        7
 70
   128
 43
0.0
 10
1.545431267439907
 20
2.961697998736658
 42
-0.287398300312719
 10
1.517373683946559
 20
2.992243089864947
 10
1.515870825781446
 20
3.017280070405057
 42
0.3148458370097231
 10
1.501343384324758
 20
3.045321470271402
 42
-0.1810074811729221
 10
1.485814045946149
 20
3.083878397210147
 42
-0.0372106418098649
 10
1.471787540168189
 20
3.189534412978599
 10
1.470349871387141
 20
3.360327221872545
  0
LINE
  5
887
330
1E
100
AcDbEntity
  8
OPTION-RB-SJ-PRS
100
AcDbLine
 10
1.773928627364395
 20
2.901449216361716
 30
0.0
 11
1.773928627364395
 21
2.961697998736658
 31
0.0
  0
LINE
  5
888
330
1E
100
AcDbEntity
  8
OPTION-RB-SJ-PRS
100
AcDbLine
 10
1.545431267439907
 20
2.901449216361716
 30
0.0
 11
1.545431267439907
 21
2.961697998736658
 31
0.0
  0
LINE
  5
889
330
1E
100
AcDbEntity
  8
OPTION-RB-SJ-PRS
100
AcDbLine
 10
2.70745552499514
 20
2.767115083252853
 30
0.0
 11
2.718347388356363
 21
2.765653932395616
 31
0.0
  0
LINE
  5
88A
330
1E
100
AcDbEntity
  8
OPTION-RB-SJ-PRS
100
AcDbLine
 10
2.718432906624028
 20
2.782183820346554
 30
0.0
 11
2.726439225719859
 21
2.781109767209623
 31
0.0
  0
LINE
  5
88B
330
1E
100
AcDbEntity
  8
OPTION-RB-SJ-PRS
100
AcDbLine
 10
2.706752267740571
 20
2.79698378355203
 30
0.0
 11
2.740006943237458
 21
2.792522646291638
 31
0.0
  0
LWPOLYLINE
  5
88C
330
1E
100
AcDbEntity
  8
OPTION-RB-SJ-PRS
100
AcDbPolyline
 90
       92
 70
     0
 43
0.0
 10
2.717187638605981
 20
2.751253025923373
 10
2.718171860305172
 20
2.751210081664752
 10
2.71915956458374
 20
2.751186314012549
 10
2.720149732600024
 20
2.751182619018301
 10
2.721141345474613
 20
2.751199892726337
 10
2.722133384348955
 20
2.75123903115369
 10
2.723124830374183
 20
2.751300930389629
 10
2.724114664688516
 20
2.751386486427096
 10
2.724977768907376
 20
2.751481352008597
 10
2.725838182708396
 20
2.751595576079877
 10
2.726695225642571
 20
2.751729757108066
 10
2.727548217199105
 20
2.751884493556339
 10
2.728396476925777
 20
2.752060383867751
 10
2.729239324343046
 20
2.752258026464502
 10
2.730076078967417
 20
2.752478019830618
 10
2.730906060333011
 20
2.752720962398731
 10
2.731797986788337
 20
2.753010766200654
 10
2.732681130713074
 20
2.753326980411834
 10
2.73355547849492
 20
2.753668312857172
 10
2.73442101655608
 20
2.754033471344672
 10
2.735277731263408
 20
2.754421163726538
 10
2.736125609063186
 20
2.754830097807545
 10
2.736964636294946
 20
2.755258981419046
 10
2.737684152258548
 20
2.75564592621571
 10
2.738395790877248
 20
2.756047564711426
 10
2.739098327803434
 20
2.756464587348387
 10
2.739790538654967
 20
2.756897684585668
 10
2.740471199063358
 20
2.757347546892765
 10
2.741139084667335
 20
2.75781486470145
 10
2.741792971074327
 20
2.758300328484456
 10
2.742431633950366
 20
2.758804628694396
 10
2.743053848875581
 20
2.759328455783151
 10
2.743658391529654
 20
2.759872500213761
 10
2.74419942255534
 20
2.760392683315151
 10
2.744724054473469
 20
2.760930090728012
 10
2.74523196710433
 20
2.761484156695087
 10
2.74572284023121
 20
2.762054315366034
 10
2.746196353684825
 20
2.762640000969938
 10
2.746652187238027
 20
2.763240647670102
 10
2.747090020707882
 20
2.763855689685194
 10
2.747509533894559
 20
2.764484561199376
 10
2.747910406611882
 20
2.765126696407215
 10
2.748292318635946
 20
2.765781529496114
 10
2.748654949804658
 20
2.766448494657421
 10
2.748997979883683
 20
2.76712702609217
 10
2.749321088700507
 20
2.767816558005383
 10
2.749623956052064
 20
2.768516524557131
 10
2.749906261744994
 20
2.76922635997973
 10
2.750135286609725
 20
2.769852894495225
 10
2.750347529109368
 20
2.770485764719364
 10
2.750542085349717
 20
2.771124232323306
 10
2.750718051491197
 20
2.771767559019911
 10
2.750874523650039
 20
2.772415006466669
 10
2.751010598010733
 20
2.77306583637321
 10
2.751125370668669
 20
2.773719310424336
 10
2.751217937777794
 20
2.774374690284748
 10
2.75128739548812
 20
2.775031237680948
 10
2.751332839926289
 20
2.775688214256788
 10
2.751353367228646
 20
2.77634488172834
 10
2.751348073562803
 20
2.777000501770732
 10
2.751316055037798
 20
2.777654336079199
 10
2.751256407797167
 20
2.778305646332081
 10
2.7511682279981
 20
2.778953694218157
 10
2.751058376495444
 20
2.779561091465158
 10
2.75092305327294
 20
2.780164272070358
 10
2.750762958396913
 20
2.780762576395279
 10
2.750578791906352
 20
2.781355344780587
 10
2.750371253837044
 20
2.781941917542869
 10
2.750141044220794
 20
2.782521635060535
 10
2.74988886311026
 20
2.783093837684678
 10
2.749615410551649
 20
2.783657865718224
 10
2.749321386563114
 20
2.784213059529161
 10
2.749007491221387
 20
2.784758759465346
 10
2.748674424527745
 20
2.78529430586026
 10
2.748322886548512
 20
2.785819039075416
 10
2.747953577333099
 20
2.786332299437837
 10
2.747567196896436
 20
2.786833427291409
 10
2.747164445304852
 20
2.787321762997659
 10
2.74674602257003
 20
2.787796646876405
 10
2.746312628771944
 20
2.788257419299592
 10
2.745864963922284
 20
2.788703420587038
 10
2.745389203570365
 20
2.789147100279317
 10
2.744899784019085
 20
2.789573653501824
 10
2.744397472547803
 20
2.789982357263899
 10
2.743883036419007
 20
2.790372488540381
 10
2.743357242891226
 20
2.790743324367918
 10
2.742820859237367
 20
2.791094141707697
 10
2.742274652712716
 20
2.791424217572289
 10
2.741719390582995
 20
2.79173282896061
 10
2.741155840117153
 20
2.79201925289566
 10
2.74058476857444
 20
2.792282766328197
 10
2.740006943237458
 20
2.792522646291638
  0
LWPOLYLINE
  5
88D
330
1E
100
AcDbEntity
  8
OPTION-RB-SJ-PRS
100
AcDbPolyline
 90
       99
 70
     0
 43
0.0
 10
2.718347388356367
 20
2.765653932395616
 10
2.718674828820365
 20
2.765647020963594
 10
2.719001741754451
 20
2.765648364527983
 10
2.719327968108218
 20
2.765657893992995
 10
2.719653348770203
 20
2.765675540172981
 10
2.71997772466594
 20
2.765701233975372
 10
2.720300936724908
 20
2.765734906245796
 10
2.720622825821257
 20
2.765776487874069
 10
2.720943232898131
 20
2.765825909716236
 10
2.721261998850518
 20
2.765883102634807
 10
2.72157896458706
 20
2.765947997502712
 10
2.72189397106458
 20
2.766020525186422
 10
2.722206859143539
 20
2.766100616565338
 10
2.722517469767086
 20
2.766188202495499
 10
2.72282564384388
 20
2.76628321384984
 10
2.723131222279325
 20
2.76638558147721
 10
2.723434045998944
 20
2.766495236285052
 10
2.723733955904934
 20
2.766612109098135
 10
2.724030792922817
 20
2.766736130823896
 10
2.724324397944346
 20
2.766867232300765
 10
2.724614611915919
 20
2.76700534440887
 10
2.724901275708423
 20
2.767150398013942
 10
2.725184230278669
 20
2.767302323982462
 10
2.725463316511225
 20
2.767461053190585
 10
2.725739085306551
 20
2.767626955550139
 10
2.726010645394739
 20
2.76779955742118
 10
2.726277836421215
 20
2.767978789122929
 10
2.726540498055489
 20
2.768164580971383
 10
2.726798469983951
 20
2.76835686331705
 10
2.727051591862475
 20
2.768555566465498
 10
2.727299703363788
 20
2.768760620756805
 10
2.72754264414374
 20
2.768971956496546
 10
2.727780253902401
 20
2.769189504045643
 10
2.728012372271535
 20
2.769413193712908
 10
2.728238838934305
 20
2.769642955824757
 10
2.728459493563451
 20
2.769878720721268
 10
2.728674175838921
 20
2.770120418704783
 10
2.728882725409364
 20
2.770367980118612
 10
2.729084981947525
 20
2.770621335302832
 10
2.72928078513334
 20
2.770880414559787
 10
2.729469974625903
 20
2.771145148219122
 10
2.729652390097935
 20
2.771415466620926
 10
2.729790318665462
 20
2.771630937819337
 10
2.729923594911385
 20
2.771849662904278
 10
2.730051816845131
 20
2.772071515268992
 10
2.730174582516392
 20
2.772296368423869
 10
2.730291489945025
 20
2.772524095748477
 10
2.730402137177467
 20
2.772754570729145
 10
2.730506122215974
 20
2.772987666796832
 10
2.730603043103759
 20
2.773223257413776
 10
2.730692497891221
 20
2.773461216004486
 10
2.730774084607923
 20
2.773701416020769
 10
2.730847401245678
 20
2.77394373090725
 10
2.730912045871786
 20
2.774188034122928
 10
2.730967616512577
 20
2.774434199095548
 10
2.7310137111976
 20
2.774682099276915
 10
2.731049927942764
 20
2.774931608108424
 10
2.731075864788047
 20
2.775182599028227
 10
2.731091119766228
 20
2.775434945512228
 10
2.731095290924498
 20
2.775688520960842
 10
2.731090200760467
 20
2.775897475995706
 10
2.731077462851405
 20
2.776106841211113
 10
2.731057170150228
 20
2.776316283811639
 10
2.731029415609822
 20
2.776525471001864
 10
2.730994292162259
 20
2.776734070013677
 10
2.730951892784513
 20
2.776941748048428
 10
2.730902310381327
 20
2.777148172317153
 10
2.730845637953775
 20
2.777353010017974
 10
2.730781968420243
 20
2.777555928372352
 10
2.730711394733645
 20
2.777756594584873
 10
2.730634009836448
 20
2.777954675873762
 10
2.730549906705644
 20
2.778149839440378
 10
2.730459178245982
 20
2.778341752495753
 10
2.730361917461746
 20
2.778530082262087
 10
2.730258217244027
 20
2.778714495939999
 10
2.730148170583467
 20
2.778894660741258
 10
2.73003187041931
 20
2.77907024386002
 10
2.729909409697268
 20
2.779240912538598
 10
2.729780881356587
 20
2.779406333971146
 10
2.729646378363833
 20
2.779566175372673
 10
2.729505993658251
 20
2.779720103937326
 10
2.729359820206389
 20
2.779867786880113
 10
2.729222219858602
 20
2.779996138204351
 10
2.729079997146559
 20
2.780118821816889
 10
2.728933221558012
 20
2.780235588942186
 10
2.728781962577473
 20
2.780346190780623
 10
2.728626289696662
 20
2.780450378494828
 10
2.728466272406564
 20
2.780547903333349
 10
2.728301980195652
 20
2.780638516434739
 10
2.728133482554911
 20
2.780721969047535
 10
2.727960848989711
 20
2.780798012344802
 10
2.727784148984569
 20
2.780866397526915
 10
2.727603452010355
 20
2.780926875783833
 10
2.727418827578889
 20
2.78097919833677
 10
2.727230345195546
 20
2.781023116358799
 10
2.727038074310345
 20
2.781058381067177
 10
2.7268420844423
 20
2.781084743645393
 10
2.726642445086361
 20
2.781101955280173
 10
2.726439225719859
 20
2.781109767209621
  0
LINE
  5
88E
330
1E
100
AcDbEntity
  8
OPTION-RB-SJ-PRS
100
AcDbLine
 10
2.707455513052177
 20
2.767114994226385
 30
0.0
 11
2.718432805640943
 21
2.782183743252623
 31
0.0
  0
LINE
  5
88F
330
1E
100
AcDbEntity
  8
OPTION-RB-SJ-PRS
100
AcDbLine
 10
2.717187638605981
 20
2.751253025923374
 30
0.0
 11
2.722003266074801
 21
2.725464229254365
 31
0.0
  0
LINE
  5
890
330
1E
100
AcDbEntity
  8
OPTION-RB-SJ-PRS
100
AcDbLine
 10
2.702769954840143
 20
2.728044391001348
 30
0.0
 11
2.722003266074801
 21
2.725464229254365
 31
0.0
  0
LINE
  5
891
330
1E
100
AcDbEntity
  8
OPTION-RB-SJ-PRS
100
AcDbLine
 10
2.697918726007869
 20
2.754023861319789
 30
0.0
 11
2.702769954840143
 21
2.728044391001348
 31
0.0
  0
LINE
  5
892
330
1E
100
AcDbEntity
  8
OPTION-RB-SJ-PRS
100
AcDbLine
 10
2.660647276852194
 20
2.733695176822831
 30
0.0
 11
2.706752077706944
 21
2.796983718404289
 31
0.0
  0
LINE
  5
893
330
1E
100
AcDbEntity
  8
OPTION-RB-SJ-PRS
100
AcDbLine
 10
2.681109886193256
 20
2.730950013272487
 30
0.0
 11
2.697918714061678
 21
2.754023772269241
 31
0.0
  0
LWPOLYLINE
  5
894
330
1E
100
AcDbEntity
  8
OPTION-RB-SJ-PRS
100
AcDbPolyline
 90
      102
 70
     0
 43
0.0
 10
2.617362335911805
 20
2.796150284480367
 10
2.617710410841608
 20
2.796081472514736
 10
2.61805564887195
 20
2.796024081572432
 10
2.618398046030802
 20
2.79597792781577
 10
2.618737598322024
 20
2.795942827410308
 10
2.619074301739057
 20
2.795918596535244
 10
2.619408152285773
 20
2.795905051356123
 10
2.619739145962806
 20
2.795902008014419
 10
2.620067278766838
 20
2.795909282713411
 10
2.620392546712158
 20
2.795926691604999
 10
2.620714945788974
 20
2.795954050844303
 10
2.621034472028476
 20
2.795991176617714
 10
2.621351121410447
 20
2.796037885094024
 10
2.621664889925097
 20
2.796093992428344
 10
2.621975773600381
 20
2.796159314783005
 10
2.622283768443398
 20
2.796233668347625
 10
2.622588870420273
 20
2.796316869280562
 10
2.622891075583046
 20
2.796408733740904
 10
2.623190379901077
 20
2.796509077911082
 10
2.623486779374995
 20
2.796617717932567
 10
2.62378027002557
 20
2.796734470005413
 10
2.624070847853431
 20
2.796859150271091
 10
2.624417833117649
 20
2.79702000645969
 10
2.624760558413107
 20
2.797191830751302
 10
2.625099016759863
 20
2.797374299478854
 10
2.625433201081631
 20
2.797567088988199
 10
2.625763104350315
 20
2.797769875618727
 10
2.626088719527365
 20
2.797982335723486
 10
2.626410039571022
 20
2.798204145631434
 10
2.626727057456405
 20
2.798434981706048
 10
2.627039766141747
 20
2.798674520276284
 10
2.627348158574851
 20
2.798922437684767
 10
2.627652227751696
 20
2.799178410267662
 10
2.627909181003342
 20
2.799403838790228
 10
2.628162623584779
 20
2.799634826356591
 10
2.628412221882197
 20
2.79987125956857
 10
2.628657642292204
 20
2.800113025014326
 10
2.628898551194525
 20
2.800360009247503
 10
2.62913461500266
 20
2.800612098890764
 10
2.629365500082688
 20
2.800869180487338
 10
2.629590872858518
 20
2.801131140646229
 10
2.629810399702687
 20
2.801397865958829
 10
2.630023747005347
 20
2.801669242965126
 10
2.630230581159152
 20
2.8019451583151
 10
2.630430568564662
 20
2.802225498535089
 10
2.630623375621738
 20
2.802510150237328
 10
2.630808668699672
 20
2.80279899998913
 10
2.630986114208726
 20
2.80309193438907
 10
2.631155378542295
 20
2.803388840001226
 10
2.631316128076133
 20
2.803689603441066
 10
2.631468029214045
 20
2.803994111259015
 10
2.631610748355877
 20
2.804302250067301
 10
2.631743951881354
 20
2.804613906419585
 10
2.631867306176664
 20
2.804928966917676
 10
2.631980477662502
 20
2.805247318146498
 10
2.632083132708165
 20
2.805568846673358
 10
2.632174937699839
 20
2.805893439100067
 10
2.632255559058219
 20
2.80622098201156
 10
2.632324663152609
 20
2.806551361975132
 10
2.632381916379614
 20
2.806884465578946
 10
2.632426985135855
 20
2.807220179411157
 10
2.632459535804279
 20
2.807558390049498
 10
2.632479234795161
 20
2.807898984092551
 10
2.632485586063427
 20
2.808178630679433
 10
2.632483152353073
 20
2.80845931468626
 10
2.63247193468256
 20
2.808740560917692
 10
2.632451934049515
 20
2.809021894205693
 10
2.632423151482835
 20
2.809302839341262
 10
2.632385587969706
 20
2.809582921170013
 10
2.632339244576773
 20
2.809861664490156
 10
2.632284122291228
 20
2.810138594147304
 10
2.632220222128305
 20
2.810413234922037
 10
2.632147545109704
 20
2.810685111643083
 10
2.632066092257133
 20
2.810953749139183
 10
2.631975864589065
 20
2.811218672214991
 10
2.631876863103111
 20
2.811479405702478
 10
2.631769088841827
 20
2.81173547440306
 10
2.63165254281326
 20
2.811986403135058
 10
2.63152722601503
 20
2.812231716730432
 10
2.631393139476028
 20
2.812470939980182
 10
2.631250284231613
 20
2.812703597723472
 10
2.631098661289835
 20
2.812929214778617
 10
2.630938271655502
 20
2.813147315939835
 10
2.630769116339897
 20
2.813357426049526
 10
2.630591196385569
 20
2.813559069909111
 10
2.630437801013737
 20
2.813718729757838
 10
2.630278440386397
 20
2.813872035838966
 10
2.630113115106477
 20
2.814018721284679
 10
2.629941825715098
 20
2.814158519223191
 10
2.629764572781435
 20
2.814291162717675
 10
2.629581356908417
 20
2.814416384900304
 10
2.629392178620274
 20
2.814533918864801
 10
2.629197038530384
 20
2.814643497729684
 10
2.628995937187046
 20
2.814744854585424
 10
2.628788875165896
 20
2.814837722543371
 10
2.628575853042558
 20
2.814921834714845
 10
2.628356871392659
 20
2.814996924211172
 10
2.628131930764509
 20
2.815062724122842
 10
2.627901031747394
 20
2.815118967571599
 10
2.627664174913718
 20
2.815165387644707
 10
2.627421360825437
 20
2.815201717443057
 10
2.627172590061407
 20
2.815227690102074
  0
LINE
  5
895
330
1E
100
AcDbEntity
  8
OPTION-RB-SJ-PRS
100
AcDbLine
 10
2.605299569642369
 20
2.797768512756895
 30
0.0
 11
2.617362335911805
 21
2.796150284480367
 31
0.0
  0
LWPOLYLINE
  5
896
330
1E
100
AcDbEntity
  8
OPTION-RB-SJ-PRS
100
AcDbPolyline
 90
       90
 70
     0
 43
0.0
 10
2.629082060918907
 20
2.779474227319408
 10
2.629872547582736
 20
2.779539619722634
 10
2.630654232254166
 20
2.77962997081027
 10
2.631427033990275
 20
2.779744822118447
 10
2.63219087182407
 20
2.779883715186522
 10
2.632945664809389
 20
2.780046191526552
 10
2.633691331989669
 20
2.780231792664232
 10
2.634427792414785
 20
2.780440060173436
 10
2.635154965135367
 20
2.780670535542133
 10
2.63587276920849
 20
2.780922760306449
 10
2.63658112364308
 20
2.781196276008979
 10
2.637279947533945
 20
2.78149062419305
 10
2.637969159897202
 20
2.781805346363514
 10
2.638648679789933
 20
2.7821399840565
 10
2.639439203516771
 20
2.782560548392813
 10
2.640215937988024
 20
2.783007534359613
 10
2.640978746596247
 20
2.783480183676238
 10
2.641727492699526
 20
2.783977738078908
 10
2.642462039683232
 20
2.784499439324702
 10
2.643182250956819
 20
2.785044529167458
 10
2.64388798987836
 20
2.785612249343396
 10
2.644579119857303
 20
2.786201841606358
 10
2.64525550425173
 20
2.786812547692576
 10
2.645917006467858
 20
2.787443609331797
 10
2.646563489856561
 20
2.788094268297999
 10
2.647194817848149
 20
2.788763766317693
 10
2.647810853790266
 20
2.789451345140766
 10
2.648411461092365
 20
2.790156246521065
 10
2.648996503112517
 20
2.790877712194807
 10
2.649482640991033
 20
2.791505167180994
 10
2.649956471285112
 20
2.792143648618207
 10
2.65041709398008
 20
2.792792699728637
 10
2.650863609085337
 20
2.793451863731236
 10
2.651295116569313
 20
2.794120683813691
 10
2.65171071645185
 20
2.7947987031813
 10
2.652109508715017
 20
2.795485465032176
 10
2.652490593357801
 20
2.796180512598928
 10
2.652853070386385
 20
2.796883389076438
 10
2.653196039772416
 20
2.797593637676465
 10
2.653518601532502
 20
2.798310801580236
 10
2.653819855665619
 20
2.799034424020357
 10
2.654098902143423
 20
2.799764048208598
 10
2.654354840982529
 20
2.800499217326183
 10
2.654586772178668
 20
2.801239474581632
 10
2.654793795706743
 20
2.8019843632108
 10
2.65497501158335
 20
2.802733426394911
 10
2.655129519790574
 20
2.80348620733206
 10
2.655256420327401
 20
2.804242249254873
 10
2.655354813200001
 20
2.805001095358218
 10
2.655423798380037
 20
2.80576228885387
 10
2.655462475897761
 20
2.806525372933466
 10
2.655469860258587
 20
2.807335625970775
 10
2.655443979525738
 20
2.808146816158185
 10
2.655386620630252
 20
2.808958270209093
 10
2.655299570444586
 20
2.809769314856992
 10
2.655184615927089
 20
2.810579276836118
 10
2.655043543957408
 20
2.811387482842236
 10
2.654878141435317
 20
2.812193259629697
 10
2.654690195281425
 20
2.812995933925542
 10
2.654481492413117
 20
2.813794832432726
 10
2.654253819726929
 20
2.814589281881527
 10
2.654008964119403
 20
2.815378609002212
 10
2.653710417074887
 20
2.816271811353187
 10
2.653391179310763
 20
2.8171561822835
 10
2.653050592432353
 20
2.818030431260487
 10
2.652687998082722
 20
2.818893267758672
 10
2.652302737853539
 20
2.81974340123496
 10
2.651894153363794
 20
2.820579541167113
 10
2.65146158621882
 20
2.821400397022462
 10
2.651004378048022
 20
2.822204678265109
 10
2.650521870429425
 20
2.82299109434153
 10
2.650135233550778
 20
2.823579881445593
 10
2.649733108443625
 20
2.824156878631427
 10
2.649315200311964
 20
2.824721507985
 10
2.648881214314833
 20
2.825273191622826
 10
2.648430855621727
 20
2.825811351647759
 10
2.647963829439841
 20
2.826335410169858
 10
2.647479840900933
 20
2.826844789284782
 10
2.646978595225877
 20
2.827338911113002
 10
2.646459797570488
 20
2.827817197746956
 10
2.645923153128332
 20
2.828279071286265
 10
2.64536836703438
 20
2.828723953850679
 10
2.644795144506266
 20
2.829151267536587
 10
2.644203190713489
 20
2.829560434446846
 10
2.643592210825505
 20
2.829950876684314
 10
2.642961910025471
 20
2.830322016362277
 10
2.642311993469196
 20
2.830673275573162
 10
2.641642166367132
 20
2.831004076451096
 10
2.640952133871873
 20
2.831313841064441
 10
2.640241601166547
 20
2.831601991526468
  0
LINE
  5
897
330
1E
100
AcDbEntity
  8
OPTION-RB-SJ-PRS
100
AcDbLine
 10
2.582204272840941
 20
2.762345877117927
 30
0.0
 11
2.594267039110381
 21
2.760727648841397
 31
0.0
  0
LWPOLYLINE
  5
898
330
1E
100
AcDbEntity
  8
OPTION-RB-SJ-PRS
100
AcDbPolyline
 90
       81
 70
     0
 43
0.0
 10
2.600103378370715
 20
2.741817181855315
 10
2.600941583989614
 20
2.74181684816857
 10
2.601774570953465
 20
2.741839525854121
 10
2.6026022193439
 20
2.741884853678096
 10
2.603424409180739
 20
2.741952470402652
 10
2.604241020548838
 20
2.742042014818002
 10
2.605051933468021
 20
2.742153125686298
 10
2.605857028019917
 20
2.742285441773674
 10
2.606656184227571
 20
2.742438601866368
 10
2.607449282145318
 20
2.74261224470965
 10
2.608236201847581
 20
2.742806009107388
 10
2.609016823364607
 20
2.743019533808085
 10
2.609791026757181
 20
2.743252457605176
 10
2.610558692065967
 20
2.743504419233518
 10
2.611319699341328
 20
2.743775057500188
 10
2.61207392866489
 20
2.744064011171321
 10
2.612891952642688
 20
2.744401021260258
 10
2.613701547121358
 20
2.744759087636013
 10
2.614502554568227
 20
2.745137735879208
 10
2.615294817470728
 20
2.745536491629039
 10
2.616078178329955
 20
2.745954880535127
 10
2.616852479578721
 20
2.746392428194976
 10
2.617617563745429
 20
2.746848660279063
 10
2.618373273273318
 20
2.747323102371227
 10
2.619119450673904
 20
2.747815280107443
 10
2.619855938424199
 20
2.748324719140561
 10
2.620582578970677
 20
2.748850945078512
 10
2.621299214835277
 20
2.749393483543603
 10
2.62200568848135
 20
2.749951860178265
 10
2.622701842406765
 20
2.750525600608048
 10
2.623387519047562
 20
2.751114230454527
 10
2.624062560939345
 20
2.751717275350448
 10
2.624726810528581
 20
2.752334260903724
 10
2.625273967398763
 20
2.752860883454259
 10
2.625812340289328
 20
2.753397044694303
 10
2.626340809593644
 20
2.753942857472622
 10
2.626858255732404
 20
2.754498434658813
 10
2.627363559109394
 20
2.755063889088
 10
2.627855600155725
 20
2.755639333616124
 10
2.628333259251113
 20
2.756224881081522
 10
2.628795416829902
 20
2.756820644364228
 10
2.629240953319968
 20
2.757426736296116
 10
2.629668749080171
 20
2.758043269742831
 10
2.630077684576133
 20
2.758670357543444
 10
2.630466640187566
 20
2.759308112536286
 10
2.63083449633838
 20
2.759956647615042
 10
2.631180133442803
 20
2.760616075601172
 10
2.631502431907868
 20
2.76128650935385
 10
2.631800272151012
 20
2.761968061718613
 10
2.632072534579279
 20
2.762660845554644
 10
2.632318099586031
 20
2.763364973710695
 10
2.63250304386916
 20
2.763965365045181
 10
2.632667982573155
 20
2.764572904330622
 10
2.632812553559515
 20
2.765186648896052
 10
2.632936394624701
 20
2.765805656042466
 10
2.633039143661497
 20
2.766428983057932
 10
2.633120438490444
 20
2.767055687240206
 10
2.633179916959393
 20
2.767684825907902
 10
2.633217216912963
 20
2.768315456355545
 10
2.633231976195773
 20
2.768946635877668
 10
2.633223832642026
 20
2.769577421782449
 10
2.633192424106761
 20
2.770206871350767
 10
2.633137388427409
 20
2.770834041914886
 10
2.633058363459015
 20
2.771457990755679
 10
2.632972955027368
 20
2.771980165180566
 10
2.632870066083593
 20
2.772498824422432
 10
2.632749480427757
 20
2.773013405763339
 10
2.632610981867143
 20
2.773523346447601
 10
2.632454354222681
 20
2.774028083729962
 10
2.632279381291218
 20
2.774527054868395
 10
2.632085846917762
 20
2.775019697114417
 10
2.631873534864674
 20
2.775505447742882
 10
2.631642228987369
 20
2.775983743991655
 10
2.631391713082702
 20
2.776454023118705
 10
2.631121770937109
 20
2.776915722395659
 10
2.630832186392357
 20
2.777368279049955
 10
2.630522743248535
 20
2.777811130363648
 10
2.630193225316145
 20
2.778243713605132
 10
2.629843416412888
 20
2.778665466005071
 10
2.629473100346042
 20
2.779075824807784
 10
2.629082060918907
 20
2.779474227319408
  0
LINE
  5
899
330
1E
100
AcDbEntity
  8
OPTION-RB-SJ-PRS
100
AcDbLine
 10
2.582204171847434
 20
2.762345800037654
 30
0.0
 11
2.59443109855579
 21
2.781098916755631
 31
0.0
  0
LWPOLYLINE
  5
89A
330
1E
100
AcDbEntity
  8
OPTION-RB-SJ-PRS
100
AcDbPolyline
 90
      102
 70
     0
 43
0.0
 10
2.594267039110381
 20
2.760727648841397
 10
2.594637924562286
 20
2.760664564311868
 10
2.595004777028231
 20
2.760612596682546
 10
2.595367646559528
 20
2.760571621644876
 10
2.595726583234793
 20
2.760541514911169
 10
2.596081637070802
 20
2.760522152189766
 10
2.596432858167034
 20
2.760513409165654
 10
2.596780296543507
 20
2.760515161571254
 10
2.597124002286029
 20
2.760527285081136
 10
2.597464025425046
 20
2.760549655414064
 10
2.597800416035941
 20
2.760582148258257
 10
2.598133224149168
 20
2.760624639332482
 10
2.598462499853764
 20
2.760677004335389
 10
2.598788293190593
 20
2.760739118972088
 10
2.599110654235052
 20
2.760810858930794
 10
2.599429633007159
 20
2.760892099943935
 10
2.599745279592712
 20
2.76098271768607
 10
2.600057644022178
 20
2.761082587875974
 10
2.600366776384581
 20
2.761191586212285
 10
2.600672726707148
 20
2.761309588389696
 10
2.600975545068484
 20
2.761436470120506
 10
2.601319982519374
 20
2.761593201680255
 10
2.60166042018489
 20
2.761761323210447
 10
2.60199693419962
 20
2.761940645716237
 10
2.602329600712542
 20
2.762130980127341
 10
2.602658495851779
 20
2.76233213740076
 10
2.602983695721362
 20
2.762543928496741
 10
2.603305276473503
 20
2.762766164369066
 10
2.603623314233095
 20
2.762998655950664
 10
2.603937885145144
 20
2.763241214233051
 10
2.604249065344972
 20
2.763493650135506
 10
2.604556930939841
 20
2.763755774642346
 10
2.604800849235427
 20
2.763972324951379
 10
2.605042378376526
 20
2.764194760455221
 10
2.605281202154213
 20
2.764422885615164
 10
2.605517004370001
 20
2.764656504878832
 10
2.605749468818186
 20
2.764895422731604
 10
2.605978279289847
 20
2.765139443634758
 10
2.606203119610571
 20
2.765388372032699
 10
2.606423673550575
 20
2.76564201241402
 10
2.606639624935456
 20
2.765900169223127
 10
2.606850657545858
 20
2.766162646934959
 10
2.60705645520736
 20
2.766429249993917
 10
2.607256701676549
 20
2.766699782878172
 10
2.607451080782219
 20
2.76697405005621
 10
2.607639276325883
 20
2.76725185597566
 10
2.607820972088186
 20
2.767533005111465
 10
2.607995851884298
 20
2.767817301921677
 10
2.608163599518937
 20
2.768104550878013
 10
2.608323898769533
 20
2.768394556431332
 10
2.608476433451247
 20
2.76868712303969
 10
2.608620887344719
 20
2.768982055178029
 10
2.608756944278773
 20
2.769279157314836
 10
2.608884288041256
 20
2.76957823388731
 10
2.609002602416037
 20
2.769879089394475
 10
2.609111571215057
 20
2.77018152827031
 10
2.609210878243048
 20
2.770485354986522
 10
2.609300207304735
 20
2.770790374014828
 10
2.609379242177541
 20
2.771096389806092
 10
2.609447666666206
 20
2.771403206832014
 10
2.609505164585886
 20
2.771710629550658
 10
2.609551419717224
 20
2.772018462436971
 10
2.609586115885809
 20
2.772326509935341
 10
2.609608936858633
 20
2.772634576510298
 10
2.609619566454091
 20
2.772942466643969
 10
2.609617688473687
 20
2.773249984783991
 10
2.609602986698068
 20
2.773556935405306
 10
2.609575144952812
 20
2.773863122952308
 10
2.609533847018575
 20
2.77416835189995
 10
2.60947877669686
 20
2.774472426695856
 10
2.609421774898984
 20
2.774726471435007
 10
2.609355030527852
 20
2.774979144405619
 10
2.609278719054842
 20
2.775230024032667
 10
2.609193015934424
 20
2.775478688706629
 10
2.609098096621098
 20
2.775724716817969
 10
2.60899413660706
 20
2.775967686764365
 10
2.608881311350042
 20
2.776207176960361
 10
2.608759796301284
 20
2.776442765772357
 10
2.60862976692892
 20
2.776674031601245
 10
2.60849139871476
 20
2.776900552858349
 10
2.60834486711004
 20
2.777121907910066
 10
2.608190347575706
 20
2.777337675195022
 10
2.608028015611175
 20
2.777547433073157
 10
2.607858046636416
 20
2.77775075995182
 10
2.607680616129999
 20
2.777947234218257
 10
2.607495899573716
 20
2.778136434283796
 10
2.607321021564265
 20
2.778302480272034
 10
2.607140348768639
 20
2.778461789009452
 10
2.606954014756971
 20
2.778614039558751
 10
2.606762153133884
 20
2.778758910965752
 10
2.606564897466276
 20
2.778896082269077
 10
2.60636238133146
 20
2.7790252324937
 10
2.606154738299565
 20
2.779146040702321
 10
2.605942101961568
 20
2.779258185930337
 10
2.60572460588436
 20
2.779361347216362
 10
2.605502383648498
 20
2.779455203609459
 10
2.605275568831281
 20
2.779539434134592
 10
2.605044295026936
 20
2.779613717851232
 10
2.60480869579192
 20
2.779677733811661
 10
2.604568904713985
 20
2.779731161027193
 10
2.60432505536324
 20
2.77977367856053
 10
2.604077281306596
 20
2.779804965450296
  0
LINE
  5
89B
330
1E
100
AcDbEntity
  8
OPTION-RB-SJ-PRS
100
AcDbLine
 10
2.626814050152277
 20
2.738233927131759
 30
0.0
 11
2.649072869079398
 21
2.735247891475807
 31
0.0
  0
LINE
  5
89C
330
1E
100
AcDbEntity
  8
OPTION-RB-SJ-PRS
100
AcDbLine
 10
2.594431288578991
 20
2.781098981917025
 30
0.0
 11
2.604077281306596
 21
2.779804965450296
 31
0.0
  0
LINE
  5
89D
330
1E
100
AcDbEntity
  8
OPTION-RB-SJ-PRS
100
AcDbLine
 10
2.626813872061608
 20
2.738233951010487
 30
0.0
 11
2.668063561166176
 21
2.80249122198891
 31
0.0
  0
LINE
  5
89E
330
1E
100
AcDbEntity
  8
OPTION-RB-SJ-PRS
100
AcDbLine
 10
2.617526597333809
 20
2.816521706568809
 30
0.0
 11
2.627172590061407
 21
2.815227690102074
 31
0.0
  0
LINE
  5
89F
330
1E
100
AcDbEntity
  8
OPTION-RB-SJ-PRS
100
AcDbLine
 10
2.605299480615899
 20
2.797768524699856
 30
0.0
 11
2.617526407300179
 21
2.816521641421066
 31
0.0
  0
LINE
  5
8A0
330
1E
100
AcDbEntity
  8
OPTION-RB-SJ-PRS
100
AcDbLine
 10
2.603741277670359
 20
2.836498534679563
 30
0.0
 11
2.640241601166547
 21
2.831601991526468
 31
0.0
  0
LINE
  5
8A1
330
1E
100
AcDbEntity
  8
OPTION-RB-SJ-PRS
100
AcDbLine
 10
2.546682212935995
 20
2.748983667430897
 30
0.0
 11
2.603741099593344
 21
2.836498558568712
 31
0.0
  0
LINE
  5
8A2
330
1E
100
AcDbEntity
  8
OPTION-RB-SJ-PRS
100
AcDbLine
 10
2.546682301986537
 20
2.748983655484707
 30
0.0
 11
2.600103378370715
 21
2.741817181855315
 31
0.0
  0
LINE
  5
8A3
330
1E
100
AcDbEntity
  8
OPTION-RB-SJ-PRS
100
AcDbLine
 10
2.668063650192645
 20
2.802491210045948
 30
0.0
 11
2.690322469119764
 21
2.799505174389994
 31
0.0
  0
LINE
  5
8A4
330
1E
100
AcDbEntity
  8
OPTION-RB-SJ-PRS
100
AcDbLine
 10
2.660647454929208
 20
2.733695152933676
 30
0.0
 11
2.681109987162676
 21
2.730950090355992
 31
0.0
  0
LINE
  5
8A5
330
1E
100
AcDbEntity
  8
OPTION-RB-SJ-PRS
100
AcDbLine
 10
2.649072780039276
 20
2.735247903408341
 30
0.0
 11
2.690322368150335
 21
2.799505097306485
 31
0.0
  0
LINE
  5
8A6
330
1E
100
AcDbEntity
  8
OPTION-RB-SJ-PRS
100
AcDbLine
 10
2.442076794483863
 20
2.8509348368473
 30
0.0
 11
2.452283184787792
 21
2.845940229695586
 31
0.0
  0
LINE
  5
8A7
330
1E
100
AcDbEntity
  8
OPTION-RB-SJ-PRS
100
AcDbLine
 10
2.454487470329315
 20
2.855614567602664
 30
0.0
 11
2.458819792680821
 21
2.854127007711991
 31
0.0
  0
LINE
  5
8A8
330
1E
100
AcDbEntity
  8
OPTION-RB-SJ-PRS
100
AcDbLine
 10
2.446821614864215
 20
2.84576643644311
 30
0.0
 11
2.442076717403585
 21
2.850934937840807
 31
0.0
  0
LINE
  5
8A9
330
1E
100
AcDbEntity
  8
OPTION-RB-SJ-PRS
100
AcDbLine
 10
2.458222508468713
 20
2.849675344915259
 30
0.0
 11
2.454487482275506
 21
2.855614656653213
 31
0.0
  0
ARC
  5
8AA
330
1E
100
AcDbEntity
  8
OPTION-RB-SJ-PRS
100
AcDbCircle
 10
2.524508350245309
 20
2.827667199728474
 30
0.0
 40
0.0127562163079378
100
AcDbArc
 50
324.884917526065
 51
42.18012680566525
  0
LINE
  5
8AB
330
1E
100
AcDbEntity
  8
OPTION-RB-SJ-PRS
100
AcDbLine
 10
2.499960550567383
 20
2.856765330293288
 30
0.0
 11
2.507376595351114
 21
2.851238492695025
 31
0.0
  0
LINE
  5
8AC
330
1E
100
AcDbEntity
  8
OPTION-RB-SJ-PRS
100
AcDbLine
 10
2.506182026889156
 20
2.842335167094366
 30
0.0
 11
2.49996047346303
 21
2.856765431290025
 31
0.0
  0
ARC
  5
8AD
330
1E
100
AcDbEntity
  8
OPTION-RB-SJ-PRS
100
AcDbCircle
 10
2.516315746020445
 20
2.748967374703979
 30
0.0
 40
0.0313997989532503
100
AcDbArc
 50
26.29324862376515
 51
75.68724158406531
  0
ARC
  5
8AE
330
1E
100
AcDbEntity
  8
OPTION-RB-SJ-PRS
100
AcDbCircle
 10
2.51473772957744
 20
2.767784165755416
 30
0.0
 40
0.0137905041125105
100
AcDbArc
 50
73.42585473396525
 51
139.6241228802651
  0
ARC
  5
8AF
330
1E
100
AcDbEntity
  8
OPTION-RB-SJ-PRS
100
AcDbCircle
 10
2.532435048674823
 20
2.776557479630362
 30
0.0
 40
0.0114560823034449
100
AcDbArc
 50
337.263747176565
 51
83.11490308136525
  0
ARC
  5
8B0
330
1E
100
AcDbEntity
  8
OPTION-RB-SJ-PRS
100
AcDbCircle
 10
2.526122726130245
 20
2.795799579619671
 30
0.0
 40
0.0068952520476652
100
AcDbArc
 50
144.8849175260654
 51
263.1149030813656
  0
ARC
  5
8B1
330
1E
100
AcDbEntity
  8
OPTION-RB-SJ-PRS
100
AcDbCircle
 10
2.487024690076491
 20
2.773512492988602
 30
0.0
 40
0.0110324032831364
100
AcDbArc
 50
236.5633226578655
 51
319.6241228802656
  0
LINE
  5
8B2
330
1E
100
AcDbEntity
  8
OPTION-RB-SJ-PRS
100
AcDbLine
 10
2.498103750523649
 20
2.836167775448352
 30
0.0
 11
2.506410070972292
 21
2.830521597394436
 31
0.0
  0
LINE
  5
8B3
330
1E
100
AcDbEntity
  8
OPTION-RB-SJ-PRS
100
AcDbLine
 10
2.477679988907108
 20
2.832563005571733
 30
0.0
 11
2.503728096817943
 21
2.817285747462445
 31
0.0
  0
LINE
  5
8B4
330
1E
100
AcDbEntity
  8
OPTION-RB-SJ-PRS
100
AcDbLine
 10
2.45433536249141
 20
2.851103184093401
 30
0.0
 11
2.458222508468713
 21
2.849675344915259
 31
0.0
  0
LINE
  5
8B5
330
1E
100
AcDbEntity
  8
OPTION-RB-SJ-PRS
100
AcDbLine
 10
2.471718744440101
 20
2.801639553860477
 30
0.0
 11
2.485606153307246
 21
2.7970574208276
 31
0.0
  0
LINE
  5
8B6
330
1E
100
AcDbEntity
  8
OPTION-RB-SJ-PRS
100
AcDbLine
 10
2.459014934934686
 20
2.801531117357315
 30
0.0
 11
2.47812492988895
 21
2.795341994962075
 31
0.0
  0
LINE
  5
8B7
330
1E
100
AcDbEntity
  8
OPTION-RB-SJ-PRS
100
AcDbLine
 10
2.446843141953038
 20
2.798632092109203
 30
0.0
 11
2.467733842428212
 21
2.792204086860584
 31
0.0
  0
LINE
  5
8B8
330
1E
100
AcDbEntity
  8
OPTION-RB-SJ-PRS
100
AcDbLine
 10
2.450980334010536
 20
2.849740511634172
 30
0.0
 11
2.456203009134537
 21
2.84813351031519
 31
0.0
  0
LINE
  5
8B9
330
1E
100
AcDbEntity
  8
OPTION-RB-SJ-PRS
100
AcDbLine
 10
2.518671552177889
 20
2.781001693644082
 30
0.0
 11
2.524078240505847
 21
2.779392546084029
 31
0.0
  0
LINE
  5
8BA
330
1E
100
AcDbEntity
  8
OPTION-RB-SJ-PRS
100
AcDbLine
 10
2.483532225089479
 20
2.801867609889807
 30
0.0
 11
2.49270185592979
 21
2.799277933823929
 31
0.0
  0
LINE
  5
8BB
330
1E
100
AcDbEntity
  8
OPTION-RB-SJ-PRS
100
AcDbLine
 10
2.543283392396453
 20
2.767567139639609
 30
0.0
 11
2.551177125789786
 21
2.765601814042176
 31
0.0
  0
LINE
  5
8BC
330
1E
100
AcDbEntity
  8
OPTION-RB-SJ-PRS
100
AcDbLine
 10
2.533807823259102
 20
2.787926270866693
 30
0.0
 11
2.525296132884178
 21
2.788954052272812
 31
0.0
  0
LINE
  5
8BD
330
1E
100
AcDbEntity
  8
OPTION-RB-SJ-PRS
100
AcDbLine
 10
2.504231970280826
 20
2.776717643525414
 30
0.0
 11
2.495429297514426
 21
2.766365710777422
 31
0.0
  0
LINE
  5
8BE
330
1E
100
AcDbEntity
  8
OPTION-RB-SJ-PRS
100
AcDbLine
 10
2.492701766903323
 20
2.799277945766887
 30
0.0
 11
2.468950088448275
 21
2.82829596285153
 31
0.0
  0
LINE
  5
8BF
330
1E
100
AcDbEntity
  8
OPTION-RB-SJ-PRS
100
AcDbLine
 10
2.467733842428212
 20
2.792204086860584
 30
0.0
 11
2.459014934934686
 21
2.801531117357315
 31
0.0
  0
LINE
  5
8C0
330
1E
100
AcDbEntity
  8
OPTION-RB-SJ-PRS
100
AcDbLine
 10
2.47812492988895
 20
2.795341994962075
 30
0.0
 11
2.471718744440101
 21
2.801639553860477
 31
0.0
  0
LINE
  5
8C1
330
1E
100
AcDbEntity
  8
OPTION-RB-SJ-PRS
100
AcDbLine
 10
2.455681490885299
 20
2.790195414371312
 30
0.0
 11
2.44684323099316
 21
2.798632080176671
 31
0.0
  0
LINE
  5
8C2
330
1E
100
AcDbEntity
  8
OPTION-RB-SJ-PRS
100
AcDbLine
 10
2.500351317809261
 20
2.825896218452816
 30
0.0
 11
2.505215668654811
 21
2.821618158864505
 31
0.0
  0
LINE
  5
8C3
330
1E
100
AcDbEntity
  8
OPTION-RB-SJ-PRS
100
AcDbLine
 10
2.551177214840334
 20
2.765601802095981
 30
0.0
 11
2.543000921557543
 21
2.772129822000684
 31
0.0
  0
LINE
  5
8C4
330
1E
100
AcDbEntity
  8
OPTION-RB-SJ-PRS
100
AcDbLine
 10
2.544466878828911
 20
2.762876403959099
 30
0.0
 11
2.543283368507299
 21
2.767566961562599
 31
0.0
  0
LINE
  5
8C5
330
1E
100
AcDbEntity
  8
OPTION-RB-SJ-PRS
100
AcDbLine
 10
2.452283273824683
 20
2.845940217738969
 30
0.0
 11
2.450980334010536
 21
2.849740511634172
 31
0.0
  0
LINE
  5
8C6
330
1E
100
AcDbEntity
  8
OPTION-RB-SJ-PRS
100
AcDbLine
 10
2.503728120707096
 20
2.817285925539461
 30
0.0
 11
2.500351317809261
 21
2.825896218452816
 31
0.0
  0
LINE
  5
8C7
330
1E
100
AcDbEntity
  8
OPTION-RB-SJ-PRS
100
AcDbLine
 10
2.485606076226971
 20
2.797057521821111
 30
0.0
 11
2.483532225089479
 21
2.801867609889807
 31
0.0
  0
LINE
  5
8C8
330
1E
100
AcDbEntity
  8
OPTION-RB-SJ-PRS
100
AcDbLine
 10
2.506409981921744
 20
2.830521609340626
 30
0.0
 11
2.498646617784701
 21
2.846971550947476
 31
0.0
  0
LINE
  5
8C9
330
1E
100
AcDbEntity
  8
OPTION-RB-SJ-PRS
100
AcDbLine
 10
2.505215567658072
 20
2.821618081760148
 30
0.0
 11
2.498103661473101
 21
2.836167787394542
 31
0.0
  0
LINE
  5
8CA
330
1E
100
AcDbEntity
  8
OPTION-RB-SJ-PRS
100
AcDbLine
 10
2.456202920094417
 20
2.848133522247727
 30
0.0
 11
2.45433536249141
 21
2.851103184093401
 31
0.0
  0
LINE
  5
8CB
330
1E
100
AcDbEntity
  8
OPTION-RB-SJ-PRS
100
AcDbLine
 10
2.498646795861713
 20
2.846971527058325
 30
0.0
 11
2.506182115939701
 21
2.842335155148173
 31
0.0
  0
LINE
  5
8CC
330
1E
100
AcDbEntity
  8
OPTION-RB-SJ-PRS
100
AcDbLine
 10
2.534942913821372
 20
2.820329561330587
 30
0.0
 11
2.520482421495234
 21
2.799765870650765
 31
0.0
  0
LINE
  5
8CD
330
1E
100
AcDbEntity
  8
OPTION-RB-SJ-PRS
100
AcDbLine
 10
2.458819804627014
 20
2.854127096762537
 30
0.0
 11
2.451946769359658
 21
2.870457418853642
 31
0.0
  0
LINE
  5
8CE
330
1E
100
AcDbEntity
  8
OPTION-RB-SJ-PRS
100
AcDbLine
 10
2.451946680333194
 20
2.870457430796601
 30
0.0
 11
2.477679822776281
 21
2.832563118511433
 31
0.0
  0
LINE
  5
8CF
330
1E
100
AcDbEntity
  8
OPTION-RB-SJ-PRS
100
AcDbLine
 10
2.498788057089795
 20
2.875050139204396
 30
0.0
 11
2.533961185395726
 21
2.836232534644041
 31
0.0
  0
LINE
  5
8D0
330
1E
100
AcDbEntity
  8
OPTION-RB-SJ-PRS
100
AcDbLine
 10
2.507376518257185
 20
2.851238593678107
 30
0.0
 11
2.498787980009522
 21
2.875050240197903
 31
0.0
  0
LINE
  5
8D1
330
1E
100
AcDbEntity
  8
OPTION-RB-SJ-PRS
100
AcDbLine
 10
2.468950177488401
 20
2.828295950918996
 30
0.0
 11
2.424030868439794
 21
2.851543048901051
 31
0.0
  0
LINE
  5
8D2
330
1E
100
AcDbEntity
  8
OPTION-RB-SJ-PRS
100
AcDbLine
 10
2.424030957466261
 20
2.85154303695809
 30
0.0
 11
2.446821715847297
 21
2.845766513537041
 31
0.0
  0
LINE
  5
8D3
330
1E
100
AcDbEntity
  8
OPTION-RB-SJ-PRS
100
AcDbLine
 10
2.423216641897997
 20
2.835337602274361
 30
0.0
 11
2.445475460849202
 21
2.832351566615176
 31
0.0
  0
LINE
  5
8D4
330
1E
100
AcDbEntity
  8
OPTION-RB-SJ-PRS
100
AcDbLine
 10
2.429568204312585
 20
2.798230408995957
 30
0.0
 11
2.480945669867797
 21
2.764306004215098
 31
0.0
  0
LINE
  5
8D5
330
1E
100
AcDbEntity
  8
OPTION-RB-SJ-PRS
100
AcDbLine
 10
2.429568204312585
 20
2.798230408995957
 30
0.0
 11
2.455681579911765
 21
2.79019540242835
 31
0.0
  0
LINE
  5
8D6
330
1E
100
AcDbEntity
  8
OPTION-RB-SJ-PRS
100
AcDbLine
 10
2.404225759801669
 20
2.768094206610288
 30
0.0
 11
2.445475425003428
 21
2.832351299501271
 31
0.0
  0
LINE
  5
8D7
330
1E
100
AcDbEntity
  8
OPTION-RB-SJ-PRS
100
AcDbLine
 10
2.146023561153891
 20
2.802732297311259
 30
0.0
 11
2.170677250920835
 21
2.799424988107839
 31
0.0
  0
LINE
  5
8D8
330
1E
100
AcDbEntity
  8
OPTION-RB-SJ-PRS
100
AcDbLine
 10
2.146023561153891
 20
2.802732297311259
 30
0.0
 11
2.203082536837707
 21
2.890247176506112
 31
0.0
  0
LINE
  5
8D9
330
1E
100
AcDbEntity
  8
OPTION-RB-SJ-PRS
100
AcDbLine
 10
2.216867945527623
 20
2.870270336452398
 30
0.0
 11
2.22651393826888
 21
2.868976319996094
 31
0.0
  0
LINE
  5
8DA
330
1E
100
AcDbEntity
  8
OPTION-RB-SJ-PRS
100
AcDbLine
 10
2.203082536837707
 20
2.890247176506112
 30
0.0
 11
2.243148499952256
 21
2.884872300379851
 31
0.0
  0
LINE
  5
8DB
330
1E
100
AcDbEntity
  8
OPTION-RB-SJ-PRS
100
AcDbLine
 10
2.337449302996227
 20
2.777052313581381
 30
0.0
 11
2.37869899208714
 21
2.84130958454938
 31
0.0
  0
LINE
  5
8DC
330
1E
100
AcDbEntity
  8
OPTION-RB-SJ-PRS
100
AcDbLine
 10
2.324094112632671
 20
2.778844012067593
 30
0.0
 11
2.365343801723581
 21
2.843101283035589
 31
0.0
  0
LINE
  5
8DD
330
1E
100
AcDbEntity
  8
OPTION-RB-SJ-PRS
100
AcDbLine
 10
2.337449403989734
 20
2.777052390661655
 30
0.0
 11
2.35970822293051
 21
2.774066355016128
 31
0.0
  0
LINE
  5
8DE
330
1E
100
AcDbEntity
  8
OPTION-RB-SJ-PRS
100
AcDbLine
 10
2.223484417170693
 20
2.792340780310724
 30
0.0
 11
2.28387657761915
 21
2.854029894493365
 31
0.0
  0
LINE
  5
8DF
330
1E
100
AcDbEntity
  8
OPTION-RB-SJ-PRS
100
AcDbLine
 10
2.314593848721971
 20
2.84990924236978
 30
0.0
 11
2.296493331317021
 21
2.7825464943071
 31
0.0
  0
LINE
  5
8E0
330
1E
100
AcDbEntity
  8
OPTION-RB-SJ-PRS
100
AcDbLine
 10
2.247969040899008
 20
2.789056242071937
 30
0.0
 11
2.223484340076764
 21
2.792340881293804
 31
0.0
  0
LINE
  5
8E1
330
1E
100
AcDbEntity
  8
OPTION-RB-SJ-PRS
100
AcDbLine
 10
2.296493355206169
 20
2.78254667238411
 30
0.0
 11
2.274234536279052
 21
2.785532708040062
 31
0.0
  0
LINE
  5
8E2
330
1E
100
AcDbEntity
  8
OPTION-RB-SJ-PRS
100
AcDbLine
 10
2.277685995991272
 20
2.795946203248252
 30
0.0
 11
2.257380878106036
 21
2.798670148584355
 31
0.0
  0
LINE
  5
8E3
330
1E
100
AcDbEntity
  8
OPTION-RB-SJ-PRS
100
AcDbLine
 10
2.271498488425109
 20
2.813090937266659
 30
0.0
 11
2.282863396200062
 21
2.811566327168228
 31
0.0
  0
LINE
  5
8E4
330
1E
100
AcDbEntity
  8
OPTION-RB-SJ-PRS
100
AcDbLine
 10
2.247969117992939
 20
2.789056141088849
 30
0.0
 11
2.257380854216879
 21
2.798669970507343
 31
0.0
  0
LINE
  5
8E5
330
1E
100
AcDbEntity
  8
OPTION-RB-SJ-PRS
100
AcDbLine
 10
2.277686061142242
 20
2.795946013238705
 30
0.0
 11
2.274234524336089
 21
2.785532619013599
 31
0.0
  0
LINE
  5
8E6
330
1E
100
AcDbEntity
  8
OPTION-RB-SJ-PRS
100
AcDbLine
 10
2.214691227243929
 20
2.827962677117308
 30
0.0
 11
2.219946345317702
 21
2.792815505678097
 31
0.0
  0
LINE
  5
8E7
330
1E
100
AcDbEntity
  8
OPTION-RB-SJ-PRS
100
AcDbLine
 10
2.271498476478913
 20
2.813090848216113
 30
0.0
 11
2.28944464204591
 21
2.831422416949705
 31
0.0
  0
LINE
  5
8E8
330
1E
100
AcDbEntity
  8
OPTION-RB-SJ-PRS
100
AcDbLine
 10
2.289444731086031
 20
2.831422405017165
 30
0.0
 11
2.282863384243444
 21
2.81156623813134
 31
0.0
  0
LINE
  5
8E9
330
1E
100
AcDbEntity
  8
OPTION-RB-SJ-PRS
100
AcDbLine
 10
2.28387670247773
 20
2.85403014965388
 30
0.0
 11
2.314593783584655
 21
2.849909432389754
 31
0.0
  0
LINE
  5
8EA
330
1E
100
AcDbEntity
  8
OPTION-RB-SJ-PRS
100
AcDbLine
 10
2.203282438370185
 20
2.849433443816216
 30
0.0
 11
2.216405080563782
 21
2.84767303246561
 31
0.0
  0
LINE
  5
8EB
330
1E
100
AcDbEntity
  8
OPTION-RB-SJ-PRS
100
AcDbLine
 10
2.301835293691896
 20
2.78183004771312
 30
0.0
 11
2.343084881789302
 21
2.846087241600843
 31
0.0
  0
LINE
  5
8EC
330
1E
100
AcDbEntity
  8
OPTION-RB-SJ-PRS
100
AcDbLine
 10
2.301835293691896
 20
2.78183004771312
 30
0.0
 11
2.324094112632671
 21
2.778844012067593
 31
0.0
  0
LINE
  5
8ED
330
1E
100
AcDbEntity
  8
OPTION-RB-SJ-PRS
100
AcDbLine
 10
2.170677250920835
 20
2.799424988107839
 30
0.0
 11
2.191479703728211
 21
2.831331029087676
 31
0.0
  0
LINE
  5
8EE
330
1E
100
AcDbEntity
  8
OPTION-RB-SJ-PRS
100
AcDbLine
 10
2.191479703728211
 20
2.831331029087676
 30
0.0
 11
2.196773668319288
 21
2.795924136014133
 31
0.0
  0
LINE
  5
8EF
330
1E
100
AcDbEntity
  8
OPTION-RB-SJ-PRS
100
AcDbLine
 10
2.196773757345751
 20
2.795924124071173
 30
0.0
 11
2.219946345317702
 21
2.792815505678097
 31
0.0
  0
LWPOLYLINE
  5
8F0
330
1E
100
AcDbEntity
  8
OPTION-RB-SJ-PRS
100
AcDbPolyline
 90
       92
 70
     0
 43
0.0
 10
2.214691227243929
 20
2.82796267711731
 10
2.215889369242168
 20
2.827914588696526
 10
2.217090469330542
 20
2.827898387435132
 10
2.218293358349388
 20
2.827914291180031
 10
2.219496867104556
 20
2.827962517795
 10
2.220699826384984
 20
2.828043285109321
 10
2.221901067020601
 20
2.828156810983534
 10
2.223099419814007
 20
2.828303313257348
 10
2.224159304132003
 20
2.828461082721562
 10
2.225215178015967
 20
2.828645135580932
 10
2.226266224837355
 20
2.828855623943204
 10
2.227311627956472
 20
2.82909270001568
 10
2.228350570748016
 20
2.829356515930185
 10
2.229382236569048
 20
2.829647223869948
 10
2.230405808756528
 20
2.829964975959591
 10
2.231420470694844
 20
2.830309924403193
 10
2.232425405745034
 20
2.830682221322157
 10
2.233419797240081
 20
2.831082018902923
 10
2.234402828578769
 20
2.831509469274105
 10
2.235373683107735
 20
2.831964724632562
 10
2.23633154416717
 20
2.832447937127017
 10
2.237225030671795
 20
2.832930841309918
 10
2.238105612119094
 20
2.833438437342894
 10
2.238972742990383
 20
2.833970260298668
 10
2.239825877763762
 20
2.834525845225891
 10
2.240664470906891
 20
2.835104727186852
 10
2.241487976911515
 20
2.835706441240615
 10
2.242295850242077
 20
2.83633052242541
 10
2.243087545379897
 20
2.83697650581395
 10
2.243862516816713
 20
2.837643926465307
 10
2.244620219006545
 20
2.838332319431353
 10
2.245360106444371
 20
2.83904121979523
 10
2.246081633605045
 20
2.839770162581512
 10
2.246784254945818
 20
2.840518682866139
 10
2.24746742496885
 20
2.841286315694532
 10
2.248130598145041
 20
2.842072596153069
 10
2.248773228949263
 20
2.842877059266305
 10
2.249394771862822
 20
2.843699240106974
 10
2.2499946813534
 20
2.844538673737361
 10
2.250572411899073
 20
2.845394895206116
 10
2.251127417991598
 20
2.846267439572307
 10
2.251659154098635
 20
2.847155841898231
 10
2.252167074701507
 20
2.848059637256606
 10
2.252650634275085
 20
2.848978360672
 10
2.253109287303906
 20
2.849911547241212
 10
2.253495594883664
 20
2.85075277119022
 10
2.253861082744218
 20
2.851604209283991
 10
2.254205043629276
 20
2.852465014177549
 10
2.25452677025128
 20
2.853334338566881
 10
2.254825555337062
 20
2.854211335072496
 10
2.255100691623129
 20
2.855095156387148
 10
2.255351471839561
 20
2.855984955155427
 10
2.255577188705959
 20
2.856879884035592
 10
2.255777134945211
 20
2.857779095709961
 10
2.255950603297788
 20
2.858681742809475
 10
2.256096886496981
 20
2.85958697800281
 10
2.256215277265652
 20
2.860493953972294
 10
2.256305068320209
 20
2.861401823352093
 10
2.256365552397157
 20
2.862309738834965
 10
2.256396022237001
 20
2.863216853051842
 10
2.256395770548926
 20
2.864122318674629
 10
2.256364090076655
 20
2.865025288358354
 10
2.256300273529399
 20
2.865924914774905
 10
2.256203613664519
 20
2.866820350589733
 10
2.256073403174339
 20
2.867710748440241
 10
2.255908934819458
 20
2.868595261015948
 10
2.255709501305857
 20
2.869473040964674
 10
2.255494833442775
 20
2.870273504483059
 10
2.255250621181488
 20
2.871066565060735
 10
2.254977485739041
 20
2.87185122956927
 10
2.254676048284317
 20
2.872626504886699
 10
2.254346930072098
 20
2.873391397891783
 10
2.253990752260834
 20
2.874144915476218
 10
2.253608136105322
 20
2.874886064518772
 10
2.253199702774438
 20
2.875613851897466
 10
2.252766073485227
 20
2.876327284483886
 10
2.252307869457966
 20
2.877025369173677
 10
2.251825711875194
 20
2.877707112855294
 10
2.251320221978031
 20
2.878371522397087
 10
2.250792020924946
 20
2.87901760469074
 10
2.250241729957061
 20
2.879644366604595
 10
2.249686752831978
 20
2.880233620635496
 10
2.249112096314421
 20
2.88080280618213
 10
2.248518329410785
 20
2.881351013567369
 10
2.24790602109617
 20
2.881877333155066
 10
2.247275740401037
 20
2.882380855264879
 10
2.246628056300481
 20
2.882860670260654
 10
2.245963537814548
 20
2.883315868475702
 10
2.245282753939194
 20
2.883745540246566
 10
2.244586273659937
 20
2.884148775923439
 10
2.243874666000054
 20
2.884524665863716
 10
2.243148499952256
 20
2.884872300379853
  0
LWPOLYLINE
  5
8F1
330
1E
100
AcDbEntity
  8
OPTION-RB-SJ-PRS
100
AcDbPolyline
 90
       94
 70
     0
 43
0.0
 10
2.216405080563782
 20
2.84767303246561
 10
2.216900417555825
 20
2.847716395194629
 10
2.217396033519372
 20
2.847771656757224
 10
2.217891474016941
 20
2.847838840671201
 10
2.218386284635114
 20
2.847917970451147
 10
2.218880010929942
 20
2.848009069566708
 10
2.219372198501676
 20
2.848112161542894
 10
2.219862392912813
 20
2.848227269897519
 10
2.220350139733075
 20
2.848354418110645
 10
2.220834984559467
 20
2.848493629683216
 10
2.221316472954491
 20
2.848644928133033
 10
2.221794150477438
 20
2.848808336953834
 10
2.222216481884676
 20
2.848964270260662
 10
2.222635100208807
 20
2.849129866851937
 10
2.223049683325431
 20
2.849305143379837
 10
2.223459909096503
 20
2.849490116486125
 10
2.223865455404095
 20
2.849684802871134
 10
2.224266000131
 20
2.849889219149313
 10
2.224661221145633
 20
2.850103382010576
 10
2.22505079632683
 20
2.850327308131188
 10
2.225434403543735
 20
2.850561014115161
 10
2.225811720681644
 20
2.850804516686924
 10
2.226182425599287
 20
2.851057832464145
 10
2.226546196185912
 20
2.851320978109435
 10
2.226902710296281
 20
2.851593970302281
 10
2.227251645854164
 20
2.851876825688404
 10
2.227592680676575
 20
2.8521695609401
 10
2.227925492663208
 20
2.85247219270632
 10
2.228196879614495
 20
2.852732511892484
 10
2.228461974611962
 20
2.852999650999353
 10
2.228720445578496
 20
2.853273515850018
 10
2.228971960333458
 20
2.853554012318222
 10
2.229216186786083
 20
2.853841046216632
 10
2.229452792787008
 20
2.854134523378015
 10
2.22968144619011
 20
2.854434349659236
 10
2.229901814883767
 20
2.854740430900267
 10
2.230113566729046
 20
2.85505267292023
 10
2.230316369593475
 20
2.855370981586411
 10
2.230509891338126
 20
2.855695262717922
 10
2.230693799865025
 20
2.856025422165175
 10
2.230867763011162
 20
2.856361365750516
 10
2.231031448654499
 20
2.856702999327568
 10
2.231184524645667
 20
2.857050228729118
 10
2.231326658886705
 20
2.85740295980556
 10
2.231457519228261
 20
2.857761098389666
 10
2.231576773534626
 20
2.858124550324649
 10
2.23168408968053
 20
2.858493221440049
 10
2.231779135554338
 20
2.85886701757584
 10
2.231861578972207
 20
2.85924584458169
 10
2.231931087857004
 20
2.85962960828068
 10
2.231974976351904
 20
2.859923727530537
 10
2.23201117851094
 20
2.860220192819288
 10
2.232039633708669
 20
2.860518566662607
 10
2.232060281336563
 20
2.860818411610651
 10
2.232073060734662
 20
2.861119290195968
 10
2.232077911294423
 20
2.861420764968721
 10
2.232074772400837
 20
2.861722398430918
 10
2.232063583386767
 20
2.86202375315284
 10
2.232044283674937
 20
2.862324391643682
 10
2.23201681259499
 20
2.862623876449647
 10
2.231981109535144
 20
2.862921770096825
 10
2.231937113873187
 20
2.863217635124944
 10
2.231884764976497
 20
2.863511034087411
 10
2.231824002195555
 20
2.863801529503114
 10
2.231754764942662
 20
2.864088683894899
 10
2.231676992561111
 20
2.8643720598194
 10
2.231590624439129
 20
2.864651219802701
 10
2.231495599940843
 20
2.864925726374115
 10
2.231391858433626
 20
2.865195142087042
 10
2.231279339305701
 20
2.865459029467554
 10
2.231157981907558
 20
2.865716951034562
 10
2.231027725620216
 20
2.865968469351868
 10
2.230888509828669
 20
2.866213146921481
 10
2.230740273876206
 20
2.866450546300031
 10
2.230582957154275
 20
2.866680230037684
 10
2.230416499047873
 20
2.866901760636437
 10
2.23024083890028
 20
2.867114700652925
 10
2.230055916110151
 20
2.86731861259957
 10
2.229888494483565
 20
2.867487324539514
 10
2.229714062181084
 20
2.867648675806216
 10
2.229532580027994
 20
2.867802383516276
 10
2.229344008821557
 20
2.867948164851332
 10
2.229148309349326
 20
2.868085736920798
 10
2.228945442415751
 20
2.868214816868581
 10
2.228735368811612
 20
2.868335121828159
 10
2.228518049355013
 20
2.868446368953874
 10
2.228293444819861
 20
2.868548275344705
 10
2.228061516017059
 20
2.868640558192723
 10
2.227822223758245
 20
2.868722934604099
 10
2.227575528810124
 20
2.86879512171555
 10
2.227321391990807
 20
2.868856836681406
 10
2.227059774101499
 20
2.868907796621504
 10
2.226790635922569
 20
2.868947718682981
 10
2.226513938268881
 20
2.868976319996094
  0
LINE
  5
8F2
330
1E
100
AcDbEntity
  8
OPTION-RB-SJ-PRS
100
AcDbLine
 10
2.203282361276259
 20
2.849433544799298
 30
0.0
 11
2.216867856501158
 21
2.870270348395358
 31
0.0
  0
LINE
  5
8F3
330
1E
100
AcDbEntity
  8
OPTION-RB-SJ-PRS
100
AcDbLine
 10
2.343084881789302
 20
2.846087241600843
 30
0.0
 11
2.365343700730077
 21
2.843101205955315
 31
0.0
  0
LINE
  5
8F4
330
1E
100
AcDbEntity
  8
OPTION-RB-SJ-PRS
100
AcDbLine
 10
2.381966940860893
 20
2.771080242255815
 30
0.0
 11
2.404225759801669
 21
2.768094206610288
 31
0.0
  0
LINE
  5
8F5
330
1E
100
AcDbEntity
  8
OPTION-RB-SJ-PRS
100
AcDbLine
 10
2.37869899208714
 20
2.84130958454938
 30
0.0
 11
2.400957811027915
 21
2.838323548903852
 31
0.0
  0
LINE
  5
8F6
330
1E
100
AcDbEntity
  8
OPTION-RB-SJ-PRS
100
AcDbLine
 10
2.381136711065776
 20
2.807446654389897
 30
0.0
 11
2.381967107008593
 21
2.771080129350632
 31
0.0
  0
LINE
  5
8F7
330
1E
100
AcDbEntity
  8
OPTION-RB-SJ-PRS
100
AcDbLine
 10
2.359708199020504
 20
2.77406617696643
 30
0.0
 11
2.381136610096348
 21
2.80744657730639
 31
0.0
  0
LINE
  5
8F8
330
1E
100
AcDbEntity
  8
OPTION-RB-SJ-PRS
100
AcDbLine
 10
2.400957811027915
 20
2.838323548903852
 30
0.0
 11
2.40339542902347
 21
2.804460541650439
 31
0.0
  0
LINE
  5
8F9
330
1E
100
AcDbEntity
  8
OPTION-RB-SJ-PRS
100
AcDbLine
 10
2.40339542902347
 20
2.804460541650439
 30
0.0
 11
2.423216695092351
 21
2.835337323227926
 31
0.0
  0
LINE
  5
8FA
330
1E
100
AcDbEntity
  8
OPTION-RB-SJ-PRS
100
AcDbLine
 10
1.773928627364395
 20
2.901449216361716
 30
0.0
 11
1.773928627364395
 21
2.961697998736658
 31
0.0
  0
LINE
  5
8FB
330
1E
100
AcDbEntity
  8
OPTION-RB-SJ-PRS
100
AcDbLine
 10
1.545431267439907
 20
2.901449216361716
 30
0.0
 11
1.545431267439907
 21
2.961697998736658
 31
0.0
  0
LINE
  5
8FC
330
1E
100
AcDbEntity
  8
OPTION-RB-SJ-PRS
100
AcDbLine
 10
1.773928627364395
 20
2.901449216361716
 30
0.0
 11
1.545431267439907
 21
2.901449216361716
 31
0.0
  0
LINE
  5
8FD
330
1E
100
AcDbEntity
  8
OPTION-RB-SJ-PRS
100
AcDbLine
 10
1.720405307366193
 20
2.762525640011691
 30
0.0
 11
1.778984191634785
 21
2.762541240964733
 31
0.0
  0
ARC
  5
8FE
330
1E
100
AcDbEntity
  8
OPTION-RB-SJ-PRS
100
AcDbCircle
 10
1.659679947402152
 20
2.901449216361716
 30
0.0
 40
0.1192806594570771
100
AcDbArc
 50
163.2982969753234
 51
16.51342197939964
  0
ARC
  5
8FF
330
1E
100
AcDbEntity
  8
OPTION-RB-SJ-PRS
100
AcDbCircle
 10
1.659679947402152
 20
2.901449216361716
 30
0.0
 40
0.1501061339893917
100
AcDbArc
 50
151.7581643612118
 51
28.24183563878837
  0
ARC
  5
900
330
1E
100
AcDbEntity
  8
OPTION-RB-SJ-PRS
100
AcDbCircle
 10
1.659679947402152
 20
2.901449216361716
 30
0.0
 40
0.151615729423579
100
AcDbArc
 50
151.5569566351665
 51
28.44304336483373
  0
ARC
  5
901
330
1E
100
AcDbEntity
  8
OPTION-RB-SJ-PRS
100
AcDbCircle
 10
1.659679947402152
 20
2.901449216361716
 30
0.0
 40
0.1142486799622437
100
AcDbArc
 50
179.9999999999991
 51
359.9999999999996
  0
LWPOLYLINE
  5
902
330
1E
100
AcDbEntity
  8
OPTION-RB-SJ-PRS
100
AcDbPolyline
 90
       29
 70
     0
 43
0.0
 10
1.086921758494358
 20
2.558791112726865
 10
1.079032705010765
 20
2.56002662881179
 10
1.071385771332772
 20
2.563805660551565
 10
1.064651300990776
 20
2.569797124560691
 10
1.058911650975322
 20
2.577927797022219
 10
1.054669126332246
 20
2.587485320038833
 10
1.051975735583691
 20
2.598352803316681
 10
1.051067789295895
 20
2.609578215962904
 10
1.051921939521964
 20
2.620807745829668
 10
1.054563228210969
 20
2.631688113872036
 10
1.058759910107453
 20
2.641265750686466
 10
1.064460536609476
 20
2.649423831019118
 10
1.071166221907141
 20
2.655447494046041
 10
1.078794960802685
 20
2.659263122228854
 10
1.086678003826708
 20
2.660536424071885
 10
1.09456664012361
 20
2.659300906971958
 10
1.102213573817137
 20
2.655521875232222
 10
1.108948044159091
 20
2.64953041123863
 10
1.114688111330243
 20
2.641399739760961
 10
1.118930635723466
 20
2.631842321037146
 10
1.121623609566216
 20
2.620974732467105
 10
1.122531555604156
 20
2.609749424113681
 10
1.121677405627941
 20
2.598519789954116
 10
1.119036533844742
 20
2.587639527203944
 10
1.114839852198113
 20
2.578061786096716
 10
1.109138808540391
 20
2.569903704780204
 10
1.102433123242769
 20
2.563880041737744
 10
1.094804384331691
 20
2.560064413554894
 10
1.086921758494358
 20
2.558791112726865
  0
LWPOLYLINE
  5
903
330
1E
100
AcDbEntity
  8
OPTION-RB-SJ-PRS
100
AcDbPolyline
 90
       26
 70
     0
 43
0.0
 10
1.086677832822948
 20
2.660536434131934
 10
1.08223237177989
 20
2.660926933288611
 10
1.077855096415397
 20
2.662113567992057
 10
1.073615039144333
 20
2.664077624268315
 10
1.069579068377533
 20
2.666788127692675
 10
1.065810833932168
 20
2.670202331915138
 10
1.062369763274445
 20
2.674266392733653
 10
1.059310124277435
 20
2.678916217329597
 10
1.056680169423618
 20
2.684078475016075
 10
1.054521374740232
 20
2.689671753686438
 10
1.052867785813781
 20
2.695607843787138
 10
1.051745480780927
 20
2.701793129365121
 10
1.051172159139822
 20
2.708130064556994
 10
1.051156862512195
 20
2.714518711845688
 10
1.051699832135723
 20
2.720858318174176
 10
1.052792505041758
 20
2.72704890392715
 10
1.054417649071724
 20
2.732992839631941
 10
1.056549634679066
 20
2.73859638561299
 10
1.059154839100956
 20
2.743771170387812
 10
1.062192176587219
 20
2.748435584317804
 10
1.065613746381885
 20
2.752516066591528
 10
1.069365588175589
 20
2.755948265430669
 10
1.073388533003856
 20
2.75867805284945
 10
1.077619136487087
 20
2.760662378386838
 10
1.081990679300069
 20
2.761869947934767
 10
1.087246778900731
 20
2.76235701480493
  0
LINE
  5
904
330
1E
100
AcDbEntity
  8
OPTION-RB-SJ-PRS
100
AcDbLine
 10
1.087246778900733
 20
2.76235701480493
 30
0.0
 11
1.599028593366106
 21
2.762493314499872
 31
0.0
  0
LINE
  5
905
330
1E
100
AcDbEntity
  8
OPTION-RB-SJ-PRS
100
AcDbLine
 10
1.086921758494359
 20
2.558791112726866
 30
0.0
 11
1.766903386481433
 21
2.559015789126153
 31
0.0
  0
TEXT
  5
906
330
1E
100
AcDbEntity
  8
TEXT-RB-SJ-PRS-LEADERS
100
AcDbText
 10
4.404857879999999
 20
1.522637980426257
 30
0.0
 40
0.125
  1
LATERAL PIPE
  7
ROMANS
100
AcDbText
  0
TEXT
  5
907
330
1E
100
AcDbEntity
  8
TEXT-RB-SJ-PRS-BUBBLES
100
AcDbText
 10
4.064691476294359
 20
3.846272233441173
 30
0.0
 40
0.125
  1
5
  7
ROMANS
 72
     4
 11
4.124215285818168
 21
3.908772233441173
 31
0.0
100
AcDbText
  0
CIRCLE
  5
908
330
1E
100
AcDbEntity
  8
TEXT-RB-SJ-PRS-BUBBLES
100
AcDbCircle
 10
4.124215285818168
 20
3.908772233441173
 30
0.0
 40
0.15625
  0
TEXT
  5
909
330
1E
100
AcDbEntity
  8
TEXT-RB-SJ-PRS-BUBBLES
100
AcDbText
 10
4.064691476294359
 20
4.872642733835186
 30
0.0
 40
0.125
  1
3
  7
ROMANS
 72
     4
 11
4.124215285818168
 21
4.935142733835186
 31
0.0
100
AcDbText
  0
TEXT
  5
90A
330
1E
100
AcDbEntity
  8
TEXT-RB-SJ-PRS-BUBBLES
100
AcDbText
 10
4.061715285818168
 20
4.207156243661214
 30
0.0
 40
0.125
  1
4
  7
ROMANS
 72
     4
 11
4.124215285818168
 21
4.269656243661214
 31
0.0
100
AcDbText
  0
CIRCLE
  5
90B
330
1E
100
AcDbEntity
  8
TEXT-RB-SJ-PRS-BUBBLES
100
AcDbCircle
 10
4.124215285818168
 20
4.269656243661214
 30
0.0
 40
0.15625
  0
CIRCLE
  5
90C
330
1E
100
AcDbEntity
  8
TEXT-RB-SJ-PRS-BUBBLES
100
AcDbCircle
 10
4.124215285818168
 20
4.935142733835186
 30
0.0
 40
0.15625
  0
TEXT
  5
90D
330
1E
100
AcDbEntity
  8
TEXT-RB-SJ-PRS-LEADERS
100
AcDbText
 10
4.404857879999999
 20
1.872637980426258
 30
0.0
 40
0.125
  1
PVC SCH 40 TEE OR ELL
  7
ROMANS
100
AcDbText
  0
TEXT
  5
90E
330
1E
100
AcDbEntity
  8
TEXT-RB-SJ-PRS-LEADERS
100
AcDbText
 10
4.404857879999999
 20
4.704446453457186
 30
0.0
 40
0.125
  1
  RAIN BIRD TSJ-075-PRS
  7
ROMANS
100
AcDbText
  0
TEXT
  5
90F
330
1E
100
AcDbEntity
  8
TEXT-RB-SJ-PRS-LEADERS
100
AcDbText
 10
4.404857879999999
 20
4.879446453457183
 30
0.0
 40
0.125
  1
PRE-FABRICATED SWING JOINT:
  7
ROMANS
100
AcDbText
  0
LWPOLYLINE
  5
910
330
1E
100
AcDbEntity
  8
OPTION-RB-SJ-PRS
100
AcDbPolyline
 90
        4
 70
     0
 43
0.0
 10
3.603704810500499
 20
2.800158294695918
 10
3.604406699740085
 20
2.800524971504151
 10
3.605016313364697
 20
2.800637112941398
 10
3.605477777732561
 20
2.800484440798233
  0
ARC
  5
911
330
1E
100
AcDbEntity
  8
OPTION-RB-SJ-PRS
100
AcDbCircle
 10
3.584699203642576
 20
2.773118491511493
 30
0.0
 40
0.0343605052518026
100
AcDbArc
 50
52.79111695833716
 51
112.7911169583372
  0
LWPOLYLINE
  5
912
330
1E
100
AcDbEntity
  8
OPTION-RB-SJ-PRS
100
AcDbPolyline
 90
       10
 70
     0
 43
0.0
 10
3.57302480561522
 20
2.804038913225779
 10
3.577900118235064
 20
2.805626363327427
 10
3.582613687845331
 20
2.806360871146713
 10
3.586992230538736
 20
2.806389384151169
 10
3.590910052098891
 20
2.80588415390384
 10
3.594319932999059
 20
2.805016812848085
 10
3.59725300180721
 20
2.803924094495073
 10
3.599761799040847
 20
2.802704873788061
 10
3.601896789220698
 20
2.801431810147788
 10
3.603704810500499
 20
2.800158294695918
  0
ARC
  5
913
330
1E
100
AcDbEntity
  8
OPTION-RB-SJ-PRS
100
AcDbCircle
 10
3.649219161044961
 20
2.76295795138679
 30
0.0
 40
0.0034360505251803
100
AcDbArc
 50
352.7911169583368
 51
52.79111695833716
  0
ARC
  5
914
330
1E
100
AcDbEntity
  8
OPTION-RB-SJ-PRS
100
AcDbCircle
 10
3.654952782387952
 20
2.753526991603239
 30
0.0
 40
0.0034360512982916
100
AcDbArc
 50
172.7956303121367
 51
227.9412123793367
  0
LINE
  5
915
330
1E
100
AcDbEntity
  8
OPTION-RB-SJ-PRS
100
AcDbLine
 10
3.650802807860856
 20
2.765021019953
 30
0.0
 11
3.6495240512314
 21
2.765368400220515
 31
0.0
  0
LINE
  5
916
330
1E
100
AcDbEntity
  8
OPTION-RB-SJ-PRS
100
AcDbLine
 10
3.637125045449522
 20
2.76435450181954
 30
0.0
 11
3.64839024189468
 21
2.756404551777945
 31
0.0
  0
LWPOLYLINE
  5
917
330
1E
100
AcDbEntity
  8
OPTION-RB-SJ-PRS
100
AcDbPolyline
 90
       10
 70
     0
 43
0.0
 10
3.648390241894682
 20
2.756404551777944
 10
3.648928698876725
 20
2.755594127111976
 10
3.649464875237072
 20
2.75486445447605
 10
3.649971448376004
 20
2.754258432272317
 10
3.650417883542258
 20
2.753813261105444
 10
3.650791666779744
 20
2.753537115530241
 10
3.651101246895749
 20
2.7534242566514
 10
3.651334227507017
 20
2.753480484846229
 10
3.651476705377735
 20
2.753678321928495
 10
3.651544195522657
 20
2.753957860373598
  0
LWPOLYLINE
  5
918
330
1E
100
AcDbEntity
  8
OPTION-RB-SJ-PRS
100
AcDbPolyline
 90
        4
 70
     0
 43
0.0
 10
3.6495240512314
 20
2.765368400220515
 10
3.650223362507157
 20
2.765734141485865
 10
3.650834984784364
 20
2.765847238398138
 10
3.651297018463462
 20
2.765694546322833
  0
LWPOLYLINE
  5
919
330
1E
100
AcDbEntity
  8
OPTION-RB-SJ-PRS
100
AcDbPolyline
 90
        4
 70
     0
 43
0.0
 10
3.648390242693496
 20
2.75640455809332
 10
3.647665587093426
 20
2.756048083395806
 10
3.647037140772416
 20
2.755950173819802
 10
3.646563631628279
 20
2.756119978525901
  0
LWPOLYLINE
  5
91A
330
1E
100
AcDbEntity
  8
OPTION-RB-SJ-PRS
100
AcDbPolyline
 90
        4
 70
     0
 43
0.0
 10
3.652628050495407
 20
2.76252677154777
 10
3.652485261727571
 20
2.763481982802327
 10
3.651844265160786
 20
2.764358362620472
 10
3.650802807860856
 20
2.765021019953002
  0
LINE
  5
91B
330
1E
100
AcDbEntity
  8
OPTION-RB-SJ-PRS
100
AcDbLine
 10
3.64839024189468
 20
2.756404551777945
 30
0.0
 11
3.6495240512314
 21
2.765368400220515
 31
0.0
  0
LINE
  5
91C
330
1E
100
AcDbEntity
  8
OPTION-RB-SJ-PRS
100
AcDbLine
 10
3.651544195522657
 20
2.753957860373599
 30
0.0
 11
3.652628050495406
 21
2.762526771547768
 31
0.0
  0
LINE
  5
91D
330
1E
100
AcDbEntity
  8
OPTION-RB-SJ-PRS
100
AcDbLine
 10
3.649245553575876
 20
2.786561719829546
 30
0.0
 11
3.853532531189498
 21
2.78705113701915
 31
0.0
  0
ARC
  5
91E
330
1E
100
AcDbEntity
  8
OPTION-RB-SJ-PRS
100
AcDbCircle
 10
3.628945241235254
 20
2.54790961264787
 30
0.0
 40
0.0034360505423605
100
AcDbArc
 50
117.6414266247372
 51
172.7913370363373
  0
LINE
  5
91F
330
1E
100
AcDbEntity
  8
OPTION-RB-SJ-PRS
100
AcDbLine
 10
3.624452474932835
 20
2.539771870782014
 30
0.0
 11
3.625536329892007
 21
2.548340781945654
 31
0.0
  0
LWPOLYLINE
  5
920
330
1E
100
AcDbEntity
  8
OPTION-RB-SJ-PRS
100
AcDbPolyline
 90
        3
 70
     0
 43
0.0
 10
3.624452474932835
 20
2.539771870782015
 10
3.624077300584082
 20
2.538883540937129
 10
3.6232393039284
 20
2.538194173434434
  0
LINE
  5
921
330
1E
100
AcDbEntity
  8
OPTION-RB-SJ-PRS
100
AcDbLine
 10
3.64985156688317
 20
2.53385295208511
 30
0.0
 11
3.854139126605072
 21
2.53385295208511
 31
0.0
  0
ARC
  5
922
330
1E
100
AcDbEntity
  8
OPTION-RB-SJ-PRS
100
AcDbCircle
 10
3.570362474072049
 20
2.659772917892828
 30
0.0
 40
0.1254158436880325
100
AcDbArc
 50
296.0217626079368
 51
49.56042180523715
  0
ARC
  5
923
330
1E
100
AcDbEntity
  8
OPTION-RB-SJ-PRS
100
AcDbCircle
 10
3.570362474072049
 20
2.659772917892828
 30
0.0
 40
0.1271338694316697
100
AcDbArc
 50
295.5306107216368
 51
50.05156391983714
  0
ARC
  5
924
330
1E
100
AcDbEntity
  8
OPTION-RB-SJ-PRS
100
AcDbCircle
 10
3.570362474072049
 20
2.659772917892828
 30
0.0
 40
0.1288518946942598
100
AcDbArc
 50
295.1108233003367
 51
50.4673926165372
  0
LINE
  5
925
330
1E
100
AcDbEntity
  8
OPTION-RB-SJ-PRS
100
AcDbLine
 10
3.854139126605072
 20
2.53385295208511
 30
0.0
 11
3.853532531189498
 21
2.78705113701915
 31
0.0
  0
LWPOLYLINE
  5
926
330
1E
100
AcDbEntity
  8
OPTION-RB-SJ-PRS
100
AcDbPolyline
 90
        6
 70
     0
 43
0.0
 10
3.621872504667301
 20
2.54675645021326
 10
3.608914888090114
 20
2.541840247651798
 10
3.596726685738302
 20
2.538626711700154
 10
3.584951974871057
 20
2.536719078592842
 10
3.573030244618094
 20
2.535930625141555
 10
3.560708417693821
 20
2.536301840190675
  0
LINE
  5
927
330
1E
100
AcDbEntity
  8
OPTION-RB-SJ-PRS
100
AcDbLine
 10
3.620738695320055
 20
2.537792601784264
 30
0.0
 11
3.567700142528873
 21
2.515506922559872
 31
0.0
  0
LINE
  5
928
330
1E
100
AcDbEntity
  8
OPTION-RB-SJ-PRS
100
AcDbLine
 10
3.622374617527913
 20
2.5370352758565
 30
0.0
 11
3.569336064736731
 21
2.514749596632108
 31
0.0
  0
LINE
  5
929
330
1E
100
AcDbEntity
  8
OPTION-RB-SJ-PRS
100
AcDbLine
 10
3.622066529432809
 20
2.537811097026398
 30
0.0
 11
3.620738695320055
 21
2.537792601784264
 31
0.0
  0
LWPOLYLINE
  5
92A
330
1E
100
AcDbEntity
  8
OPTION-RB-SJ-PRS
100
AcDbPolyline
 90
        4
 70
     0
 43
0.0
 10
3.621872504652057
 20
2.546756450092737
 10
3.621259426435367
 20
2.547282140161549
 10
3.62067514623957
 20
2.547533451107377
 10
3.620174264849754
 20
2.547486897988749
  0
LWPOLYLINE
  5
92B
330
1E
100
AcDbEntity
  8
OPTION-RB-SJ-PRS
100
AcDbPolyline
 90
        4
 70
     0
 43
0.0
 10
3.620738695320055
 20
2.537792601784264
 10
3.621327180314991
 20
2.537262709559084
 10
3.621889672659599
 20
2.537002312065949
 10
3.622374617527913
 20
2.5370352758565
  0
LINE
  5
92C
330
1E
100
AcDbEntity
  8
OPTION-RB-SJ-PRS
100
AcDbLine
 10
3.620738695320055
 20
2.537792601784264
 30
0.0
 11
3.621872504667301
 21
2.54675645021326
 31
0.0
  0
ARC
  5
92D
330
1E
100
AcDbEntity
  8
OPTION-RB-SJ-PRS
100
AcDbCircle
 10
3.570362474072049
 20
2.659772917892828
 30
0.0
 40
0.1340059654825767
100
AcDbArc
 50
288.4492627736368
 51
57.71710095323705
  0
ARC
  5
92E
330
1E
100
AcDbEntity
  8
OPTION-RB-SJ-PRS
100
AcDbCircle
 10
3.570362474072049
 20
2.659772917892828
 30
0.0
 40
0.1228388062751944
100
AcDbArc
 50
262.7878588799369
 51
82.79111695833721
  0
ARC
  5
92F
330
1E
100
AcDbEntity
  8
OPTION-RB-SJ-PRS
100
AcDbCircle
 10
3.570362474072049
 20
2.659772917892828
 30
0.0
 40
0.1491245928271839
100
AcDbArc
 50
228.4309445955366
 51
117.2311848542371
  0
ARC
  5
930
330
1E
100
AcDbEntity
  8
OPTION-RB-SJ-PRS
100
AcDbCircle
 10
3.570362474072049
 20
2.659772917892828
 30
0.0
 40
0.1517016306867086
100
AcDbArc
 50
226.9694111049367
 51
118.5622256057371
  0
ARC
  5
931
330
1E
100
AcDbEntity
  8
OPTION-RB-SJ-PRS
100
AcDbCircle
 10
3.621043585506498
 20
2.540203050617989
 30
0.0
 40
0.0034360505251803
100
AcDbArc
 50
292.7911169583367
 51
352.7911169583368
  0
LINE
  5
932
330
1E
100
AcDbEntity
  8
OPTION-RB-SJ-PRS
100
AcDbLine
 10
3.6232393039284
 20
2.538194173434434
 30
0.0
 11
3.622066529432809
 21
2.537811097026398
 31
0.0
  0
LWPOLYLINE
  5
933
330
1E
100
AcDbEntity
  8
OPTION-RB-SJ-PRS
100
AcDbPolyline
 90
       10
 70
     0
 43
0.0
 10
3.625536329892007
 20
2.548340781945654
 10
3.625541644981135
 20
2.548620009889083
 10
3.625459440379017
 20
2.548846044429909
 10
3.625255991483336
 20
2.548965255447168
 10
3.624926215843313
 20
2.548939233970566
 10
3.624482609617151
 20
2.548762101417988
 10
3.62392270932338
 20
2.548430787924494
 10
3.623255520122946
 20
2.547948419191742
 10
3.622546685704132
 20
2.547365005490209
 10
3.621872504667301
 20
2.54675645021326
  0
LINE
  5
934
330
1E
100
AcDbEntity
  8
OPTION-RB-SJ-PRS
100
AcDbLine
 10
3.603704810500499
 20
2.800158294695918
 30
0.0
 11
3.6495240512314
 21
2.765368400220515
 31
0.0
  0
LINE
  5
935
330
1E
100
AcDbEntity
  8
OPTION-RB-SJ-PRS
100
AcDbLine
 10
3.605477777732561
 20
2.800484440798233
 30
0.0
 11
3.651297018463462
 21
2.765694546322833
 31
0.0
  0
LWPOLYLINE
  5
936
330
1E
100
AcDbEntity
  8
OPTION-RB-SJ-PRS
100
AcDbPolyline
 90
        6
 70
     0
 43
0.0
 10
3.579950054396679
 20
2.783249236672178
 10
3.592270709286081
 20
2.781668206490782
 10
3.604173771350027
 20
2.778941347771282
 10
3.615372815714178
 20
2.775226236163493
 10
3.626195944771396
 20
2.770472237602813
 10
3.637125045449522
 20
2.76435450181954
  0
LINE
  5
937
330
1E
100
AcDbEntity
  8
OPTION-RB-SJ-PRS
100
AcDbLine
 10
3.853587302684753
 20
2.764189040093986
 30
0.0
 11
4.330114298464408
 21
2.76450462290083
 31
0.0
  0
LINE
  5
938
330
1E
100
AcDbEntity
  8
OPTION-RB-SJ-PRS
100
AcDbLine
 10
3.854074838209377
 20
2.560687485754082
 30
0.0
 11
4.330601807663432
 21
2.561014057094945
 31
0.0
  0
TEXT
  5
939
330
1E
100
AcDbEntity
  8
TEXT-RB-SJ-PRS-BUBBLES
100
AcDbText
 10
3.989774472943089
 20
1.842625615152663
 30
0.0
 40
0.125
  1
4
  7
ROMANS
 72
     4
 11
4.052274472943089
 21
1.905125615152663
 31
0.0
100
AcDbText
  0
LEADER
  5
93A
330
1E
100
AcDbEntity
  8
TEXT-RB-SJ-PRS-BUBBLES
100
AcDbLeader
  3
Standard
 76
     2
 10
3.779979997486516
 20
2.534012355488346
 30
0.0
 10
3.981574650712258
 20
2.044465478926562
 30
0.0
1001
ACAD
1000
DSTYLE
1002
{
1070
   340
1005
0
1070
   287
1070
     5
1002
}
  0
CIRCLE
  5
93B
330
1E
100
AcDbEntity
  8
TEXT-RB-SJ-PRS-BUBBLES
100
AcDbCircle
 10
4.052274472943089
 20
1.905125615152663
 30
0.0
 40
0.15625
  0
LWPOLYLINE
  5
93C
330
1E
100
AcDbEntity
  8
OPTION-RB-SJ-PRS
100
AcDbPolyline
 90
       29
 70
     0
 43
0.0
 10
4.330358043924158
 20
2.662759329506265
 10
4.338181328339764
 20
2.664032488168053
 10
4.345751977311595
 20
2.667847977198413
 10
4.352406768717798
 20
2.673871518297128
 10
4.358064427441279
 20
2.682029495674894
 10
4.36222919612848
 20
2.691607160327171
 10
4.364850148375527
 20
2.702487375355442
 10
4.365697623986776
 20
2.713716889231606
 10
4.364796248021001
 20
2.724942317618569
 10
4.362123298257026
 20
2.735809849883109
 10
4.357912686573407
 20
2.745367449339139
 10
4.352216004336497
 20
2.753498224755556
 10
4.345532427886007
 20
2.759489810677357
 10
4.337943584131684
 20
2.763268981585116
 10
4.330114289256504
 20
2.764504640851286
 10
4.3222911091182
 20
2.763231482423784
 10
4.314720355869072
 20
2.759415993159135
 10
4.308065564447331
 20
2.753392452060384
 10
4.302407905739427
 20
2.745234474667124
 10
4.298243137052186
 20
2.735656810030382
 10
4.295622289097979
 20
2.724776595236432
 10
4.294774709428256
 20
2.713546976817575
 10
4.295676085159705
 20
2.702321652723447
 10
4.298349034923645
 20
2.691454120474442
 10
4.3025596466073
 20
2.681896521002877
 10
4.308256328828635
 20
2.673765745601959
 10
4.314939905294665
 20
2.667774159680193
 10
4.322528853326282
 20
2.663994989006721
 10
4.330358043924158
 20
2.662759329506265
  0
LWPOLYLINE
  5
93D
330
1E
100
AcDbEntity
  8
OPTION-RB-SJ-PRS
100
AcDbPolyline
 90
       26
 70
     0
 43
0.0
 10
4.330601807663432
 20
2.561014057094945
 10
4.335079250388799
 20
2.561425933183639
 10
4.339484158914906
 20
2.56263360780049
 10
4.343747064991371
 20
2.564618035098694
 10
4.34780073986831
 20
2.567347919439067
 10
4.351581254533373
 20
2.570780208780113
 10
4.355028987823338
 20
2.5748607737265
 10
4.358089566794321
 20
2.579525261154079
 10
4.360714724159351
 20
2.584700109140287
 10
4.362863059504206
 20
2.590303706997536
 10
4.36450069222375
 20
2.596247682439212
 10
4.365601795774339
 20
2.602438295146935
 10
4.366149005076416
 20
2.60877791520532
 10
4.366133690289187
 20
2.615166562776715
 10
4.365556092914459
 20
2.621503484789196
 10
4.36442532205192
 20
2.627688743933954
 10
4.362759210680083
 20
2.633624794729513
 10
4.360584034429779
 20
2.639218021866829
 10
4.357934097226943
 20
2.644380216566609
 10
4.354851190260079
 20
2.649029967725788
 10
4.351383932961986
 20
2.653093945800655
 10
4.347587006197671
 20
2.65650805925715
 10
4.343520289896096
 20
2.659218465334476
 10
4.339247918802396
 20
2.661182419232731
 10
4.334837270938374
 20
2.662368948105379
 10
4.330357905012885
 20
2.662759339643198
  0
LINE
  5
93E
330
1E
100
AcDbEntity
  8
OPTION-RB-SJ-PRS
100
AcDbLine
 10
2.733656113928664
 20
2.723900991799057
 30
0.0
 11
2.775499401191616
 21
2.788078631181925
 31
0.0
  0
LINE
  5
93F
330
1E
100
AcDbEntity
  8
OPTION-RB-SJ-PRS
100
AcDbLine
 10
2.7336562919816
 20
2.723900967913133
 30
0.0
 11
2.77817392985992
 21
2.71792889659799
 31
0.0
  0
LINE
  5
940
330
1E
100
AcDbEntity
  8
OPTION-RB-SJ-PRS
100
AcDbLine
 10
2.7691783519002
 20
2.737263177610587
 30
0.0
 11
2.776110994597027
 21
2.736333158890796
 31
0.0
  0
LINE
  5
941
330
1E
100
AcDbEntity
  8
OPTION-RB-SJ-PRS
100
AcDbLine
 10
2.769178173823188
 20
2.737263201499738
 30
0.0
 11
2.789284720868715
 21
2.768101803081599
 31
0.0
  0
LWPOLYLINE
  5
942
330
1E
100
AcDbEntity
  8
OPTION-RB-SJ-PRS
100
AcDbPolyline
 90
       97
 70
     0
 43
0.0
 10
2.77817392985992
 20
2.71792889659799
 10
2.778966435920014
 20
2.717793943757434
 10
2.779752163289995
 20
2.717698632178518
 10
2.780531158009027
 20
2.717641518080264
 10
2.78130346615726
 20
2.717621157712964
 10
2.782069133808369
 20
2.717636107278749
 10
2.7828282070184
 20
2.717684923031143
 10
2.783580731857811
 20
2.7177661611482
 10
2.784326754396319
 20
2.717878377893867
 10
2.785066320710822
 20
2.718020129494349
 10
2.785799476850923
 20
2.71818997215502
 10
2.786526268883099
 20
2.718386462115738
 10
2.787610001927592
 20
2.718729851537502
 10
2.788679534167845
 20
2.719125573076445
 10
2.789735023435748
 20
2.719568680247911
 10
2.790776627566427
 20
2.720054226591323
 10
2.791804504402175
 20
2.720577265608375
 10
2.792818811750813
 20
2.721132850817646
 10
2.793819707457876
 20
2.721716035744902
 10
2.794807349344828
 20
2.72232187391915
 10
2.795781895264412
 20
2.722945418828418
 10
2.797136343169636
 20
2.723849055506509
 10
2.798465831036803
 20
2.724778634119894
 10
2.799771206319063
 20
2.725734643857382
 10
2.801053316569116
 20
2.726717573918945
 10
2.802313009264207
 20
2.727727913490157
 10
2.803551131895232
 20
2.728766151767028
 10
2.804768531973928
 20
2.729832777918252
 10
2.805966056994423
 20
2.730928281163912
 10
2.807144554492531
 20
2.732053150669476
 10
2.808304871924646
 20
2.733207875647831
 10
2.809157105082251
 20
2.734087161720607
 10
2.809998205621746
 20
2.734983009163276
 10
2.810826647838855
 20
2.735895160167121
 10
2.811640906028549
 20
2.736823357009321
 10
2.812439454465692
 20
2.737767341908465
 10
2.813220767438799
 20
2.738726857093577
 10
2.813983319236394
 20
2.739701644793674
 10
2.814725584163875
 20
2.740691447272271
 10
2.815446036506533
 20
2.741696006734319
 10
2.816143150532028
 20
2.74271506543613
 10
2.816815400549734
 20
2.743748365579427
 10
2.817461260840966
 20
2.744795649430956
 10
2.818079205704679
 20
2.745856659206078
 10
2.818667709408529
 20
2.746931137161124
 10
2.819225246275539
 20
2.748018825508227
 10
2.819750290559731
 20
2.749119466493291
 10
2.820241316560043
 20
2.750232802331675
 10
2.82069679858187
 20
2.751358575286904
 10
2.821115210913739
 20
2.752496527587997
 10
2.821495027816848
 20
2.753646401443122
 10
2.821834723607032
 20
2.754807939102149
 10
2.822132772562389
 20
2.755980882807745
 10
2.822387648974652
 20
2.757164974813008
 10
2.822597827125879
 20
2.758359957298806
 10
2.822726663919089
 20
2.759275126058795
 10
2.82282769233793
 20
2.760195129470583
 10
2.82289980629797
 20
2.76111865999932
 10
2.82294189963606
 20
2.762044410071671
 10
2.822952866233268
 20
2.762971072169688
 10
2.82293159997137
 20
2.763897338689503
 10
2.822876994717777
 20
2.764821902102727
 10
2.822787944333417
 20
2.765743454832808
 10
2.822663342709775
 20
2.766660689348125
 10
2.822502083731872
 20
2.767572298068903
 10
2.822303061215711
 20
2.768476973449126
 10
2.822065169087276
 20
2.769373407940294
 10
2.821787301197091
 20
2.770260293979503
 10
2.821468351433393
 20
2.77113632401106
 10
2.82117225419435
 20
2.771853327998895
 10
2.820848012796782
 20
2.772560887299692
 10
2.820496476174114
 20
2.773257916448939
 10
2.820118493259792
 20
2.773943329982113
 10
2.819714912973587
 20
2.774616042424259
 10
2.819286584224863
 20
2.775274968314096
 10
2.818834355957465
 20
2.775919022173439
 10
2.818359077073563
 20
2.776547118578744
 10
2.817861596537855
 20
2.777158172024508
 10
2.817342763225203
 20
2.777751097066334
 10
2.81680342609311
 20
2.778324808236475
 10
2.816244434037279
 20
2.778878220063205
 10
2.815666636015225
 20
2.779410247078775
 10
2.815070880925872
 20
2.779919803835554
 10
2.814458017702662
 20
2.780405804869015
 10
2.813828895262143
 20
2.780867164680132
 10
2.813184362554621
 20
2.781302797838891
 10
2.812525268475805
 20
2.781711618873576
 10
2.81185246194548
 20
2.782092542309242
 10
2.811166791910726
 20
2.782444482691782
 10
2.810469107280891
 20
2.782766354559922
 10
2.809760256986194
 20
2.783057072425043
 10
2.80901853731812
 20
2.78332307092256
 10
2.808266779067282
 20
2.783553600645682
 10
2.807505912958376
 20
2.783747471513675
 10
2.806736869719347
 20
2.783903493469884
 10
2.805960580102219
 20
2.784020476454431
 10
2.805177974821273
 20
2.78409723040023
  0
LWPOLYLINE
  5
943
330
1E
100
AcDbEntity
  8
OPTION-RB-SJ-PRS
100
AcDbPolyline
 90
       95
 70
     0
 43
0.0
 10
2.776110994597027
 20
2.736333158890796
 10
2.776694989321033
 20
2.736305622738717
 10
2.777271170894389
 20
2.736297322299646
 10
2.777839705546412
 20
2.736307825398089
 10
2.77840075954737
 20
2.73633669988981
 10
2.778954499181193
 20
2.736383513641015
 10
2.779501090701272
 20
2.736447834472953
 10
2.780040700391544
 20
2.736529230251842
 10
2.780573494494957
 20
2.736627268812594
 10
2.781099639271375
 20
2.736741518024643
 10
2.78161930102558
 20
2.736871545726873
 10
2.782132646000535
 20
2.737016919754204
 10
2.782639840442428
 20
2.737177207965648
 10
2.783141050659277
 20
2.737351978224158
 10
2.783636442880386
 20
2.737540798354246
 10
2.784295691291617
 20
2.737816963767349
 10
2.784945066179639
 20
2.73811684191946
 10
2.785584975506695
 20
2.738439372477065
 10
2.786215827231763
 20
2.738783495082584
 10
2.786838029303424
 20
2.739148149392091
 10
2.787451989704756
 20
2.739532275044764
 10
2.788058116384315
 20
2.739934811696685
 10
2.788656817301123
 20
2.740354698990262
 10
2.789248500403724
 20
2.740790876581564
 10
2.789833573678445
 20
2.741242284133863
 10
2.790412445046538
 20
2.741707861282373
 10
2.790985522504735
 20
2.742186547676711
 10
2.791553213991185
 20
2.742677282986599
 10
2.79211592748573
 20
2.743179006827144
 10
2.792674070929747
 20
2.743690658892154
 10
2.793228052279008
 20
2.744211178799957
 10
2.793778279519814
 20
2.744739506213829
 10
2.794325160587082
 20
2.745274580779407
 10
2.794869103439812
 20
2.74581534213911
 10
2.795271028884206
 20
2.74621999380741
 10
2.795670284142059
 20
2.74662758577756
 10
2.796065593646035
 20
2.747038508458654
 10
2.796455681798265
 20
2.747453152214851
 10
2.796839273017752
 20
2.747871907444821
 10
2.797215091706628
 20
2.748295164512721
 10
2.797581862259825
 20
2.748723313820446
 10
2.797938309093123
 20
2.749156745742588
 10
2.798283156635959
 20
2.749595850664155
 10
2.798615129269613
 20
2.750041018976616
 10
2.798932951409864
 20
2.750492641054553
 10
2.799235347486155
 20
2.750951107282986
 10
2.799521041879759
 20
2.751416808053384
 10
2.799788759020101
 20
2.751890133750754
 10
2.800037223298895
 20
2.752371474752913
 10
2.800265159131925
 20
2.75286122143445
 10
2.800471290938197
 20
2.753359764194032
 10
2.800654343123071
 20
2.753867493419893
 10
2.800813040078248
 20
2.754384799489856
 10
2.800946106229931
 20
2.754912072764848
 10
2.80105226597629
 20
2.755449703670846
 10
2.801110237387625
 20
2.75583427251188
 10
2.801154354561269
 20
2.756223462941376
 10
2.801184715772592
 20
2.756616575344101
 10
2.801201419262487
 20
2.757012910121686
 10
2.801204563302372
 20
2.757411767720707
 10
2.801194246150757
 20
2.757812448491431
 10
2.801170566054974
 20
2.758214252883651
 10
2.801133621276772
 20
2.75861648127171
 10
2.801083510060252
 20
2.759018434081331
 10
2.801020330694462
 20
2.75941941170769
 10
2.800944181396205
 20
2.759818714555676
 10
2.800855160454515
 20
2.760215643020464
 10
2.800753366113515
 20
2.760609497527784
 10
2.800638896638172
 20
2.760999578476049
 10
2.800511850269359
 20
2.761385186266904
 10
2.800372325285697
 20
2.761765621309186
 10
2.800220419928074
 20
2.762140184004546
 10
2.800056232451023
 20
2.76250817476505
 10
2.799879861129936
 20
2.762868893975455
 10
2.799691404198492
 20
2.76322164207515
 10
2.799490959942515
 20
2.763565719435228
 10
2.799278626606114
 20
2.763900426481423
 10
2.799054502430171
 20
2.764225063615378
 10
2.798818685679648
 20
2.764538931235505
 10
2.798571274622743
 20
2.764841329764299
 10
2.798312367521193
 20
2.765131559576097
 10
2.798042062595019
 20
2.765408921099854
 10
2.797760458157346
 20
2.765672714727527
 10
2.797500513632164
 20
2.765895424945448
 10
2.797231772945339
 20
2.766106350452137
 10
2.796954305286111
 20
2.76630499867036
 10
2.796668179854124
 20
2.766490877009228
 10
2.796373465811283
 20
2.766663492870652
 10
2.796070232357258
 20
2.766822353663747
 10
2.795758548653949
 20
2.766966966790421
 10
2.795438483904244
 20
2.767096839683867
 10
2.795110107290909
 20
2.767211479718694
 10
2.79477348800316
 20
2.767310394317657
 10
2.794428695202927
 20
2.76739309088268
 10
2.794075798089846
 20
2.767459076822869
  0
LINE
  5
944
330
1E
100
AcDbEntity
  8
OPTION-RB-SJ-PRS
100
AcDbLine
 10
2.789284809895181
 20
2.768101791138636
 30
0.0
 11
2.794075798089846
 21
2.767459076822869
 31
0.0
  0
LINE
  5
945
330
1E
100
AcDbEntity
  8
OPTION-RB-SJ-PRS
100
AcDbLine
 10
2.775499579268628
 20
2.788078607292773
 30
0.0
 11
2.805177974821273
 21
2.78409723040023
 31
0.0
  0
LINE
  5
946
330
1E
100
AcDbEntity
  8
OPTION-RB-SJ-PRS
100
AcDbLine
 10
3.406045295268662
 20
2.527733125649194
 30
0.0
 11
3.105624370536393
 21
2.565732435350549
 31
0.0
  0
LINE
  5
947
330
1E
100
AcDbEntity
  8
OPTION-RB-SJ-PRS
100
AcDbLine
 10
3.570953189644921
 20
2.783515752202495
 30
0.0
 11
3.579950054396679
 21
2.783249236672178
 31
0.0
  0
LWPOLYLINE
  5
948
330
1E
100
AcDbEntity
  8
OPTION-RB-SJ-PRS
100
AcDbPolyline
 90
        4
 70
     0
 43
0.0
 10
3.57302480561522
 20
2.804038913225779
 10
3.572436330060361
 20
2.80456879818336
 10
3.571873836514933
 20
2.804829200897839
 10
3.57138888338326
 20
2.804796239156594
  0
LINE
  5
949
330
1E
100
AcDbEntity
  8
OPTION-RB-SJ-PRS
100
AcDbLine
 10
3.532360288829837
 20
2.788397248374344
 30
0.0
 11
3.571388883383263
 21
2.804796239156594
 31
0.0
  0
LINE
  5
94A
330
1E
100
AcDbEntity
  8
OPTION-RB-SJ-PRS
100
AcDbLine
 10
3.535003047838125
 20
2.788062973983204
 30
0.0
 11
3.57302480561522
 21
2.804038913225779
 31
0.0
  0
LINE
  5
94B
330
1E
100
AcDbEntity
  8
OPTION-RB-SJ-PRS
100
AcDbLine
 10
3.468972868712254
 20
2.798950962717359
 30
0.0
 11
3.447523154644203
 21
2.826612621847803
 31
0.0
  0
ARC
  5
94C
330
1E
100
AcDbEntity
  8
OPTION-RB-SJ-PRS
100
AcDbCircle
 10
3.475761216262668
 20
2.804214859335575
 30
0.0
 40
0.0085901263129507
100
AcDbArc
 50
217.7911169583366
 51
262.7911169583367
  0
ARC
  5
94D
330
1E
100
AcDbEntity
  8
OPTION-RB-SJ-PRS
100
AcDbCircle
 10
3.443450146113955
 20
2.823454283876874
 30
0.0
 40
0.0051540757877704
100
AcDbArc
 50
37.79111695833715
 51
82.79111695833721
  0
LINE
  5
94E
330
1E
100
AcDbEntity
  8
OPTION-RB-SJ-PRS
100
AcDbLine
 10
3.585777153235556
 20
2.781640715101449
 30
0.0
 11
3.474683266659156
 21
2.795692635759196
 31
0.0
  0
LINE
  5
94F
330
1E
100
AcDbEntity
  8
OPTION-RB-SJ-PRS
100
AcDbLine
 10
3.467794415712255
 20
2.800470701632473
 30
0.0
 11
3.513165083422043
 21
2.800470701632473
 31
0.0
  0
ARC
  5
950
330
1E
100
AcDbEntity
  8
OPTION-RB-SJ-PRS
100
AcDbCircle
 10
3.556025744501523
 20
2.54642734427416
 30
0.0
 40
0.0343605052518026
100
AcDbArc
 50
232.7911169583366
 51
292.7911169583367
  0
LWPOLYLINE
  5
951
330
1E
100
AcDbEntity
  8
OPTION-RB-SJ-PRS
100
AcDbPolyline
 90
       10
 70
     0
 43
0.0
 10
3.567700142528873
 20
2.515506922559872
 10
3.565631582199011
 20
2.514723563493569
 10
3.563246872893881
 20
2.514022224861282
 10
3.56051379257313
 20
2.513466146330371
 10
3.557401373602789
 20
2.513138175624442
 10
3.553883190163072
 20
2.513147131382678
 10
3.549963065983173
 20
2.513633223106513
 10
3.545729458851031
 20
2.5147509764012
 10
3.541347006571906
 20
2.516635992369793
 10
3.537020137643602
 20
2.519387541089738
  0
LINE
  5
952
330
1E
100
AcDbEntity
  8
OPTION-RB-SJ-PRS
100
AcDbLine
 10
3.537020137643602
 20
2.519387541089738
 30
0.0
 11
3.504173689514165
 21
2.544327379590066
 31
0.0
  0
LWPOLYLINE
  5
953
330
1E
100
AcDbEntity
  8
OPTION-RB-SJ-PRS
100
AcDbPolyline
 90
        4
 70
     0
 43
0.0
 10
3.567700142528873
 20
2.515506922559872
 10
3.568288627391376
 20
2.514977030449407
 10
3.568851119750945
 20
2.51471663288091
 10
3.569336064736731
 20
2.514749596632108
  0
LWPOLYLINE
  5
954
330
1E
100
AcDbEntity
  8
OPTION-RB-SJ-PRS
100
AcDbPolyline
 90
        4
 70
     0
 43
0.0
 10
3.537020137643602
 20
2.519387541089738
 10
3.536318248407062
 20
2.519020864305608
 10
3.535708634768874
 20
2.518908722857832
 10
3.535247170425114
 20
2.519061394997944
  0
LWPOLYLINE
  5
955
330
1E
100
AcDbEntity
  8
OPTION-RB-SJ-PRS
100
AcDbPolyline
 90
        3
 70
     0
 43
0.0
 10
3.560708417693821
 20
2.536301840190675
 10
3.548394694243705
 20
2.537888284967711
 10
3.540187201876165
 20
2.539772142264642
  0
ARC
  5
956
330
1E
100
AcDbEntity
  8
OPTION-RB-SJ-PRS
100
AcDbCircle
 10
3.442775958755781
 20
2.543434817786626
 30
0.0
 40
0.0085901263129507
100
AcDbArc
 50
82.79111695833732
 51
127.7911169583374
  0
ARC
  5
957
330
1E
100
AcDbEntity
  8
OPTION-RB-SJ-PRS
100
AcDbCircle
 10
3.406692065036202
 20
2.532846459799234
 30
0.0
 40
0.0051540757877704
100
AcDbArc
 50
262.7911169583367
 51
307.7911169583375
  0
LINE
  5
958
330
1E
100
AcDbEntity
  8
OPTION-RB-SJ-PRS
100
AcDbLine
 10
3.437512062137569
 20
2.550223165337039
 30
0.0
 11
3.409850403007129
 21
2.528773451268986
 31
0.0
  0
LINE
  5
959
330
1E
100
AcDbEntity
  8
OPTION-RB-SJ-PRS
100
AcDbLine
 10
3.410492893289094
 20
2.53385295208511
 30
0.0
 11
3.485760187081743
 21
2.53385295208511
 31
0.0
  0
LINE
  5
95A
330
1E
100
AcDbEntity
  8
OPTION-RB-SJ-PRS
100
AcDbLine
 10
3.55494779491159
 20
2.537905120708307
 30
0.0
 11
3.443853908348767
 21
2.551957041376581
 31
0.0
  0
LINE
  5
95B
330
1E
100
AcDbEntity
  8
OPTION-RB-SJ-PRS
100
AcDbLine
 10
3.535247170425114
 20
2.519061394997944
 30
0.0
 11
3.501530930505867
 21
2.544661653981204
 31
0.0
  0
LINE
  5
95C
330
1E
100
AcDbEntity
  8
OPTION-RB-SJ-PRS
100
AcDbLine
 10
3.406045295268662
 20
2.527733125649194
 30
0.0
 11
3.444096915857386
 21
2.828567618029961
 31
0.0
  0
LINE
  5
95D
330
1E
100
AcDbEntity
  8
OPTION-RB-SJ-PRS
100
AcDbLine
 10
3.447523154644203
 20
2.826612621847803
 30
0.0
 11
3.409850403007129
 21
2.528773451268986
 31
0.0
  0
LINE
  5
95E
330
1E
100
AcDbEntity
  8
OPTION-RB-SJ-PRS
100
AcDbLine
 10
3.437512062137569
 20
2.550223165337039
 30
0.0
 11
3.468972868712254
 21
2.798950962717359
 31
0.0
  0
LINE
  5
95F
330
1E
100
AcDbEntity
  8
OPTION-RB-SJ-PRS
100
AcDbLine
 10
3.443853908348767
 20
2.551957041376581
 30
0.0
 11
3.474683266659156
 21
2.795692635759196
 31
0.0
  0
TEXT
  5
960
330
1E
100
AcDbEntity
  8
TEXT-RB-SJ-PRS-BUBBLES
100
AcDbText
 10
3.087323154170881
 20
3.597853135494964
 30
0.0
 40
0.125
  1
3
  7
ROMANS
 72
     4
 11
3.14684696369469
 21
3.660353135494964
 31
0.0
100
AcDbText
  0
CIRCLE
  5
961
330
1E
100
AcDbEntity
  8
TEXT-RB-SJ-PRS-BUBBLES
100
AcDbCircle
 10
3.14684696369469
 20
3.660353135494964
 30
0.0
 40
0.15625
  0
ARC
  5
962
330
1E
100
AcDbEntity
  8
OPTION-RB-SJ-PRS
100
AcDbCircle
 10
3.143352606248135
 20
2.86401026066156
 30
0.0
 40
0.0025770378938852
100
AcDbArc
 50
82.79111695833732
 51
172.7911169583373
  0
ARC
  5
963
330
1E
100
AcDbEntity
  8
OPTION-RB-SJ-PRS
100
AcDbCircle
 10
3.106221967539243
 20
2.864810443301269
 30
0.0
 40
0.0034360505251803
100
AcDbArc
 50
352.7911169583369
 51
82.79111695833732
  0
LINE
  5
964
330
1E
100
AcDbEntity
  8
OPTION-RB-SJ-PRS
100
AcDbLine
 10
3.106075475929984
 20
2.863652286875126
 30
0.0
 11
3.072697138016169
 21
2.867874209169098
 31
0.0
  0
LINE
  5
965
330
1E
100
AcDbEntity
  8
OPTION-RB-SJ-PRS
100
AcDbLine
 10
3.07734928773584
 20
2.871925886919444
 30
0.0
 11
3.106653147375213
 21
2.868219332727608
 31
0.0
  0
LWPOLYLINE
  5
966
330
1E
100
AcDbEntity
  8
OPTION-RB-SJ-PRS
100
AcDbPolyline
 90
        4
 70
     0
 43
0.0
 10
3.070218166663551
 20
2.867637363335235
 10
3.070944081146445
 20
2.868001001252816
 10
3.071796445880109
 20
2.868082437868478
 10
3.072697138016169
 20
2.867874209169099
  0
LWPOLYLINE
  5
967
330
1E
100
AcDbEntity
  8
OPTION-RB-SJ-PRS
100
AcDbPolyline
 90
        3
 70
     0
 43
0.0
 10
3.074849828305806
 20
2.871228867259653
 10
3.076257178844511
 20
2.871877075070285
 10
3.077385089519565
 20
2.871921297972384
  0
LINE
  5
968
330
1E
100
AcDbEntity
  8
OPTION-RB-SJ-PRS
100
AcDbLine
 10
3.07738297437891
 20
2.87192162595161
 30
0.0
 11
3.077224611153599
 21
2.87178285280028
 31
0.0
  0
LINE
  5
969
330
1E
100
AcDbEntity
  8
OPTION-RB-SJ-PRS
100
AcDbLine
 10
3.077224611153599
 20
2.87178285280028
 30
0.0
 11
3.072697138016169
 21
2.867874209169098
 31
0.0
  0
ARC
  5
96A
330
1E
100
AcDbEntity
  8
OPTION-RB-SJ-PRS
100
AcDbCircle
 10
3.110668257301544
 20
2.845199191746764
 30
0.0
 40
0.0034360505251803
100
AcDbArc
 50
172.7911310205367
 51
262.7911169583367
  0
LWPOLYLINE
  5
96B
330
1E
100
AcDbEntity
  8
OPTION-RB-SJ-PRS
100
AcDbPolyline
 90
        5
 70
     0
 43
0.0
 10
3.040176282442854
 20
2.839993893493788
 10
3.103400903221052
 20
2.83199887209728
 10
3.104511186462353
 20
2.831853497529804
 10
3.105247858072701
 20
2.831766347586719
 10
3.105501296651739
 20
2.831731135337439
  0
LINE
  5
96C
330
1E
100
AcDbEntity
  8
OPTION-RB-SJ-PRS
100
AcDbLine
 10
3.03016966778242
 20
2.829711326009108
 30
0.0
 11
3.100654703728608
 21
2.820795892729561
 31
0.0
  0
LINE
  5
96D
330
1E
100
AcDbEntity
  8
OPTION-RB-SJ-PRS
100
AcDbLine
 10
3.030523516306465
 20
2.832508837278794
 30
0.0
 11
3.101008552252654
 21
2.823593403999248
 31
0.0
  0
LINE
  5
96E
330
1E
100
AcDbEntity
  8
OPTION-RB-SJ-PRS
100
AcDbLine
 10
3.040549695134611
 20
2.84294607833729
 30
0.0
 11
3.102465819893054
 21
2.835114500019967
 31
0.0
  0
LINE
  5
96F
330
1E
100
AcDbEntity
  8
OPTION-RB-SJ-PRS
100
AcDbLine
 10
3.110237077451996
 20
2.841790302309897
 30
0.0
 11
3.137508192910928
 21
2.838340863616006
 31
0.0
  0
LWPOLYLINE
  5
970
330
1E
100
AcDbEntity
  8
OPTION-RB-SJ-PRS
100
AcDbPolyline
 90
        4
 70
     0
 43
0.0
 10
3.104976988354342
 20
2.827585968418333
 10
3.105249447000309
 20
2.826071413591588
 10
3.106362104471243
 20
2.824845562199386
 10
3.108017075217139
 20
2.824239059154561
  0
LWPOLYLINE
  5
971
330
1E
100
AcDbEntity
  8
OPTION-RB-SJ-PRS
100
AcDbPolyline
 90
        5
 70
     0
 43
0.0
 10
3.105501296651739
 20
2.831731135337439
 10
3.105384709238903
 20
2.83289370917633
 10
3.104766898694268
 20
2.83394493491596
 10
3.103741921053084
 20
2.8347247729547
 10
3.102465819893054
 20
2.835114500019967
  0
LINE
  5
972
330
1E
100
AcDbEntity
  8
OPTION-RB-SJ-PRS
100
AcDbLine
 10
3.108017075230714
 20
2.824239059165087
 30
0.0
 11
3.110237077456428
 21
2.841790302248112
 31
0.0
  0
LWPOLYLINE
  5
973
330
1E
100
AcDbEntity
  8
OPTION-RB-SJ-PRS
100
AcDbPolyline
 90
        7
 70
     0
 43
0.0
 10
3.101008552252654
 20
2.823593403999248
 10
3.101843377030677
 20
2.823627869003308
 10
3.10271713181612
 20
2.82396366492973
 10
3.103558415644483
 20
2.824617690544945
 10
3.104262015735713
 20
2.825530860302292
 10
3.104739709906418
 20
2.826563387644704
 10
3.104977063875018
 20
2.827586575356112
  0
LWPOLYLINE
  5
974
330
1E
100
AcDbEntity
  8
OPTION-RB-SJ-PRS
100
AcDbPolyline
 90
        7
 70
     0
 43
0.0
 10
3.100654703728608
 20
2.820795892729562
 10
3.102307190742529
 20
2.820723587416401
 10
3.103999238915659
 20
2.820944126881055
 10
3.105584393183909
 20
2.821483011135514
 10
3.106862020542735
 20
2.822296139603722
 10
3.107677121764773
 20
2.823256204192973
 10
3.108017075230714
 20
2.824239059165087
  0
ARC
  5
975
330
1E
100
AcDbEntity
  8
OPTION-RB-SJ-PRS
100
AcDbCircle
 10
3.046190671593953
 20
2.853353748465496
 30
0.0
 40
0.0034360231913983
100
AcDbArc
 50
262.7911169603368
 51
307.8089292404368
  0
LINE
  5
976
330
1E
100
AcDbEntity
  8
OPTION-RB-SJ-PRS
100
AcDbLine
 10
3.040176282442854
 20
2.839993893493788
 30
0.0
 11
3.038070723795569
 21
2.842709232513954
 31
0.0
  0
LINE
  5
977
330
1E
100
AcDbEntity
  8
OPTION-RB-SJ-PRS
100
AcDbLine
 10
3.030523516306465
 20
2.832508837278794
 30
0.0
 11
3.03016966778242
 21
2.829711326009108
 31
0.0
  0
LINE
  5
978
330
1E
100
AcDbEntity
  8
OPTION-RB-SJ-PRS
100
AcDbLine
 10
3.040176282442854
 20
2.839993893493788
 30
0.0
 11
3.040549695134611
 21
2.84294607833729
 31
0.0
  0
LWPOLYLINE
  5
979
330
1E
100
AcDbEntity
  8
OPTION-RB-SJ-PRS
100
AcDbPolyline
 90
        4
 70
     0
 43
0.0
 10
3.038070723795569
 20
2.842709232513954
 10
3.038796638278465
 20
2.843072870431536
 10
3.039649002998549
 20
2.84315430703667
 10
3.040549695134611
 20
2.84294607833729
  0
LINE
  5
97A
330
1E
100
AcDbEntity
  8
OPTION-RB-SJ-PRS
100
AcDbLine
 10
3.030523516306465
 20
2.832508837278794
 30
0.0
 11
3.040176282442854
 21
2.839993893493788
 31
0.0
  0
LWPOLYLINE
  5
97B
330
1E
100
AcDbEntity
  8
OPTION-RB-SJ-PRS
100
AcDbPolyline
 90
        4
 70
     0
 43
0.0
 10
3.027973067237504
 20
2.834879191833203
 10
3.027250947124094
 20
2.834522403850365
 10
3.026399546642581
 20
2.834452698176151
 10
3.025498425613517
 20
2.834676587879393
  0
LWPOLYLINE
  5
97C
330
1E
100
AcDbEntity
  8
OPTION-RB-SJ-PRS
100
AcDbPolyline
 90
        3
 70
     0
 43
0.0
 10
3.045766595074824
 20
2.849944973388915
 10
3.045379902390493
 20
2.849658845444639
 10
3.025498425474935
 20
2.834676586880582
  0
LWPOLYLINE
  5
97D
330
1E
100
AcDbEntity
  8
OPTION-RB-SJ-PRS
100
AcDbPolyline
 90
       10
 70
     0
 43
0.0
 10
3.025498425474935
 20
2.834676586880582
 10
3.024911498858949
 20
2.834140369325695
 10
3.024506257101438
 20
2.833509299170746
 10
3.02438594101379
 20
2.832769874987788
 10
3.024676452697747
 20
2.831991377139893
 10
3.025377459256791
 20
2.831278644411359
 10
3.026404440385046
 20
2.83068304933677
 10
3.027628999051448
 20
2.830228922957396
 10
3.028904525577698
 20
2.829915130844883
 10
3.03016966778242
 20
2.829711326009108
  0
LWPOLYLINE
  5
97E
330
1E
100
AcDbEntity
  8
OPTION-RB-SJ-PRS
100
AcDbPolyline
 90
       10
 70
     0
 43
0.0
 10
3.027973066005752
 20
2.834879193421675
 10
3.027360511953873
 20
2.834356026459606
 10
3.026872223332317
 20
2.83381041019085
 10
3.02658918020357
 20
2.83325915301154
 10
3.026626739866094
 20
2.832777389514403
 10
3.027019541900576
 20
2.832444860964464
 10
3.027706269613957
 20
2.832275758037311
 10
3.028587107266193
 20
2.832253524259423
 10
3.029545469034092
 20
2.832343526126856
 10
3.030523516306465
 20
2.832508837278794
  0
ARC
  5
97F
330
1E
100
AcDbEntity
  8
OPTION-RB-SJ-PRS
100
AcDbCircle
 10
3.069787271324889
 20
2.576759286282857
 30
0.0
 40
0.0034360505251803
100
AcDbArc
 50
262.7911169583367
 51
352.7911169583369
  0
ARC
  5
980
330
1E
100
AcDbEntity
  8
OPTION-RB-SJ-PRS
100
AcDbCircle
 10
3.078976539292055
 20
2.594645818490418
 30
0.0
 40
0.0034360505251803
100
AcDbArc
 50
82.79111695833732
 51
172.7911029399374
  0
ARC
  5
981
330
1E
100
AcDbEntity
  8
OPTION-RB-SJ-PRS
100
AcDbCircle
 10
3.105947755413367
 20
2.568289102420305
 30
0.0
 40
0.0025770378938852
100
AcDbArc
 50
172.7911169583365
 51
262.7911169583367
  0
LINE
  5
982
330
1E
100
AcDbEntity
  8
OPTION-RB-SJ-PRS
100
AcDbLine
 10
3.079407719128028
 20
2.598054707916756
 30
0.0
 11
3.10667883458696
 21
2.594605269222866
 31
0.0
  0
LWPOLYLINE
  5
983
330
1E
100
AcDbEntity
  8
OPTION-RB-SJ-PRS
100
AcDbPolyline
 90
        7
 70
     0
 43
0.0
 10
3.081627721362886
 20
2.615605951072093
 10
3.081546276597876
 20
2.61663134389782
 10
3.081007189490049
 20
2.617754554258607
 10
3.079983814272216
 20
2.618859304510192
 10
3.078580093004713
 20
2.619785490533104
 10
3.076982370015573
 20
2.62042959126601
 10
3.075354535135523
 20
2.620773836854566
  0
LWPOLYLINE
  5
984
330
1E
100
AcDbEntity
  8
OPTION-RB-SJ-PRS
100
AcDbPolyline
 90
        7
 70
     0
 43
0.0
 10
3.07784975006354
 20
2.613119185333232
 10
3.077875676482791
 20
2.614159664821922
 10
3.077675252759179
 20
2.615269583540078
 10
3.077227018434919
 20
2.616328976397235
 10
3.076574271148909
 20
2.617181569590235
 10
3.075805150834901
 20
2.617732894310614
 10
3.075000686622009
 20
2.617976325571304
  0
LINE
  5
985
330
1E
100
AcDbEntity
  8
OPTION-RB-SJ-PRS
100
AcDbLine
 10
3.077849084884103
 20
2.61311445522357
 30
0.0
 11
3.077848857816165
 21
2.613112572906028
 31
0.0
  0
LINE
  5
986
330
1E
100
AcDbEntity
  8
OPTION-RB-SJ-PRS
100
AcDbLine
 10
3.075354535135523
 20
2.620773836854566
 30
0.0
 11
3.069356091488917
 21
2.573350396856516
 31
0.0
  0
LINE
  5
987
330
1E
100
AcDbEntity
  8
OPTION-RB-SJ-PRS
100
AcDbLine
 10
3.07784975006354
 20
2.613119185333232
 30
0.0
 11
3.073196474495142
 21
2.576330586699266
 31
0.0
  0
LINE
  5
988
330
1E
100
AcDbEntity
  8
OPTION-RB-SJ-PRS
100
AcDbLine
 10
3.079407719137172
 20
2.598054707989071
 30
0.0
 11
3.081627721362886
 21
2.615605951072093
 31
0.0
  0
LWPOLYLINE
  5
989
330
1E
100
AcDbEntity
  8
OPTION-RB-SJ-PRS
100
AcDbPolyline
 90
        5
 70
     0
 43
0.0
 10
3.077325721089176
 20
2.608976234571688
 10
3.076921676442371
 20
2.60787632614339
 10
3.076050274450532
 20
2.607006932879845
 10
3.074863716056217
 20
2.606511686665351
 10
3.073543418971079
 20
2.606455229564161
  0
LWPOLYLINE
  5
98A
330
1E
100
AcDbEntity
  8
OPTION-RB-SJ-PRS
100
AcDbPolyline
 90
        4
 70
     0
 43
0.0
 10
3.073716065059724
 20
2.580438447678849
 10
3.073072654135582
 20
2.579020122437473
 10
3.071688235472624
 20
2.578097370551184
 10
3.069933762934153
 20
2.577917442709002
  0
LWPOLYLINE
  5
98B
330
1E
100
AcDbEntity
  8
OPTION-RB-SJ-PRS
100
AcDbPolyline
 90
        4
 70
     0
 43
0.0
 10
3.07784975006354
 20
2.613119185333232
 10
3.078490990759387
 20
2.614520386725248
 10
3.07987382121133
 20
2.615430609098943
 10
3.081627721362886
 20
2.615605951072093
  0
LWPOLYLINE
  5
98C
330
1E
100
AcDbEntity
  8
OPTION-RB-SJ-PRS
100
AcDbPolyline
 90
        3
 70
     0
 43
0.0
 10
3.040088048718948
 20
2.577052481174417
 10
3.039006671530533
 20
2.577376150036608
 10
3.037805041486429
 20
2.57835435969801
  0
LWPOLYLINE
  5
98D
330
1E
100
AcDbEntity
  8
OPTION-RB-SJ-PRS
100
AcDbPolyline
 90
        4
 70
     0
 43
0.0
 10
3.03421349869193
 20
2.582985991199191
 10
3.034826008877529
 20
2.582453060151244
 10
3.035631252300992
 20
2.582161957791366
 10
3.036555425020339
 20
2.582139365002973
  0
LINE
  5
98E
330
1E
100
AcDbEntity
  8
OPTION-RB-SJ-PRS
100
AcDbLine
 10
3.036555425020339
 20
2.582139365002973
 30
0.0
 11
3.040080197201862
 21
2.577063696556266
 31
0.0
  0
LINE
  5
98F
330
1E
100
AcDbEntity
  8
OPTION-RB-SJ-PRS
100
AcDbLine
 10
3.040080197201862
 20
2.577063696556266
 30
0.0
 11
3.040085910160489
 21
2.577052707946898
 31
0.0
  0
LINE
  5
990
330
1E
100
AcDbEntity
  8
OPTION-RB-SJ-PRS
100
AcDbLine
 10
3.040052231873645
 20
2.577056951045304
 30
0.0
 11
3.069356091488917
 21
2.573350396856516
 31
0.0
  0
LINE
  5
991
330
1E
100
AcDbEntity
  8
OPTION-RB-SJ-PRS
100
AcDbLine
 10
3.069933762934153
 20
2.577917442709002
 30
0.0
 11
3.036555425020339
 21
2.582139365002973
 31
0.0
  0
ARC
  5
992
330
1E
100
AcDbEntity
  8
OPTION-RB-SJ-PRS
100
AcDbCircle
 10
3.01449920571869
 20
2.602802369055677
 30
0.0
 40
0.0034360231742181
100
AcDbArc
 50
37.7733038256371
 51
82.7911169566372
  0
LWPOLYLINE
  5
993
330
1E
100
AcDbEntity
  8
OPTION-RB-SJ-PRS
100
AcDbPolyline
 90
       10
 70
     0
 43
0.0
 10
3.004869499189334
 20
2.629689270134113
 10
3.003575286531045
 20
2.6298078902096
 10
3.00223957154548
 20
2.629818919507319
 10
3.000922439758036
 20
2.629674902530538
 10
2.999779000633047
 20
2.629339636090714
 10
2.998943147512591
 20
2.628813613892132
 10
2.998494897102346
 20
2.628133811088603
 10
2.998442029953141
 20
2.627399717772174
 10
2.998678660516231
 20
2.626700034950727
 10
2.99910907163121
 20
2.62604347878454
  0
LWPOLYLINE
  5
994
330
1E
100
AcDbEntity
  8
OPTION-RB-SJ-PRS
100
AcDbPolyline
 90
       10
 70
     0
 43
0.0
 10
3.00451565067582
 20
2.62689175885085
 10
3.003596833705787
 20
2.627300568175887
 10
3.002676568735934
 20
2.627629402374408
 10
3.001807825191188
 20
2.627823869763369
 10
3.001103365884479
 20
2.627819842888543
 10
3.000657158643384
 20
2.627581459266754
 10
3.000518720036948
 20
2.627119859504831
 10
3.000662682357154
 20
2.626521839967396
 10
3.000997643623098
 20
2.625881770249821
 10
3.00145532877837
 20
2.62523109185699
  0
LWPOLYLINE
  5
995
330
1E
100
AcDbEntity
  8
OPTION-RB-SJ-PRS
100
AcDbPolyline
 90
        4
 70
     0
 43
0.0
 10
3.001455328574721
 20
2.625231091699073
 10
3.000844835705677
 20
2.625756544083058
 10
3.000037613407201
 20
2.626036131218784
 10
2.999109102565369
 20
2.626043723348678
  0
LWPOLYLINE
  5
996
330
1E
100
AcDbEntity
  8
OPTION-RB-SJ-PRS
100
AcDbPolyline
 90
        4
 70
     0
 43
0.0
 10
3.00928536786012
 20
2.615133434080751
 10
3.009895104070333
 20
2.61460211546463
 10
3.010702198144614
 20
2.614309569527406
 10
3.01162729419906
 20
2.614286807870954
  0
LWPOLYLINE
  5
997
330
1E
100
AcDbEntity
  8
OPTION-RB-SJ-PRS
100
AcDbPolyline
 90
        3
 70
     0
 43
0.0
 10
2.99910907163121
 20
2.62604347878454
 10
3.014634261877968
 20
2.606582406948852
 10
3.014937232280998
 20
2.606209379573395
  0
LINE
  5
998
330
1E
100
AcDbEntity
  8
OPTION-RB-SJ-PRS
100
AcDbLine
 10
3.012000706880286
 20
2.617238992728036
 30
0.0
 11
3.00451565067582
 21
2.62689175885085
 31
0.0
  0
LINE
  5
999
330
1E
100
AcDbEntity
  8
OPTION-RB-SJ-PRS
100
AcDbLine
 10
3.0045156355382
 20
2.626891760765559
 30
0.0
 11
3.004869516534559
 21
2.629689267278934
 31
0.0
  0
LINE
  5
99A
330
1E
100
AcDbEntity
  8
OPTION-RB-SJ-PRS
100
AcDbLine
 10
3.012000706880286
 20
2.617238992728036
 30
0.0
 11
3.011627294199058
 21
2.614286807870954
 31
0.0
  0
LINE
  5
99B
330
1E
100
AcDbEntity
  8
OPTION-RB-SJ-PRS
100
AcDbLine
 10
3.009489414310267
 20
2.615293562820806
 30
0.0
 11
3.00928536786012
 21
2.615133434080751
 31
0.0
  0
LINE
  5
99C
330
1E
100
AcDbEntity
  8
OPTION-RB-SJ-PRS
100
AcDbLine
 10
3.012000706880286
 20
2.617238992728036
 30
0.0
 11
3.009489414310267
 21
2.615293562820806
 31
0.0
  0
LINE
  5
99D
330
1E
100
AcDbEntity
  8
OPTION-RB-SJ-PRS
100
AcDbLine
 10
3.037796001589214
 20
2.578365977446834
 30
0.0
 11
3.00145532877837
 21
2.62523109185699
 31
0.0
  0
LINE
  5
99E
330
1E
100
AcDbEntity
  8
OPTION-RB-SJ-PRS
100
AcDbLine
 10
3.011627294199058
 20
2.614286807870954
 30
0.0
 11
3.036555425020339
 21
2.582139365002973
 31
0.0
  0
LWPOLYLINE
  5
99F
330
1E
100
AcDbEntity
  8
OPTION-RB-SJ-PRS
100
AcDbPolyline
 90
        3
 70
     0
 43
0.0
 10
3.012000706880286
 20
2.617238992728037
 10
3.077065098923355
 20
2.609010218172024
 10
3.077325721089176
 20
2.608976234571688
  0
LINE
  5
9A0
330
1E
100
AcDbEntity
  8
OPTION-RB-SJ-PRS
100
AcDbLine
 10
3.073543418971079
 20
2.606455229564161
 30
0.0
 11
3.011627294199058
 21
2.614286807870954
 31
0.0
  0
LINE
  5
9A1
330
1E
100
AcDbEntity
  8
OPTION-RB-SJ-PRS
100
AcDbLine
 10
3.075000686622005
 20
2.617976325571304
 30
0.0
 11
3.00451565067582
 21
2.62689175885085
 31
0.0
  0
LINE
  5
9A2
330
1E
100
AcDbEntity
  8
OPTION-RB-SJ-PRS
100
AcDbLine
 10
3.075354535135523
 20
2.620773836854566
 30
0.0
 11
3.004869499189334
 21
2.629689270134113
 31
0.0
  0
LINE
  5
9A3
330
1E
100
AcDbEntity
  8
OPTION-RB-SJ-PRS
100
AcDbLine
 10
3.103391088336137
 20
2.568612487334966
 30
0.0
 11
3.14079593917838
 21
2.86433364553854
 31
0.0
  0
LINE
  5
9A4
330
1E
100
AcDbEntity
  8
OPTION-RB-SJ-PRS
100
AcDbLine
 10
3.105624370536393
 20
2.565732435350549
 30
0.0
 11
3.143675991125117
 21
2.866566927731317
 31
0.0
  0
LINE
  5
9A5
330
1E
100
AcDbEntity
  8
OPTION-RB-SJ-PRS
100
AcDbLine
 10
3.106653147375213
 20
2.868219332727608
 30
0.0
 11
3.100654601256733
 21
2.820795909339942
 31
0.0
  0
LINE
  5
9A6
330
1E
100
AcDbEntity
  8
OPTION-RB-SJ-PRS
100
AcDbLine
 10
3.109630543245774
 20
2.864376783209864
 30
0.0
 11
3.104977267663801
 21
2.827588184565371
 31
0.0
  0
LWPOLYLINE
  5
9A7
330
1E
100
AcDbEntity
  8
OPTION-RB-SJ-PRS
100
AcDbPolyline
 90
        4
 70
     0
 43
0.0
 10
3.109110952678143
 20
2.860268922206176
 10
3.108840999998175
 20
2.861802690233088
 10
3.10772996793401
 20
2.863041128895194
 10
3.106075475920834
 20
2.863652286802813
  0
LINE
  5
9A8
330
1E
100
AcDbEntity
  8
OPTION-RB-SJ-PRS
100
AcDbLine
 10
3.074838180415906
 20
2.871219866232523
 30
0.0
 11
3.027973066005752
 21
2.834879193421675
 31
0.0
  0
LINE
  5
9A9
330
1E
100
AcDbEntity
  8
OPTION-RB-SJ-PRS
100
AcDbLine
 10
3.072697138016169
 20
2.867874209169098
 30
0.0
 11
3.040549695134611
 21
2.84294607833729
 31
0.0
  0
CIRCLE
  5
9AA
330
1E
100
AcDbEntity
  8
OPTION-RB-SJ-PRS
100
AcDbCircle
 10
2.815433098214819
 20
2.711639704070886
 30
0.0
 40
0.0116296109939544
  0
INSERT
  5
9AB
330
1E
100
AcDbEntity
  8
OPTION-RB-SJ-PRS
100
AcDbBlockReference
  2
*T2
 10
1.345843886184009
 20
4.261714989842895
 30
0.0
 41
-0.1718025262590135
 42
0.1718025262590128
 43
-0.1718025262590131
 50
52.640650847635
210
0.0
220
0.0
230
-1.0
  0
TEXT
  5
9AC
330
1E
100
AcDbEntity
  8
TEXT-RB-SJ-PRS-BUBBLES
100
AcDbText
 10
2.197119677782201
 20
1.842625615152663
 30
0.0
 40
0.125
  1
5
  7
ROMANS
 72
     4
 11
2.256643487306011
 21
1.905125615152663
 31
0.0
100
AcDbText
  0
CIRCLE
  5
9AD
330
1E
100
AcDbEntity
  8
TEXT-RB-SJ-PRS-BUBBLES
100
AcDbCircle
 10
2.256643487306011
 20
1.905125615152663
 30
0.0
 40
0.15625
  0
LINE
  5
9AE
330
1E
100
AcDbEntity
  8
OPTION-RB-SJ-PRS
100
AcDbLine
 10
1.732132205898993
 20
2.768467403123877
 30
0.0
 11
3.014592461614236
 21
2.606252988544224
 31
0.0
  0
LINE
  5
9AF
330
1E
100
AcDbEntity
  8
OPTION-RB-SJ-PRS
100
AcDbLine
 10
1.801827680991727
 20
3.007286943131877
 30
0.0
 11
3.045421823877761
 21
2.849988582426817
 31
0.0
  0
LINE
  5
9B0
330
1E
100
AcDbEntity
  8
OPTION-RB-SJ-PRS
100
AcDbLine
 10
1.766903386481433
 20
2.559257114708385
 30
0.0
 11
3.149327899415752
 21
2.560204511720033
 31
0.0
  0
LEADER
  5
9B1
330
1E
100
AcDbEntity
  8
TEXT-RB-SJ-PRS-BUBBLES
100
AcDbLeader
  3
Standard
 76
     2
 10
1.910385035339322
 20
2.559724284006697
 30
0.0
 10
2.158876872173289
 20
2.027009787486441
 30
0.0
1001
ACAD
1000
DSTYLE
1002
{
1070
   340
1005
0
1070
   287
1070
     5
1002
}
  0
LEADER
  5
9B2
330
1E
100
AcDbEntity
  8
TEXT-RB-SJ-PRS-BUBBLES
100
AcDbLeader
  3
Standard
 76
     2
 10
2.225003849585633
 20
2.96021813894124
 30
0.0
 10
3.039090353267986
 20
3.547204669268738
 30
0.0
1001
ACAD
1000
DSTYLE
1002
{
1070
   340
1005
0
1070
   287
1070
     5
1002
}
  0
LINE
  5
9B3
330
1E
100
AcDbEntity
  8
OPTION-RB-SJ-PRS
100
AcDbLine
 10
3.444096915857386
 20
2.828567618029961
 30
0.0
 11
3.143675991125117
 21
2.866566927731317
 31
0.0
  0
LINE
  5
9B8
330
1E
100
AcDbEntity
  8
IMAGE
100
AcDbLine
 10
10.36324147342192
 20
6.104461050372168
 30
0.0
 11
15.23460512005013
 21
6.104461050372168
 31
0.0
  0
LINE
  5
9B9
330
1E
100
AcDbEntity
  8
IMAGE
100
AcDbLine
 10
15.23460512005013
 20
6.104461050372168
 30
0.0
 11
15.23460512005013
 21
-0.0782641319373689
 31
0.0
  0
LINE
  5
9BA
330
1E
100
AcDbEntity
  8
IMAGE
100
AcDbLine
 10
15.23460512005013
 20
-0.0782641319373689
 30
0.0
 11
10.36324147342192
 21
-0.0782641319373689
 31
0.0
  0
LINE
  5
9BB
330
1E
100
AcDbEntity
  8
IMAGE
100
AcDbLine
 10
10.36324147342192
 20
-0.0782641319373689
 30
0.0
 11
10.36324147342192
 21
6.104461050372168
 31
0.0
  0
TEXT
  5
9C5
330
1E
100
AcDbEntity
  8
INSTRUCT-OPTION
100
AcDbText
 10
10.2118887987616
 20
1.693645179815943
 30
0.0
 40
0.1250000018625
  1
  %%UAND EITHER%%U
  7
ROMANS
100
AcDbText
  0
TEXT
  5
9C6
330
1E
100
AcDbEntity
  8
INSTRUCT-OPTION
100
AcDbText
 10
10.44520175340994
 20
2.191334065653841
 30
0.0
 40
0.1250000018625
  1
%%URAIN BIRD SWING JOINT WITH PRS
  7
ROMANS
100
AcDbText
  0
TEXT
  5
9C7
330
1E
100
AcDbEntity
  8
INSTRUCT-OPTION
100
AcDbText
 10
10.46189473198826
 20
1.947932448562012
 30
0.0
 40
0.1250000018625
  1
  OPTION-RB-SJ-PRS
  7
ROMANS
100
AcDbText
  0
TEXT
  5
9C8
330
1E
100
AcDbEntity
  8
INSTRUCT-OPTION
100
AcDbText
 10
10.21188880000349
 20
1.282408348642511
 30
0.0
 40
0.125
  1
    %%uOR%%u TEXT-RB-SJ-PRS-BUBBLES
  7
ROMANS
100
AcDbText
  0
TEXT
  5
9C9
330
1E
100
AcDbEntity
  8
INSTRUCT-OPTION
100
AcDbText
 10
10.2118887987616
 20
1.449766878558457
 30
0.0
 40
0.1250000018625
  1
    TEXT-RB-SJ-PRS-LEADERS
  7
ROMANS
100
AcDbText
  0
ENDSEC
  0
SECTION
  2
OBJECTS
  0
DICTIONARY
  5
C
330
0
100
AcDbDictionary
281
     1
  3
ACAD_GROUP
350
D
  3
ACAD_LAYOUT
350
19
  3
ACAD_MLINESTYLE
350
16
  3
ACAD_PLOTSETTINGS
350
18
  3
ACAD_PLOTSTYLENAME
350
E
  3
AcDbVariableDictionary
350
245
  0
DICTIONARY
  5
32E
330
2
100
AcDbDictionary
280
     1
281
     1
  3
ACAD_LAYERFILTERS
360
679
  3
ACAD_LAYERSTATES
360
32F
  0
DICTIONARY
  5
D
102
{ACAD_REACTORS
330
C
102
}
330
C
100
AcDbDictionary
281
     1
  0
DICTIONARY
  5
19
102
{ACAD_REACTORS
330
C
102
}
330
C
100
AcDbDictionary
281
     1
  3
Layout1
350
1D
  3
Model
350
21
  0
DICTIONARY
  5
16
102
{ACAD_REACTORS
330
C
102
}
330
C
100
AcDbDictionary
281
     1
  3
Standard
350
17
  0
DICTIONARY
  5
18
102
{ACAD_REACTORS
330
C
102
}
330
C
100
AcDbDictionary
281
     1
  3
1055 B&W Full Shaded Draft
350
2F7
  3
1055 B&W Full Shaded Final
350
2F8
  3
1055 Color Full Shaded Draft
350
2F9
  3
1055 Color Full Shaded Final
350
2FA
  3
1055 PLUS B&W Full Shaded Draft
350
2FB
  3
1055 PLUS B&W Full Shaded Final
350
2FC
  3
1055 PLUS Color Full Shaded Draft
350
2FD
  3
1055 PLUS Color Full Shaded Final
350
2FE
  3
1055-B&W-Shaded-Draft
350
2FF
  3
1055-B&W-Shaded-Final
350
300
  3
1055-Color-Shaded-Draft
350
301
  3
1055-Color-Shaded-Final
350
302
  3
1055-PLUS-B&W-Shaded-Draft
350
303
  3
1055-PLUS-B&W-Shaded-Final
350
304
  3
1055-PLUS-Color-Shaded-Draft
350
305
  3
1055-PLUS-Color-Shaded-Final
350
306
  3
2200 Color Inkjet
350
307
  3
2200-Color-Inkjet
350
308
  3
24x36 PDF
350
309
  3
8500 B&W Shaded 11x17
350
30A
  3
8500 B&W Shaded 8.5x11
350
30B
  3
8500 Color Shaded 11x17
350
30C
  3
8500 Color Shaded 8.5x11
350
30D
  3
8500-B&W-Shaded-11x17
350
30E
  3
8500-B&W-Shaded-8.5x11
350
30F
  3
8500-Color-Shaded-11x17
350
310
  3
8500-Color-Shaded-8.5x11
350
311
  3
Laser Jet 5 Shaded 11x17
350
312
  3
Laser Jet 5 Shaded 8.5x11
350
313
  3
LaserJet5-Shaded-11x17
350
314
  3
LaserJet5-Shaded-8.5x11
350
315
  3
Oki Doki B&W Shaded 11x17
350
316
  3
Oki Doki B&W Shaded 8.5x11
350
317
  3
Oki Doki Color Laser
350
318
  3
Oki Doki Color Shaded 11x17
350
319
  3
Oki Doki Color Shaded 8.5x11
350
31A
  3
Oki-Doki-B&W-Shaded-11x17
350
31B
  3
Oki-Doki-B&W-Shaded-8.5x11
350
31C
  3
Oki-Doki-Color-Laser
350
31D
  3
Oki-Doki-Color-Shaded-11x17
350
31E
  3
Oki-Doki-Color-Shaded-8.5x11
350
31F
  0
ACDBDICTIONARYWDFLT
  5
E
102
{ACAD_REACTORS
330
C
102
}
330
C
100
AcDbDictionary
281
     1
  3
Normal
350
F
100
AcDbDictionaryWithDefault
340
F
  0
DICTIONARY
  5
245
102
{ACAD_REACTORS
330
C
102
}
330
C
100
AcDbDictionary
281
     1
  3
DIMASSOC
350
248
  3
HIDETEXT
350
247
  3
SORTENTS
350
246
  0
DICTIONARY
  5
679
102
{ACAD_REACTORS
330
32E
102
}
330
32E
100
AcDbDictionary
280
     1
281
     1
  0
DICTIONARY
  5
32F
102
{ACAD_REACTORS
330
32E
102
}
330
32E
100
AcDbDictionary
281
     1
  0
LAYOUT
  5
1D
102
{ACAD_REACTORS
330
19
102
}
330
19
100
AcDbPlotSettings
  1

  2
S:\AutoCAD 2002\Plotters\1055B&WDraftShaded.pc3
  4

  6

 40
0.0
 41
0.0
 42
0.0
 43
0.0
 44
0.0
 45
0.0
 46
0.0
 47
0.0
 48
0.0
 49
0.0
140
0.0
141
0.0
142
1.0
143
1.0
 70
   688
 72
     0
 73
     0
 74
     5
  7
TRexLJ5Shaded2.ctb
 75
    16
147
1.0
148
0.0
149
0.0
100
AcDbLayout
  1
Layout1
 70
     1
 71
     1
 10
0.0
 20
0.0
 11
12.0
 21
9.0
 12
0.0
 22
0.0
 32
0.0
 14
1.000000000000000E+20
 24
1.000000000000000E+20
 34
1.000000000000000E+20
 15
-1.000000000000000E+20
 25
-1.000000000000000E+20
 35
-1.000000000000000E+20
146
0.0
 13
0.0
 23
0.0
 33
0.0
 16
1.0
 26
0.0
 36
0.0
 17
0.0
 27
1.0
 37
0.0
 76
     0
330
1A
  0
LAYOUT
  5
21
102
{ACAD_REACTORS
330
19
102
}
330
19
100
AcDbPlotSettings
  1
8500-Color-Shaded-11x17
  2
8500ColorShaded.pc3
  4
11x17
  6

 40
5.027083396911621
 41
5.027085304260253
 42
5.027099609375
 43
5.027069091796875
 44
279.3999938964843
 45
431.7999877929687
 46
0.0
 47
0.0
 48
180360.0524337165
 49
80033.77936194791
140
180369.1574725906
141
80037.61796031875
142
1.0
143
0.9931848311513199
 70
 28336
 72
     0
 73
     1
 74
     1
  7
8500ColorShaded.ctb
 75
     0
147
1.006861934088119
148
27.7163953989943
149
47.63660717667469
100
AcDbLayout
  1
Model
 70
     1
 71
     0
 10
0.0
 20
0.0
 11
12.0
 21
9.0
 12
0.0
 22
0.0
 32
0.0
 14
0.0
 24
0.0
 34
0.0
 15
0.0
 25
0.0
 35
0.0
146
0.0
 13
0.0
 23
0.0
 33
0.0
 16
1.0
 26
0.0
 36
0.0
 17
0.0
 27
1.0
 37
0.0
 76
     0
330
1E
  0
MLINESTYLE
  5
17
102
{ACAD_REACTORS
330
16
102
}
330
16
100
AcDbMlineStyle
  2
STANDARD
 70
     0
  3

 62
   256
 51
90.0
 52
90.0
 71
     2
 49
0.5
 62
   256
  6
BYLAYER
 49
-0.5
 62
   256
  6
BYLAYER
  0
PLOTSETTINGS
  5
2F7
102
{ACAD_REACTORS
330
18
102
}
330
18
100
AcDbPlotSettings
  1
1055 B&W Full Shaded Draft
  2
1055B&WDraftShaded.pc3
  4
User607
  6
ps1
 40
0.0
 41
0.0
 42
0.0
 43
0.0
 44
901.7000122070312
 45
1155.700073242187
 46
0.0
 47
0.0
 48
180377.877572
 49
80019.819395
140
180380.8390819999
141
80022.26069
142
1.0
143
1.0
 70
   688
 72
     0
 73
     2
 74
     3
  7
1055B&WFullDraftShaded.ctb
 75
    16
147
1.0
148
-4581603.303200401
149
-2032962.095032944
  0
PLOTSETTINGS
  5
2F8
102
{ACAD_REACTORS
330
18
102
}
330
18
100
AcDbPlotSettings
  1
1055 B&W Full Shaded Final
  2
1055B&WFinalShaded.pc3
  4
User257
  6
PS1
 40
4.995333194732666
 41
8.297271728515625
 42
4.99530029296875
 43
8.29736328125
 44
911.6906738281249
 45
1172.294677734375
 46
0.0
 47
0.0
 48
180377.877572
 49
80019.819395
140
180380.8390819999
141
80022.26069
142
1.0
143
1.0
 70
   688
 72
     0
 73
     3
 74
     3
  7
1055B&WFullFinalShaded.ctb
 75
    16
147
1.0
148
-4581603.303200401
149
-2032962.095032944
  0
PLOTSETTINGS
  5
2F9
102
{ACAD_REACTORS
330
18
102
}
330
18
100
AcDbPlotSettings
  1
1055 Color Full Shaded Draft
  2
1055ColorDraftShaded.pc3
  4
User607
  6
PS1
 40
0.0
 41
0.0
 42
0.0
 43
0.0
 44
901.7000122070312
 45
1155.700073242187
 46
0.0
 47
0.0
 48
180377.877572
 49
80019.819395
140
180380.8390819999
141
80022.26069
142
1.0
143
1.0
 70
   688
 72
     0
 73
     2
 74
     3
  7
1055ColorFullDraftShaded.ctb
 75
    16
147
1.0
148
-4581603.303200401
149
-2032962.095032944
  0
PLOTSETTINGS
  5
2FA
102
{ACAD_REACTORS
330
18
102
}
330
18
100
AcDbPlotSettings
  1
1055 Color Full Shaded Final
  2
1055ColorFinalShaded.pc3
  4
User607
  6
PS1
 40
0.0
 41
0.0
 42
0.0
 43
0.0
 44
901.7000122070312
 45
1155.700073242187
 46
0.0
 47
0.0
 48
180377.877572
 49
80019.819395
140
180380.8390819999
141
80022.26069
142
1.0
143
1.0
 70
   688
 72
     0
 73
     2
 74
     3
  7
1055ColorFullFinalShaded.ctb
 75
    16
147
1.0
148
-4581603.303200401
149
-2032962.095032944
  0
PLOTSETTINGS
  5
2FB
102
{ACAD_REACTORS
330
18
102
}
330
18
100
AcDbPlotSettings
  1
1055 PLUS B&W Full Shaded Draft
  2
1055_PLUS_B&WDraftShaded.pc3
  4
User257
  6
ps1
 40
4.995333194732666
 41
8.297393798828125
 42
4.99530029296875
 43
8.29736328125
 44
901.6152954101562
 45
1155.615356445312
 46
0.0
 47
0.0
 48
180377.877572
 49
80019.819395
140
180380.8390819999
141
80022.26069
142
1.0
143
1.0
 70
   688
 72
     0
 73
     3
 74
     5
  7
1055B&WFullDraftShaded.ctb
 75
    16
147
1.0
148
-4581603.303200401
149
-2032962.095032944
  0
PLOTSETTINGS
  5
2FC
102
{ACAD_REACTORS
330
18
102
}
330
18
100
AcDbPlotSettings
  1
1055 PLUS B&W Full Shaded Final
  2
1055_PLUS_B&WFinalShaded.pc3
  4
User257
  6
PS1
 40
4.995333194732666
 41
8.297271728515625
 42
4.99530029296875
 43
8.29736328125
 44
901.6576538085937
 45
1155.657592773437
 46
0.0
 47
0.0
 48
180377.877572
 49
80019.819395
140
180380.8390819999
141
80022.26069
142
1.0
143
1.0
 70
   688
 72
     0
 73
     3
 74
     5
  7
1055B&WFullFinalShaded.ctb
 75
    16
147
1.0
148
-4581603.303200401
149
-2032962.095032944
  0
PLOTSETTINGS
  5
2FD
102
{ACAD_REACTORS
330
18
102
}
330
18
100
AcDbPlotSettings
  1
1055 PLUS Color Full Shaded Draft
  2
1055_PLUS_ColorDraftShaded.pc3
  4
User257
  6
PS1
 40
4.995333194732666
 41
8.297393798828125
 42
4.99530029296875
 43
8.29736328125
 44
901.6152954101562
 45
1155.615356445312
 46
0.0
 47
0.0
 48
180377.877572
 49
80019.819395
140
180380.8390819999
141
80022.26069
142
1.0
143
1.0
 70
   688
 72
     0
 73
     3
 74
     5
  7
1055ColorFullDraftShaded.ctb
 75
    16
147
1.0
148
-4581603.303200401
149
-2032962.095032944
  0
PLOTSETTINGS
  5
2FE
102
{ACAD_REACTORS
330
18
102
}
330
18
100
AcDbPlotSettings
  1
1055 PLUS Color Full Shaded Final
  2
1055_PLUS_ColorFinalShaded.pc3
  4
User257
  6
PS1
 40
4.995333194732666
 41
8.297271728515625
 42
4.99530029296875
 43
8.29736328125
 44
901.6576538085937
 45
1155.657592773437
 46
0.0
 47
0.0
 48
180377.877572
 49
80019.819395
140
180380.8390819999
141
80022.26069
142
1.0
143
1.0
 70
   688
 72
     0
 73
     3
 74
     5
  7
1055ColorFullFinalShaded.ctb
 75
    16
147
1.0
148
-4581603.303200401
149
-2032962.095032944
  0
PLOTSETTINGS
  5
2FF
102
{ACAD_REACTORS
330
18
102
}
330
18
100
AcDbPlotSettings
  1
1055-B&W-Shaded-Draft
  2
1055B&WDraftShaded.pc3
  4
User257
  6

 40
4.995333194732666
 41
8.297393798828125
 42
4.99530029296875
 43
8.29736328125
 44
901.6152954101562
 45
1155.615356445312
 46
0.0
 47
0.0
 48
180360.0524337165
 49
80033.77936194791
140
180369.1574725906
141
80037.61796031875
142
1.0
143
30.0
 70
  1696
 72
     0
 73
     1
 74
     1
  7
1055B&WFullDraftShaded.ctb
 75
     0
147
0.0333333333333333
148
-190.0773302744904
149
-129.2444057835751
  0
PLOTSETTINGS
  5
300
102
{ACAD_REACTORS
330
18
102
}
330
18
100
AcDbPlotSettings
  1
1055-B&W-Shaded-Final
  2
1055B&WFinalShaded.pc3
  4
User607
  6

 40
0.0
 41
0.0
 42
0.0
 43
0.0
 44
901.7000122070312
 45
1155.700073242187
 46
0.0
 47
0.0
 48
180360.0524337165
 49
80033.77936194791
140
180369.1574725906
141
80037.61796031875
142
1.0
143
30.0
 70
  1696
 72
     0
 73
     1
 74
     1
  7
1055B&WFullFinalShaded.ctb
 75
     0
147
0.0333333333333333
148
-190.0773302744904
149
-129.2444057835751
  0
PLOTSETTINGS
  5
301
102
{ACAD_REACTORS
330
18
102
}
330
18
100
AcDbPlotSettings
  1
1055-Color-Shaded-Draft
  2
1055ColorDraftShaded.pc3
  4
User257
  6

 40
4.995333194732666
 41
8.297393798828125
 42
4.99530029296875
 43
8.29736328125
 44
901.6152954101562
 45
1155.615356445312
 46
0.0
 47
0.0
 48
180360.0524337165
 49
80033.77936194791
140
180369.1574725906
141
80037.61796031875
142
1.0
143
30.0
 70
  1696
 72
     0
 73
     1
 74
     1
  7
1055ColorFullDraftShaded.ctb
 75
     0
147
0.0333333333333333
148
-190.0773302744904
149
-129.2444057835751
  0
PLOTSETTINGS
  5
302
102
{ACAD_REACTORS
330
18
102
}
330
18
100
AcDbPlotSettings
  1
1055-Color-Shaded-Final
  2
1055ColorDraftShaded.pc3
  4
User257
  6

 40
4.995333194732666
 41
8.297393798828125
 42
4.99530029296875
 43
8.29736328125
 44
901.6152954101562
 45
1155.615356445312
 46
0.0
 47
0.0
 48
180360.0524337165
 49
80033.77936194791
140
180369.1574725906
141
80037.61796031875
142
1.0
143
30.0
 70
  1696
 72
     0
 73
     1
 74
     1
  7
1055ColorFullFinalShaded.ctb
 75
     0
147
0.0333333333333333
148
-190.0773302744904
149
-129.2444057835751
  0
PLOTSETTINGS
  5
303
102
{ACAD_REACTORS
330
18
102
}
330
18
100
AcDbPlotSettings
  1
1055-PLUS-B&W-Shaded-Draft
  2
1055_PLUS_B&WDraftShaded.pc3
  4
User257
  6

 40
4.995333194732666
 41
8.297393798828125
 42
4.99530029296875
 43
8.29736328125
 44
901.6152954101562
 45
1155.615356445312
 46
0.0
 47
0.0
 48
180360.0524337165
 49
80033.77936194791
140
180369.1574725906
141
80037.61796031875
142
1.0
143
30.0
 70
  1696
 72
     0
 73
     1
 74
     0
  7
1055B&WFullDraftShaded.ctb
 75
     0
147
0.0333333333333333
148
0.9506237099442845
149
8.593888772447144
  0
PLOTSETTINGS
  5
304
102
{ACAD_REACTORS
330
18
102
}
330
18
100
AcDbPlotSettings
  1
1055-PLUS-B&W-Shaded-Final
  2
1055_PLUS_B&WFinalShaded.pc3
  4
User257
  6

 40
4.995333194732666
 41
8.297271728515625
 42
4.99530029296875
 43
8.29736328125
 44
901.6576538085937
 45
1155.657592773437
 46
0.0
 47
0.0
 48
180360.0524337165
 49
80033.77936194791
140
180369.1574725906
141
80037.61796031875
142
1.0
143
30.0
 70
  1696
 72
     0
 73
     1
 74
     0
  7
1055B&WFullFinalShaded.ctb
 75
     0
147
0.0333333333333333
148
0.9506237099442845
149
8.593888772447144
  0
PLOTSETTINGS
  5
305
102
{ACAD_REACTORS
330
18
102
}
330
18
100
AcDbPlotSettings
  1
1055-PLUS-Color-Shaded-Draft
  2
1055_PLUS_ColorDraftShaded.pc3
  4
User257
  6

 40
4.995333194732666
 41
8.297393798828125
 42
4.99530029296875
 43
8.29736328125
 44
901.6152954101562
 45
1155.615356445312
 46
0.0
 47
0.0
 48
180360.0524337165
 49
80033.77936194791
140
180369.1574725906
141
80037.61796031875
142
1.0
143
30.0
 70
  1696
 72
     0
 73
     1
 74
     0
  7
1055ColorFullDraftShaded.ctb
 75
     0
147
0.0333333333333333
148
0.9506237099442845
149
8.593888772447144
  0
PLOTSETTINGS
  5
306
102
{ACAD_REACTORS
330
18
102
}
330
18
100
AcDbPlotSettings
  1
1055-PLUS-Color-Shaded-Final
  2
1055_PLUS_ColorFinalShaded.pc3
  4
User257
  6

 40
4.995333194732666
 41
8.297271728515625
 42
4.99530029296875
 43
8.29736328125
 44
901.6576538085937
 45
1155.657592773437
 46
0.0
 47
0.0
 48
180360.0524337165
 49
80033.77936194791
140
180369.1574725906
141
80037.61796031875
142
1.0
143
30.0
 70
  1696
 72
     0
 73
     1
 74
     0
  7
1055ColorFullFinalShaded.ctb
 75
     0
147
0.0333333333333333
148
0.9506237099442845
149
8.593888772447144
  0
PLOTSETTINGS
  5
307
102
{ACAD_REACTORS
330
18
102
}
330
18
100
AcDbPlotSettings
  1
2200 Color Inkjet
  2
HP  2200 Color Inkjet.pc3
  4
Letter
  6
PS1
 40
7.143749713897705
 41
12.47775650024414
 42
7.14373779296875
 43
3.17498779296875
 44
215.8999938964843
 45
279.3999938964843
 46
0.0
 47
0.0
 48
180377.877572
 49
80019.819395
140
180380.8390819999
141
80022.26069
142
1.0
143
0.3486331030131726
 70
   688
 72
     0
 73
     1
 74
     3
  7
Color.ctb
 75
     0
147
2.868344948764708
148
-4581603.303200401
149
-2032962.095032944
  0
PLOTSETTINGS
  5
308
102
{ACAD_REACTORS
330
18
102
}
330
18
100
AcDbPlotSettings
  1
2200-Color-Inkjet
  2
HP  2200 Color Inkjet.pc3
  4
Letter
  6

 40
7.143749713897705
 41
12.47775650024414
 42
7.14373779296875
 43
3.17498779296875
 44
215.8999938964843
 45
279.3999938964843
 46
0.0
 47
0.0
 48
180360.0524337165
 49
80033.77936194791
140
180369.1574725906
141
80037.61796031875
142
1.0
143
0.069393053089765
 70
  1712
 72
     0
 73
     1
 74
     1
  7
Color.ctb
 75
     0
147
14.41066440334347
148
-190.0773302744904
149
-129.2444057835751
  0
PLOTSETTINGS
  5
309
102
{ACAD_REACTORS
330
18
102
}
330
18
100
AcDbPlotSettings
  1
24x36 PDF
  2
Bluebeam PDF Printer.pc3
  4
User128
  6
PS1
 40
3.174999952316284
 41
3.174999952316284
 42
3.17498779296875
 43
3.17498779296875
 44
609.5999755859375
 45
914.3999633789062
 46
270.5099999999999
 47
416.3059999999999
 48
180377.877572
 49
80019.819395
140
180380.8390819999
141
80022.26069
142
1.0
143
1.0
 70
   692
 72
     0
 73
     1
 74
     4
  7
1055B&WFullDraftShaded.ctb
 75
    16
147
1.0
148
-4581598.0903288
149
-2032503.412632999
  0
PLOTSETTINGS
  5
30A
102
{ACAD_REACTORS
330
18
102
}
330
18
100
AcDbPlotSettings
  1
8500 B&W Shaded 11x17
  2
8500B&WShaded.pc3
  4
11x17
  6
PS1
 40
5.027083396911621
 41
5.027085304260253
 42
5.027099609375
 43
5.027069091796875
 44
279.3999938964843
 45
431.7999877929687
 46
0.0
 47
92.964
 48
180377.877572
 49
80019.819395
140
180380.8390819999
141
80022.26069
142
1.0
143
0.0116192543742624
 70
   692
 72
     0
 73
     1
 74
     3
  7
8500B&WShaded.ctb
 75
     0
147
86.06404230335863
148
-4581651.879813895
149
-2032998.63613423
  0
PLOTSETTINGS
  5
30B
102
{ACAD_REACTORS
330
18
102
}
330
18
100
AcDbPlotSettings
  1
8500 B&W Shaded 8.5x11
  2
8500B&WShaded.pc3
  4
Letter
  6
PS1
 40
5.027083396911621
 41
5.027085304260253
 42
5.027084350585937
 43
5.027069091796875
 44
215.8999938964843
 45
279.3999938964843
 46
0.0
 47
44.44999999999999
 48
180377.877572
 49
80019.819395
140
180380.8390819999
141
80022.26069
142
1.0
143
0.0152035994604527
 70
   692
 72
     0
 73
     1
 74
     3
  7
8500B&WShaded.ctb
 75
     0
147
65.77389799048455
148
-4581651.879813895
149
-2032998.63613423
  0
PLOTSETTINGS
  5
30C
102
{ACAD_REACTORS
330
18
102
}
330
18
100
AcDbPlotSettings
  1
8500 Color Shaded 11x17
  2
8500ColorShaded.pc3
  4
11x17
  6
PS1
 40
5.027083396911621
 41
5.027085304260253
 42
5.027099609375
 43
5.027069091796875
 44
279.3999938964843
 45
431.7999877929687
 46
0.0
 47
92.964
 48
180377.877572
 49
80019.819395
140
180380.8390819999
141
80022.26069
142
1.0
143
0.0116192543742624
 70
   692
 72
     0
 73
     1
 74
     3
  7
8500ColorShaded.ctb
 75
     0
147
86.06404230335863
148
-4581651.879813895
149
-2032998.63613423
  0
PLOTSETTINGS
  5
30D
102
{ACAD_REACTORS
330
18
102
}
330
18
100
AcDbPlotSettings
  1
8500 Color Shaded 8.5x11
  2
8500ColorShaded.pc3
  4
Letter
  6
PS1
 40
5.027083396911621
 41
5.027085304260253
 42
5.027084350585937
 43
5.027069091796875
 44
215.8999938964843
 45
279.3999938964843
 46
0.0
 47
44.44999999999999
 48
180377.877572
 49
80019.819395
140
180380.8390819999
141
80022.26069
142
1.0
143
0.0152035994604527
 70
   692
 72
     0
 73
     1
 74
     3
  7
8500ColorShaded.ctb
 75
     0
147
65.77389799048455
148
-4581651.879813895
149
-2032998.63613423
  0
PLOTSETTINGS
  5
30E
102
{ACAD_REACTORS
330
18
102
}
330
18
100
AcDbPlotSettings
  1
8500-B&W-Shaded-11x17
  2
8500B&WShaded.pc3
  4
11x17
  6

 40
5.027083396911621
 41
5.027085304260253
 42
5.027099609375
 43
5.027069091796875
 44
279.3999938964843
 45
431.7999877929687
 46
0.0
 47
0.0
 48
180360.0524337165
 49
80033.77936194791
140
180369.1574725906
141
80037.61796031875
142
1.0
143
0.0519425466957002
 70
  1712
 72
     0
 73
     1
 74
     1
  7
8500B&WShaded.ctb
 75
     0
147
19.252040256293
148
-190.0773302744904
149
-129.2444057835751
  0
PLOTSETTINGS
  5
30F
102
{ACAD_REACTORS
330
18
102
}
330
18
100
AcDbPlotSettings
  1
8500-B&W-Shaded-8.5x11
  2
8500B&WShaded.pc3
  4
Letter
  6

 40
5.027083396911621
 41
5.027085304260253
 42
5.027084350585937
 43
5.027069091796875
 44
215.8999938964843
 45
279.3999938964843
 46
0.0
 47
0.0
 48
180360.0524337165
 49
80033.77936194791
140
180369.1574725906
141
80037.61796031875
142
1.0
143
0.0679659511256221
 70
  1712
 72
     0
 73
     1
 74
     1
  7
8500B&WShaded.ctb
 75
     0
147
14.71324955273106
148
-190.0773302744904
149
-129.2444057835751
  0
PLOTSETTINGS
  5
310
102
{ACAD_REACTORS
330
18
102
}
330
18
100
AcDbPlotSettings
  1
8500-Color-Shaded-11x17
  2
8500ColorShaded.pc3
  4
11x17
  6

 40
5.027083396911621
 41
5.027085304260253
 42
5.027099609375
 43
5.027069091796875
 44
279.3999938964843
 45
431.7999877929687
 46
0.0
 47
0.0
 48
180360.0524337165
 49
80033.77936194791
140
180369.1574725906
141
80037.61796031875
142
1.0
143
0.0519425466957002
 70
  1712
 72
     0
 73
     1
 74
     1
  7
8500ColorShaded.ctb
 75
     0
147
19.252040256293
148
-190.0773302744904
149
-129.2444057835751
  0
PLOTSETTINGS
  5
311
102
{ACAD_REACTORS
330
18
102
}
330
18
100
AcDbPlotSettings
  1
8500-Color-Shaded-8.5x11
  2
8500ColorShaded.pc3
  4
Letter
  6

 40
5.027083396911621
 41
5.027085304260253
 42
5.027084350585937
 43
5.027069091796875
 44
215.8999938964843
 45
279.3999938964843
 46
0.0
 47
0.0
 48
180360.0524337165
 49
80033.77936194791
140
180369.1574725906
141
80037.61796031875
142
1.0
143
0.0679659511256221
 70
  1712
 72
     0
 73
     1
 74
     1
  7
8500ColorShaded.ctb
 75
     0
147
14.71324955273106
148
-190.0773302744904
149
-129.2444057835751
  0
PLOTSETTINGS
  5
312
102
{ACAD_REACTORS
330
18
102
}
330
18
100
AcDbPlotSettings
  1
Laser Jet 5 Shaded 11x17
  2
LaserJet5Shaded.pc3
  4
11x17
  6
PS1
 40
7.143749713897705
 41
5.873736858367919
 42
7.143768310546875
 43
7.14373779296875
 44
279.3999938964843
 45
431.7999877929687
 46
0.0
 47
29.71799999999999
 48
180377.877572
 49
80019.819395
140
180380.8390819999
141
80022.26069
142
1.0
143
0.2557442899420743
 70
   692
 72
     0
 73
     1
 74
     3
  7
LaserJet5Shaded.ctb
 75
     0
147
3.910155727138614
148
-4581603.303200401
149
-2032962.095032944
  0
PLOTSETTINGS
  5
313
102
{ACAD_REACTORS
330
18
102
}
330
18
100
AcDbPlotSettings
  1
Laser Jet 5 Shaded 8.5x11
  2
LaserJet5Shaded.pc3
  4
Letter
  6
PS1
 40
7.143749713897705
 41
6.974400997161865
 42
7.14373779296875
 43
6.297088623046875
 44
215.8999938964843
 45
279.3999938964843
 46
2.794
 47
0.0
 48
180377.877572
 49
80019.819395
140
180380.8390819999
141
80022.26069
142
1.0
143
0.345513616778612
 70
   692
 72
     0
 73
     1
 74
     3
  7
LaserJet5Shaded.ctb
 75
     0
147
2.894241938489939
148
-4581603.303200401
149
-2032962.095032944
  0
PLOTSETTINGS
  5
314
102
{ACAD_REACTORS
330
18
102
}
330
18
100
AcDbPlotSettings
  1
LaserJet5-Shaded-11x17
  2
LaserJet5Shaded.pc3
  4
11x17
  6

 40
7.143749713897705
 41
5.873736858367919
 42
7.143768310546875
 43
7.14373779296875
 44
279.3999938964843
 45
431.7999877929687
 46
0.0
 47
0.0
 48
180360.0524337165
 49
80033.77936194791
140
180369.1574725906
141
80037.61796031875
142
1.0
143
0.0527719690046124
 70
  1712
 72
     0
 73
     1
 74
     1
  7
LaserJet5Shaded.ctb
 75
     0
147
18.9494540162524
148
-190.0773302744904
149
-129.2444057835751
  0
PLOTSETTINGS
  5
315
102
{ACAD_REACTORS
330
18
102
}
330
18
100
AcDbPlotSettings
  1
LaserJet5-Shaded-8.5x11
  2
LaserJet5Shaded.pc3
  4
Letter
  6

 40
7.143749713897705
 41
6.974400997161865
 42
7.14373779296875
 43
6.297088623046875
 44
215.8999938964843
 45
279.3999938964843
 46
0.0
 47
0.0
 48
180360.0524337165
 49
80033.77936194791
140
180369.1574725906
141
80037.61796031875
142
1.0
143
0.069393053089765
 70
  1712
 72
     0
 73
     1
 74
     1
  7
LaserJet5Shaded.ctb
 75
     0
147
14.41066440334347
148
-190.0773302744904
149
-129.2444057835751
  0
PLOTSETTINGS
  5
316
102
{ACAD_REACTORS
330
18
102
}
330
18
100
AcDbPlotSettings
  1
Oki Doki B&W Shaded 11x17
  2
OKI DOKI Color Laser.pc3
  4
Tabloid
  6
PS1
 40
5.027083396911621
 41
5.027085304260253
 42
5.027099609375
 43
5.027069091796875
 44
279.3999938964843
 45
431.7999877929687
 46
0.0
 47
47.49799999999999
 48
180377.877572
 49
80019.819395
140
180380.8390819999
141
80022.26069
142
1.0
143
0.2302203728173071
 70
   692
 72
     0
 73
     1
 74
     4
  7
OKIB&WShaded.ctb
 75
     0
147
4.343664236846477
148
-4581598.0903288
149
-2032503.412632999
  0
PLOTSETTINGS
  5
317
102
{ACAD_REACTORS
330
18
102
}
330
18
100
AcDbPlotSettings
  1
Oki Doki B&W Shaded 8.5x11
  2
OKI DOKI Color Laser.pc3
  4
Letter
  6
PS1
 40
5.027083396911621
 41
5.027085304260253
 42
5.027084350585937
 43
5.027069091796875
 44
215.8999938964843
 45
279.3999938964843
 46
0.0
 47
9.906
 48
180377.877572
 49
80019.819395
140
180380.8390819999
141
80022.26069
142
1.0
143
0.3012394963745367
 70
   692
 72
     0
 73
     1
 74
     4
  7
OKIB&WShaded.ctb
 75
     0
147
3.319617819161008
148
-4581598.0903288
149
-2032503.412632999
  0
PLOTSETTINGS
  5
318
102
{ACAD_REACTORS
330
18
102
}
330
18
100
AcDbPlotSettings
  1
Oki Doki Color Laser
  2
OKI DOKI Color Laser.pc3
  4
Letter
  6
PS1
 40
5.027083396911621
 41
5.027085304260253
 42
5.027084350585937
 43
5.027069091796875
 44
215.8999938964843
 45
279.3999938964843
 46
71.88199999999999
 47
97.02799999999999
 48
180377.877572
 49
80019.819395
140
180380.8390819999
141
80022.26069
142
1.0
143
1.0
 70
   692
 72
     0
 73
     1
 74
     4
  7
Color.ctb
 75
    16
147
1.0
148
-4581598.0903288
149
-2032503.412632999
  0
PLOTSETTINGS
  5
319
102
{ACAD_REACTORS
330
18
102
}
330
18
100
AcDbPlotSettings
  1
Oki Doki Color Shaded 11x17
  2
OKI DOKI Color Laser.pc3
  4
Tabloid
  6
PS1
 40
5.027083396911621
 41
5.027085304260253
 42
5.027099609375
 43
5.027069091796875
 44
279.3999938964843
 45
431.7999877929687
 46
0.0
 47
47.49799999999999
 48
180377.877572
 49
80019.819395
140
180380.8390819999
141
80022.26069
142
1.0
143
0.2302203728173071
 70
   692
 72
     0
 73
     1
 74
     4
  7
OKIColorShaded.ctb
 75
     0
147
4.343664236846477
148
-4581598.0903288
149
-2032503.412632999
  0
PLOTSETTINGS
  5
31A
102
{ACAD_REACTORS
330
18
102
}
330
18
100
AcDbPlotSettings
  1
Oki Doki Color Shaded 8.5x11
  2
OKI DOKI Color Laser.pc3
  4
Letter
  6
PS1
 40
5.027083396911621
 41
5.027085304260253
 42
5.027084350585937
 43
5.027069091796875
 44
215.8999938964843
 45
279.3999938964843
 46
0.0
 47
9.906
 48
180377.877572
 49
80019.819395
140
180380.8390819999
141
80022.26069
142
1.0
143
0.3012394963745367
 70
   692
 72
     0
 73
     1
 74
     4
  7
OKIColorShaded.ctb
 75
     0
147
3.319617819161008
148
-4581598.0903288
149
-2032503.412632999
  0
PLOTSETTINGS
  5
31B
102
{ACAD_REACTORS
330
18
102
}
330
18
100
AcDbPlotSettings
  1
Oki-Doki-B&W-Shaded-11x17
  2
OKI DOKI Color Laser.pc3
  4
Tabloid
  6

 40
5.027083396911621
 41
5.027085304260253
 42
5.027099609375
 43
5.027069091796875
 44
279.3999938964843
 45
431.7999877929687
 46
45.72
 47
0.0
 48
180360.0524337165
 49
80033.77936194791
140
180369.1574725906
141
80037.61796031875
142
1.0
143
0.5483586774064594
 70
  1716
 72
     0
 73
     1
 74
     4
  7
OKIB&WShaded.ctb
 75
     0
147
1.823623918435361
148
-4581145.331816398
149
-2032857.995793476
  0
PLOTSETTINGS
  5
31C
102
{ACAD_REACTORS
330
18
102
}
330
18
100
AcDbPlotSettings
  1
Oki-Doki-B&W-Shaded-8.5x11
  2
OKI DOKI Color Laser.pc3
  4
Letter
  6

 40
5.027083396911621
 41
5.027085304260253
 42
5.027084350585937
 43
5.027069091796875
 44
215.8999938964843
 45
279.3999938964843
 46
46.228
 47
0.0
 48
180360.0524337165
 49
80033.77936194791
140
180369.1574725906
141
80037.61796031875
142
1.0
143
0.8586284006917006
 70
  1716
 72
     0
 73
     1
 74
     4
  7
OKIB&WShaded.ctb
 75
     0
147
1.16464817515285
148
-4581145.331816398
149
-2032857.995793476
  0
PLOTSETTINGS
  5
31D
102
{ACAD_REACTORS
330
18
102
}
330
18
100
AcDbPlotSettings
  1
Oki-Doki-Color-Laser
  2
OKI DOKI Color Laser.pc3
  4
Letter
  6

 40
5.027083396911621
 41
5.027085304260253
 42
5.027084350585937
 43
5.027069091796875
 44
215.8999938964843
 45
279.3999938964843
 46
17.018
 47
0.0
 48
180360.0524337165
 49
80033.77936194791
140
180369.1574725906
141
80037.61796031875
142
1.0
143
1.429088128819241
 70
  1716
 72
     0
 73
     1
 74
     0
  7
Color.ctb
 75
     0
147
0.6997469084193093
148
0.9506237099442977
149
8.593888772447144
  0
PLOTSETTINGS
  5
31E
102
{ACAD_REACTORS
330
18
102
}
330
18
100
AcDbPlotSettings
  1
Oki-Doki-Color-Shaded-11x17
  2
OKI DOKI Color Laser.pc3
  4
Tabloid
  6

 40
5.027083396911621
 41
5.027085304260253
 42
5.027099609375
 43
5.027069091796875
 44
279.3999938964843
 45
431.7999877929687
 46
45.72
 47
0.0
 48
180360.0524337165
 49
80033.77936194791
140
180369.1574725906
141
80037.61796031875
142
1.0
143
0.5483586774064594
 70
  1716
 72
     0
 73
     1
 74
     4
  7
OKIColorShaded.ctb
 75
     0
147
1.823623918435361
148
-4581145.331816398
149
-2032857.995793476
  0
PLOTSETTINGS
  5
31F
102
{ACAD_REACTORS
330
18
102
}
330
18
100
AcDbPlotSettings
  1
Oki-Doki-Color-Shaded-8.5x11
  2
OKI DOKI Color Laser.pc3
  4
Letter
  6

 40
5.027083396911621
 41
5.027085304260253
 42
5.027084350585937
 43
5.027069091796875
 44
215.8999938964843
 45
279.3999938964843
 46
46.228
 47
0.0
 48
180360.0524337165
 49
80033.77936194791
140
180369.1574725906
141
80037.61796031875
142
1.0
143
0.8586284006917006
 70
  1716
 72
     0
 73
     1
 74
     4
  7
OKIColorShaded.ctb
 75
     0
147
1.16464817515285
148
-4581145.331816398
149
-2032857.995793476
  0
ACDBPLACEHOLDER
  5
F
102
{ACAD_REACTORS
330
E
102
}
330
E
  0
DICTIONARYVAR
  5
248
102
{ACAD_REACTORS
330
245
102
}
330
245
100
DictionaryVariables
280
     0
  1
1
  0
DICTIONARYVAR
  5
247
102
{ACAD_REACTORS
330
245
102
}
330
245
100
DictionaryVariables
280
     0
  1
1
  0
DICTIONARYVAR
  5
246
102
{ACAD_REACTORS
330
245
102
}
330
245
100
DictionaryVariables
280
     0
  1
1
  0
ENDSEC
  0
EOF
