  0
SECTION
  2
HEADER
  9
$ACADVER
  1
AC1015
  9
$ACADMAINTVER
 70
    13
  9
$DWGCODEPAGE
  3
ANSI_1252
  9
$INSBASE
 10
0.0
 20
0.0
 30
0.0
  9
$EXTMIN
 10
-0.8865804171450299
 20
-1.229722472328506
 30
0.0
  9
$EXTMAX
 10
15.60341958285496
 20
9.210277527671491
 30
0.03
  9
$LIMMIN
 10
0.0
 20
0.0
  9
$LIMMAX
 10
12.0
 20
9.0
  9
$ORTHOMODE
 70
     1
  9
$REGENMODE
 70
     1
  9
$FILLMODE
 70
     1
  9
$QTEXTMODE
 70
     0
  9
$MIRRTEXT
 70
     0
  9
$LTSCALE
 40
1.0
  9
$ATTMODE
 70
     1
  9
$TEXTSIZE
 40
0.1
  9
$TRACEWID
 40
0.05
  9
$TEXTSTYLE
  7
ROMANS
  9
$CLAYER
  8
0
  9
$CELTYPE
  6
BYLAYER
  9
$CECOLOR
 62
   256
  9
$CELTSCALE
 40
1.0
  9
$DISPSILH
 70
     0
  9
$DIMSCALE
 40
1.0
  9
$DIMASZ
 40
0.18
  9
$DIMEXO
 40
0.0625
  9
$DIMDLI
 40
0.38
  9
$DIMRND
 40
0.0
  9
$DIMDLE
 40
0.0
  9
$DIMEXE
 40
0.18
  9
$DIMTP
 40
0.0
  9
$DIMTM
 40
0.0
  9
$DIMTXT
 40
0.18
  9
$DIMCEN
 40
0.09
  9
$DIMTSZ
 40
0.0
  9
$DIMTOL
 70
     0
  9
$DIMLIM
 70
     0
  9
$DIMTIH
 70
     1
  9
$DIMTOH
 70
     1
  9
$DIMSE1
 70
     0
  9
$DIMSE2
 70
     0
  9
$DIMTAD
 70
     0
  9
$DIMZIN
 70
     0
  9
$DIMBLK
  1

  9
$DIMASO
 70
     1
  9
$DIMSHO
 70
     1
  9
$DIMPOST
  1

  9
$DIMAPOST
  1

  9
$DIMALT
 70
     0
  9
$DIMALTD
 70
     2
  9
$DIMALTF
 40
25.4
  9
$DIMLFAC
 40
1.0
  9
$DIMTOFL
 70
     0
  9
$DIMTVP
 40
0.0
  9
$DIMTIX
 70
     0
  9
$DIMSOXD
 70
     0
  9
$DIMSAH
 70
     0
  9
$DIMBLK1
  1

  9
$DIMBLK2
  1

  9
$DIMSTYLE
  2
STANDARD
  9
$DIMCLRD
 70
     0
  9
$DIMCLRE
 70
     0
  9
$DIMCLRT
 70
     0
  9
$DIMTFAC
 40
1.0
  9
$DIMGAP
 40
0.09
  9
$DIMJUST
 70
     0
  9
$DIMSD1
 70
     0
  9
$DIMSD2
 70
     0
  9
$DIMTOLJ
 70
     1
  9
$DIMTZIN
 70
     0
  9
$DIMALTZ
 70
     0
  9
$DIMALTTZ
 70
     0
  9
$DIMUPT
 70
     0
  9
$DIMDEC
 70
     4
  9
$DIMTDEC
 70
     4
  9
$DIMALTU
 70
     2
  9
$DIMALTTD
 70
     2
  9
$DIMTXSTY
  7
SIMPLEX
  9
$DIMAUNIT
 70
     0
  9
$DIMADEC
 70
     0
  9
$DIMALTRND
 40
0.0
  9
$DIMAZIN
 70
     0
  9
$DIMDSEP
 70
    46
  9
$DIMATFIT
 70
     3
  9
$DIMFRAC
 70
     0
  9
$DIMLDRBLK
  1

  9
$DIMLUNIT
 70
     2
  9
$DIMLWD
 70
    -2
  9
$DIMLWE
 70
    -2
  9
$DIMTMOVE
 70
     2
  9
$LUNITS
 70
     2
  9
$LUPREC
 70
     4
  9
$SKETCHINC
 40
0.1
  9
$FILLETRAD
 40
0.0
  9
$AUNITS
 70
     0
  9
$AUPREC
 70
     0
  9
$MENU
  1
ACAD
  9
$ELEVATION
 40
0.0
  9
$PELEVATION
 40
0.0
  9
$THICKNESS
 40
0.0
  9
$LIMCHECK
 70
     0
  9
$CHAMFERA
 40
0.0
  9
$CHAMFERB
 40
0.0
  9
$CHAMFERC
 40
0.0
  9
$CHAMFERD
 40
0.0
  9
$SKPOLY
 70
     0
  9
$TDCREATE
 40
2449637.699090856
  9
$TDUCREATE
 40
2449637.990757523
  9
$TDUPDATE
 40
2453045.453779375
  9
$TDUUPDATE
 40
2453045.745446041
  9
$TDINDWG
 40
0.7104691435
  9
$TDUSRTIMER
 40
0.7104691435
  9
$USRTIMER
 70
     1
  9
$ANGBASE
 50
0.0
  9
$ANGDIR
 70
     0
  9
$PDMODE
 70
     0
  9
$PDSIZE
 40
0.0
  9
$PLINEWID
 40
0.0
  9
$SPLFRAME
 70
     0
  9
$SPLINETYPE
 70
     6
  9
$SPLINESEGS
 70
     8
  9
$HANDSEED
  5
84E
  9
$SURFTAB1
 70
     6
  9
$SURFTAB2
 70
     6
  9
$SURFTYPE
 70
     6
  9
$SURFU
 70
     6
  9
$SURFV
 70
     6
  9
$UCSBASE
  2

  9
$UCSNAME
  2

  9
$UCSORG
 10
0.0
 20
0.0
 30
0.0
  9
$UCSXDIR
 10
1.0
 20
0.0
 30
0.0
  9
$UCSYDIR
 10
0.0
 20
1.0
 30
0.0
  9
$UCSORTHOREF
  2

  9
$UCSORTHOVIEW
 70
     0
  9
$UCSORGTOP
 10
0.0
 20
0.0
 30
0.0
  9
$UCSORGBOTTOM
 10
0.0
 20
0.0
 30
0.0
  9
$UCSORGLEFT
 10
0.0
 20
0.0
 30
0.0
  9
$UCSORGRIGHT
 10
0.0
 20
0.0
 30
0.0
  9
$UCSORGFRONT
 10
0.0
 20
0.0
 30
0.0
  9
$UCSORGBACK
 10
0.0
 20
0.0
 30
0.0
  9
$PUCSBASE
  2

  9
$PUCSNAME
  2

  9
$PUCSORG
 10
0.0
 20
0.0
 30
0.0
  9
$PUCSXDIR
 10
1.0
 20
0.0
 30
0.0
  9
$PUCSYDIR
 10
0.0
 20
1.0
 30
0.0
  9
$PUCSORTHOREF
  2

  9
$PUCSORTHOVIEW
 70
     0
  9
$PUCSORGTOP
 10
0.0
 20
0.0
 30
0.0
  9
$PUCSORGBOTTOM
 10
0.0
 20
0.0
 30
0.0
  9
$PUCSORGLEFT
 10
0.0
 20
0.0
 30
0.0
  9
$PUCSORGRIGHT
 10
0.0
 20
0.0
 30
0.0
  9
$PUCSORGFRONT
 10
0.0
 20
0.0
 30
0.0
  9
$PUCSORGBACK
 10
0.0
 20
0.0
 30
0.0
  9
$USERI1
 70
     0
  9
$USERI2
 70
     0
  9
$USERI3
 70
     0
  9
$USERI4
 70
     0
  9
$USERI5
 70
     0
  9
$USERR1
 40
0.0
  9
$USERR2
 40
0.0
  9
$USERR3
 40
0.0
  9
$USERR4
 40
0.0
  9
$USERR5
 40
0.0
  9
$WORLDVIEW
 70
     1
  9
$SHADEDGE
 70
     3
  9
$SHADEDIF
 70
    70
  9
$TILEMODE
 70
     1
  9
$MAXACTVP
 70
    16
  9
$PINSBASE
 10
0.0
 20
0.0
 30
0.0
  9
$PLIMCHECK
 70
     0
  9
$PEXTMIN
 10
1.000000000000000E+20
 20
1.000000000000000E+20
 30
1.000000000000000E+20
  9
$PEXTMAX
 10
-1.000000000000000E+20
 20
-1.000000000000000E+20
 30
-1.000000000000000E+20
  9
$PLIMMIN
 10
0.0
 20
0.0
  9
$PLIMMAX
 10
12.0
 20
9.0
  9
$UNITMODE
 70
     0
  9
$VISRETAIN
 70
     0
  9
$PLINEGEN
 70
     1
  9
$PSLTSCALE
 70
     1
  9
$TREEDEPTH
 70
  3020
  9
$CMLSTYLE
  2
STANDARD
  9
$CMLJUST
 70
     0
  9
$CMLSCALE
 40
1.0
  9
$PROXYGRAPHICS
 70
     1
  9
$MEASUREMENT
 70
     0
  9
$CELWEIGHT
370
    -1
  9
$ENDCAPS
280
     0
  9
$JOINSTYLE
280
     0
  9
$LWDISPLAY
290
     0
  9
$INSUNITS
 70
     0
  9
$HYPERLINKBASE
  1

  9
$STYLESHEET
  1
8500ColorShaded.ctb
  9
$XEDIT
290
     1
  9
$CEPSNTYPE
380
     0
  9
$PSTYLEMODE
290
     1
  9
$FINGERPRINTGUID
  2
{D0CA4AFF-FB3E-4670-A232-50646686CA10}
  9
$VERSIONGUID
  2
{8F489776-CA22-48CA-95BA-304F88B75C9D}
  9
$EXTNAMES
290
     1
  9
$PSVPSCALE
 40
0.0
  9
$OLESTARTUP
290
     0
  0
ENDSEC
  0
SECTION
  2
CLASSES
  0
CLASS
  1
DICTIONARYVAR
  2
AcDbDictionaryVar
  3
AutoCAD 2000
 90
        0
280
     0
281
     0
  0
CLASS
  1
LWPOLYLINE
  2
AcDbPolyline
  3
AutoCAD 2000
 90
    32768
280
     0
281
     1
  0
CLASS
  1
HATCH
  2
AcDbHatch
  3
AutoCAD 2000
 90
    32768
280
     0
281
     1
  0
CLASS
  1
ACDBDICTIONARYWDFLT
  2
AcDbDictionaryWithDefault
  3
AutoCAD 2000
 90
        0
280
     0
281
     0
  0
CLASS
  1
ACDBPLACEHOLDER
  2
AcDbPlaceHolder
  3
AutoCAD 2000
 90
        0
280
     0
281
     0
  0
CLASS
  1
LAYOUT
  2
AcDbLayout
  3
AutoCAD 2000
 90
        0
280
     0
281
     0
  0
CLASS
  1
PLOTSETTINGS
  2
AcDbPlotSettings
  3
AutoCAD 2000
 90
        0
280
     0
281
     0
  0
ENDSEC
  0
SECTION
  2
TABLES
  0
TABLE
  2
VPORT
  5
8
330
0
100
AcDbSymbolTable
 70
     4
  0
VPORT
  5
84D
330
8
100
AcDbSymbolTableRecord
100
AcDbViewportTableRecord
  2
*Active
 70
     0
 10
0.0
 20
0.0
 11
1.0
 21
1.0
 12
7.358600112427337
 22
3.990361541582662
 13
0.0
 23
0.0
 14
0.14
 24
0.14
 15
0.14
 25
0.14
 16
0.0
 26
0.0
 36
1.0
 17
0.0
 27
0.0
 37
0.0
 40
10.53081440733897
 41
1.639044943820224
 42
50.0
 43
0.0
 44
0.0
 50
0.0
 51
0.0
 71
     0
 72
  5000
 73
     1
 74
     0
 75
     0
 76
     0
 77
     0
 78
     0
281
     0
 65
     1
110
0.0
120
0.0
130
0.0
111
1.0
121
0.0
131
0.0
112
0.0
122
1.0
132
0.0
 79
     0
146
0.0
  0
ENDTAB
  0
TABLE
  2
LTYPE
  5
5
330
0
100
AcDbSymbolTable
 70
     1
  0
LTYPE
  5
11
330
5
100
AcDbSymbolTableRecord
100
AcDbLinetypeTableRecord
  2
BYBLOCK
 70
     0
  3

 72
    65
 73
     0
 40
0.0
  0
LTYPE
  5
12
330
5
100
AcDbSymbolTableRecord
100
AcDbLinetypeTableRecord
  2
BYLAYER
 70
     0
  3

 72
    65
 73
     0
 40
0.0
  0
LTYPE
  5
13
330
5
100
AcDbSymbolTableRecord
100
AcDbLinetypeTableRecord
  2
CONTINUOUS
 70
     0
  3
Solid line
 72
    65
 73
     0
 40
0.0
  0
ENDTAB
  0
TABLE
  2
LAYER
  5
2
102
{ACAD_XDICTIONARY
360
6BA
102
}
330
0
100
AcDbSymbolTable
 70
    17
  0
LAYER
  5
E
330
2
100
AcDbSymbolTableRecord
100
AcDbLayerTableRecord
  2
0
 70
     0
 62
     7
  6
CONTINUOUS
370
    -3
390
6A9
1001
RAK
1000
{V1
1070
     0
1070
     7
1000
CONTINUOUS
1000
V1}
1000
{V2
1070
     0
1070
     7
1000
CONTINUOUS
1000
V2}
1000
{V3
1070
     0
1070
     7
1000
CONTINUOUS
1000
V3}
1000
{V4
1070
     0
1070
     7
1000
CONTINUOUS
1000
V4}
  0
LAYER
  5
22
330
2
100
AcDbSymbolTableRecord
100
AcDbLayerTableRecord
  2
TEXT_BUBBLES
 70
     0
 62
    -6
  6
CONTINUOUS
370
    -3
390
6A9
1001
RAK
1000
{V1
1070
     0
1070
    -6
1000
CONTINUOUS
1000
V1}
1000
{V2
1070
     0
1070
     6
1000
CONTINUOUS
1000
V2}
1000
{V3
1070
     0
1070
    -6
1000
CONTINUOUS
1000
V3}
1000
{V4
1070
     0
1070
     6
1000
CONTINUOUS
1000
V4}
  0
LAYER
  5
23
330
2
100
AcDbSymbolTableRecord
100
AcDbLayerTableRecord
  2
IMAGE
 70
     0
 62
     7
  6
CONTINUOUS
370
    -3
390
6A9
1001
RAK
1000
{V1
1070
     0
1070
     7
1000
CONTINUOUS
1000
V1}
1000
{V2
1070
     0
1070
     7
1000
CONTINUOUS
1000
V2}
1000
{V3
1070
     0
1070
     7
1000
CONTINUOUS
1000
V3}
1000
{V4
1070
     0
1070
     7
1000
CONTINUOUS
1000
V4}
  0
LAYER
  5
26
330
2
100
AcDbSymbolTableRecord
100
AcDbLayerTableRecord
  2
TEXT_LEADERS
 70
     0
 62
     5
  6
CONTINUOUS
370
    -3
390
6A9
1001
RAK
1000
{V1
1070
     0
1070
     5
1000
CONTINUOUS
1070
     1
1000
V1}
1000
{V2
1070
     0
1070
    -5
1000
CONTINUOUS
1070
     1
1000
V2}
1000
{V3
1070
     0
1070
     5
1000
CONTINUOUS
1000
V3}
1000
{V4
1070
     0
1070
    -5
1000
CONTINUOUS
1000
V4}
  0
LAYER
  5
27
330
2
100
AcDbSymbolTableRecord
100
AcDbLayerTableRecord
  2
INSTRUCT-OPTION
 70
     0
 62
     7
  6
CONTINUOUS
370
    -3
390
6A9
1001
RAK
1000
{V1
1070
     0
1070
     7
1000
CONTINUOUS
1000
V1}
1000
{V2
1070
     0
1070
     7
1000
CONTINUOUS
1000
V2}
1000
{V3
1070
     0
1070
     7
1000
CONTINUOUS
1000
V3}
1000
{V4
1070
     0
1070
     7
1000
CONTINUOUS
1000
V4}
  0
LAYER
  5
28
330
2
100
AcDbSymbolTableRecord
100
AcDbLayerTableRecord
  2
INSTRUCT-CALLOUT
 70
     0
 62
     4
  6
CONTINUOUS
370
    -3
390
6A9
1001
RAK
1000
{V1
1070
     0
1070
     4
1000
CONTINUOUS
1000
V1}
1000
{V2
1070
     0
1070
     4
1000
CONTINUOUS
1000
V2}
1000
{V3
1070
     0
1070
     4
1000
CONTINUOUS
1000
V3}
1000
{V4
1070
     0
1070
     4
1000
CONTINUOUS
1000
V4}
  0
LAYER
  5
3DF
330
2
100
AcDbSymbolTableRecord
100
AcDbLayerTableRecord
  2
OPTION-3504-PC-N
 70
     0
 62
    -1
  6
CONTINUOUS
370
    -3
390
6A9
1001
RAK
1000
{V1
1070
     0
1070
    -1
1000
CONTINUOUS
1000
V1}
1000
{V2
1070
     0
1070
    -1
1000
CONTINUOUS
1000
V2}
1000
{V3
1070
     0
1070
    -1
1000
CONTINUOUS
1000
V3}
1000
{V4
1070
     0
1070
    -1
1000
CONTINUOUS
1000
V4}
  0
LAYER
  5
3E1
330
2
100
AcDbSymbolTableRecord
100
AcDbLayerTableRecord
  2
OPTION-3504-PC-SAM
 70
     0
 62
     1
  6
CONTINUOUS
370
    -3
390
6A9
1001
RAK
1000
{V1
1070
     0
1070
    -1
1000
CONTINUOUS
1000
V1}
1000
{V2
1070
     0
1070
    -1
1000
CONTINUOUS
1000
V2}
1000
{V3
1070
     0
1070
    -1
1000
CONTINUOUS
1000
V3}
1000
{V4
1070
     0
1070
    -1
1000
CONTINUOUS
1000
V4}
  0
LAYER
  5
3E3
330
2
100
AcDbSymbolTableRecord
100
AcDbLayerTableRecord
  2
OPTION-3504-PC-SAM-N
 70
     0
 62
    -1
  6
CONTINUOUS
370
    -3
390
6A9
1001
RAK
1000
{V1
1070
     0
1070
     1
1000
CONTINUOUS
1000
V1}
1000
{V2
1070
     0
1070
     1
1000
CONTINUOUS
1000
V2}
1000
{V3
1070
     0
1070
     1
1000
CONTINUOUS
1000
V3}
1000
{V4
1070
     0
1070
     1
1000
CONTINUOUS
1000
V4}
  0
LAYER
  5
5D7
330
2
100
AcDbSymbolTableRecord
100
AcDbLayerTableRecord
  2
TEXT_RB_SA_BUBBLES
 70
     0
 62
    -1
  6
CONTINUOUS
370
    -3
390
6A9
1001
RAK
1000
{V4
1070
     0
1070
     3
1000
CONTINUOUS
1000
V4}
1000
{V1
1070
     0
1070
    -3
1000
CONTINUOUS
1000
V1}
1000
{V2
1070
     0
1070
    -3
1000
CONTINUOUS
1000
V2}
1000
{V3
1070
     0
1070
    -3
1000
CONTINUOUS
1000
V3}
  0
LAYER
  5
5F7
330
2
100
AcDbSymbolTableRecord
100
AcDbLayerTableRecord
  2
TEXT_SA_LEADERS
 70
     0
 62
     1
  6
CONTINUOUS
370
    -3
390
6A9
1001
RAK
1000
{V1
1070
     0
1070
     2
1000
CONTINUOUS
1000
V1}
1000
{V2
1070
     0
1070
    -2
1000
CONTINUOUS
1000
V2}
1000
{V3
1070
     0
1070
    -2
1000
CONTINUOUS
1000
V3}
1000
{V4
1070
     0
1070
    -2
1000
CONTINUOUS
1000
V4}
  0
LAYER
  5
5F8
330
2
100
AcDbSymbolTableRecord
100
AcDbLayerTableRecord
  2
TEXT_RB_SA_LEADERS
 70
     0
 62
    -1
  6
CONTINUOUS
370
    -3
390
6A9
1001
RAK
1000
{V1
1070
     0
1070
    -7
1000
CONTINUOUS
1000
V1}
1000
{V2
1070
     0
1070
    -7
1000
CONTINUOUS
1000
V2}
1000
{V3
1070
     0
1070
     7
1000
CONTINUOUS
1000
V3}
1000
{V4
1070
     0
1070
    -7
1000
CONTINUOUS
1000
V4}
  0
LAYER
  5
5F9
330
2
100
AcDbSymbolTableRecord
100
AcDbLayerTableRecord
  2
TEXT_SA_BUBBLES
 70
     0
 62
    -1
  6
CONTINUOUS
370
    -3
390
6A9
1001
RAK
1000
{V1
1070
     0
1070
    -7
1000
CONTINUOUS
1000
V1}
1000
{V2
1070
     0
1070
     7
1000
CONTINUOUS
1000
V2}
1000
{V3
1070
     0
1070
    -7
1000
CONTINUOUS
1000
V3}
1000
{V4
1070
     0
1070
    -7
1000
CONTINUOUS
1000
V4}
  0
LAYER
  5
5FA
330
2
100
AcDbSymbolTableRecord
100
AcDbLayerTableRecord
  2
OPTION_SA
 70
     0
 62
     1
  6
CONTINUOUS
370
    -3
390
6A9
1001
RAK
1000
{V1
1070
     0
1070
     4
1000
CONTINUOUS
1000
V1}
1000
{V2
1070
     0
1070
     4
1000
CONTINUOUS
1000
V2}
1000
{V3
1070
     0
1070
    -4
1000
CONTINUOUS
1000
V3}
1000
{V4
1070
     0
1070
    -4
1000
CONTINUOUS
1000
V4}
  0
LAYER
  5
5FC
330
2
100
AcDbSymbolTableRecord
100
AcDbLayerTableRecord
  2
OPTION_RB_SA
 70
     0
 62
    -1
  6
CONTINUOUS
370
    -3
390
6A9
1001
RAK
1000
{V1
1070
     0
1070
    -7
1000
CONTINUOUS
1000
V1}
1000
{V2
1070
     0
1070
    -7
1000
CONTINUOUS
1000
V2}
1000
{V3
1070
     0
1070
     7
1000
CONTINUOUS
1000
V3}
1000
{V4
1070
     0
1070
     7
1000
CONTINUOUS
1000
V4}
  0
LAYER
  5
79F
330
2
100
AcDbSymbolTableRecord
100
AcDbLayerTableRecord
  2
TITLE
 70
     0
 62
     4
  6
CONTINUOUS
370
    -3
390
6A9
  0
LAYER
  5
834
330
2
100
AcDbSymbolTableRecord
100
AcDbLayerTableRecord
  2
OPTION-4504-PC
 70
     0
 62
    -1
  6
CONTINUOUS
370
    -3
390
6A9
  0
ENDTAB
  0
TABLE
  2
STYLE
  5
3
330
0
100
AcDbSymbolTable
 70
     6
  0
STYLE
  5
F
330
3
100
AcDbSymbolTableRecord
100
AcDbTextStyleTableRecord
  2
STANDARD
 70
     0
 40
0.0
 41
1.0
 50
0.0
 71
     0
 42
0.2
  3
txt
  4

  0
STYLE
  5
1E
330
3
100
AcDbSymbolTableRecord
100
AcDbTextStyleTableRecord
  2
ROMANS
 70
     0
 40
0.0
 41
1.0
 50
0.0
 71
     0
 42
0.1
  3
ROMANS.SHX
  4

  0
STYLE
  5
1F
330
3
100
AcDbSymbolTableRecord
100
AcDbTextStyleTableRecord
  2
SIMPLEX
 70
     0
 40
0.0
 41
1.0
 50
0.0
 71
     0
 42
0.1
  3
SIMPLEX
  4

  0
STYLE
  5
7A0
330
3
100
AcDbSymbolTableRecord
100
AcDbTextStyleTableRecord
  2
L100
 70
     0
 40
0.1
 41
1.0
 50
0.0
 71
     0
 42
0.1
  3
romans.shx
  4

  0
STYLE
  5
7A1
330
3
100
AcDbSymbolTableRecord
100
AcDbTextStyleTableRecord
  2
L200
 70
     0
 40
0.2
 41
1.0
 50
0.0
 71
     0
 42
0.081
  3
ARIAL.TTF
  4

1001
ACAD
1000
Arial
1071
       34
  0
STYLE
  5
7A2
330
3
100
AcDbSymbolTableRecord
100
AcDbTextStyleTableRecord
  2
L80
 70
     0
 40
0.08
 41
1.0
 50
0.0
 71
     0
 42
0.08
  3
ROMANS
  4

  0
ENDTAB
  0
TABLE
  2
VIEW
  5
6
330
0
100
AcDbSymbolTable
 70
     0
  0
ENDTAB
  0
TABLE
  2
UCS
  5
7
330
0
100
AcDbSymbolTable
 70
     0
  0
ENDTAB
  0
TABLE
  2
APPID
  5
9
330
0
100
AcDbSymbolTable
 70
     3
  0
APPID
  5
10
330
9
100
AcDbSymbolTableRecord
100
AcDbRegAppTableRecord
  2
ACAD
 70
     0
  0
APPID
  5
5D8
330
9
100
AcDbSymbolTableRecord
100
AcDbRegAppTableRecord
  2
RAK
 70
     0
  0
APPID
  5
7A3
330
9
100
AcDbSymbolTableRecord
100
AcDbRegAppTableRecord
  2
DCO15
 70
     0
  0
ENDTAB
  0
TABLE
  2
DIMSTYLE
  5
A
330
0
100
AcDbSymbolTable
 70
     1
100
AcDbDimStyleTable
 71
     0
  0
DIMSTYLE
105
288
330
A
100
AcDbSymbolTableRecord
100
AcDbDimStyleTableRecord
  2
STANDARD
 70
     0
340
F
  0
ENDTAB
  0
TABLE
  2
BLOCK_RECORD
  5
1
330
0
100
AcDbSymbolTable
 70
     1
  0
BLOCK_RECORD
  5
17
330
1
100
AcDbSymbolTableRecord
100
AcDbBlockTableRecord
  2
*MODEL_SPACE
340
6AC
  0
BLOCK_RECORD
  5
14
330
1
100
AcDbSymbolTableRecord
100
AcDbBlockTableRecord
  2
*PAPER_SPACE
340
6AD
  0
BLOCK_RECORD
  5
7A4
330
1
100
AcDbSymbolTableRecord
100
AcDbBlockTableRecord
  2
titleblock
340
0
102
{BLKREFS
331
7B3
102
}
  0
ENDTAB
  0
ENDSEC
  0
SECTION
  2
BLOCKS
  0
BLOCK
  5
2E
330
17
100
AcDbEntity
  8
0
100
AcDbBlockBegin
  2
*MODEL_SPACE
 70
     0
 10
0.0
 20
0.0
 30
0.0
  3
*MODEL_SPACE
  1

  0
ENDBLK
  5
2F
330
17
100
AcDbEntity
  8
0
100
AcDbBlockEnd
  0
BLOCK
  5
2C
330
14
100
AcDbEntity
 67
     1
  8
0
100
AcDbBlockBegin
  2
*PAPER_SPACE
 70
     0
 10
0.0
 20
0.0
 30
0.0
  3
*PAPER_SPACE
  1

  0
ENDBLK
  5
2D
330
14
100
AcDbEntity
 67
     1
  8
0
100
AcDbBlockEnd
  0
BLOCK
  5
7B0
330
7A4
100
AcDbEntity
  8
0
100
AcDbBlockBegin
  2
titleblock
 70
     2
 10
0.0
 20
0.0
 30
0.0
  3
titleblock
  1

  0
LWPOLYLINE
  5
7A5
330
7A4
100
AcDbEntity
  8
IMAGE
100
AcDbPolyline
 90
        4
 70
     1
 43
0.0
 10
0.0
 20
0.0
 10
16.48999999999999
 20
0.0000000000000001
 10
16.48999999999999
 20
10.44
 10
0.0
 20
10.44
  0
ATTDEF
  5
7A6
330
7A4
100
AcDbEntity
  8
TITLE
100
AcDbText
 10
0.5055556038023421
 20
0.7842270964783673
 30
0.0
 40
0.2
  1
D
  7
L200
 72
     4
 11
0.6064423705144839
 21
0.8842270964783672
 31
0.0
100
AcDbAttributeDefinition
  3
#
  2
D
 70
     0
  0
ATTDEF
  5
7A7
330
7A4
100
AcDbEntity
  8
TITLE
100
AcDbText
 10
1.231442370514484
 20
1.34371230274675
 30
0.0
 40
0.2
  1

  7
L200
100
AcDbAttributeDefinition
  3
DETAIL TITLE TOP LINE
  2
TITLE1
 70
     0
  0
ATTDEF
  5
7A8
330
7A4
100
AcDbEntity
  8
TITLE
100
AcDbText
 10
1.231442370514484
 20
0.9842270964783674
 30
0.0
 40
0.2
  1
TITLE
  7
L200
100
AcDbAttributeDefinition
  3
DETAIL TITLE TOP 2ND LINE
  2
TITLE2
 70
     0
  0
ATTDEF
  5
7A9
330
7A4
100
AcDbEntity
  8
TITLE
100
AcDbText
 10
2.713645751168312
 20
0.5927927664583189
 30
0.0
 40
0.2
  1
TITLE2
  7
L200
100
AcDbAttributeDefinition
  3
DETAIL TITLE BOTTOM 1
  2
TITLE3
 70
     0
  0
ATTDEF
  5
7AA
330
7A4
100
AcDbEntity
  8
TITLE
100
AcDbText
 10
2.713645751168312
 20
0.2692560808167741
 30
0.0
 40
0.2
  1

  7
L200
100
AcDbAttributeDefinition
  3
DETAIL TITLE BOTTOM 2
  2
TITLE4
 70
     0
  0
ATTDEF
  5
7AB
330
7A4
100
AcDbEntity
  8
TITLE
 62
     7
100
AcDbText
 10
8.177214829966379
 20
0.9696027915446398
 30
0.0
 40
0.08
  1
-
  7
L80
 72
     2
 11
8.261024353775903
 21
0.9696027915446398
 31
0.0
100
AcDbAttributeDefinition
  3
REVISION DATE
  2
REVISED
 70
     0
  0
ATTDEF
  5
7AC
330
7A4
100
AcDbEntity
  8
TITLE
 62
     7
100
AcDbText
 10
0.2639423705144838
 20
0.0847116480207214
 30
0.0
 40
0.08
  1
-
  7
L80
100
AcDbAttributeDefinition
  3
DWG-NAME
  2
DWG-NAME
 70
     0
  0
LWPOLYLINE
  5
7AD
330
7A4
100
AcDbEntity
  8
TITLE
 62
     3
100
AcDbPolyline
 90
        2
 70
     1
 43
0.03
 10
0.6064423705144839
 20
0.5417270964783675
 42
0.9999999999999998
 10
0.6064423705144839
 20
1.226727096478367
 42
0.9999999999999998
  0
ATTDEF
  5
7AE
330
7A4
100
AcDbEntity
  8
TITLE
 62
     7
100
AcDbText
 10
1.231442370514484
 20
0.7005637793954894
 30
0.0
 40
0.1
  1
N.T.S.
  7
L100
100
AcDbAttributeDefinition
  3
SCALE
  2
SCALE
 70
     0
  0
LWPOLYLINE
  5
7AF
330
7A4
100
AcDbEntity
  8
TITLE
 62
     3
100
AcDbPolyline
 90
        2
 70
     0
 43
0.04
 39
0.03
 10
0.9489423705144833
 20
0.8842270964783672
 10
8.261024353775903
 20
0.8842270964783672
  0
ENDBLK
  5
7B1
330
7A4
100
AcDbEntity
  8
0
100
AcDbBlockEnd
  0
ENDSEC
  0
SECTION
  2
ENTITIES
  0
TEXT
  5
1E2
330
17
100
AcDbEntity
  8
TEXT_LEADERS
100
AcDbText
 10
4.83318645
 20
5.667105520490743
 30
0.0
 40
0.125
  1
  RAIN BIRD 
  7
ROMANS
100
AcDbText
  0
TEXT
  5
214
330
17
100
AcDbEntity
  8
TEXT_BUBBLES
100
AcDbText
 10
4.83318324
 20
5.663452817463151
 30
0.0
 40
0.125
  1
  RAIN BIRD 
  7
ROMANS
100
AcDbText
  0
TEXT
  5
215
330
17
100
AcDbEntity
  8
TEXT_BUBBLES
100
AcDbText
 10
4.83318324
 20
5.838452817463151
 30
0.0
 40
0.125
  1
ROTOR POP-UP SPRINKLER:
  7
ROMANS
100
AcDbText
  0
CIRCLE
  5
239
330
17
100
AcDbEntity
  8
TEXT_BUBBLES
100
AcDbCircle
 10
4.606793228227131
 20
6.256405422923937
 30
0.0
 40
0.1562500000000002
  0
TEXT
  5
23A
330
17
100
AcDbEntity
  8
TEXT_BUBBLES
100
AcDbText
 10
4.556197990131892
 20
6.193905422923937
 30
0.0
 40
0.1250000000000002
  1
1
  7
ROMANS
 72
     4
 11
4.606793228227131
 21
6.256405422923937
 31
0.0
100
AcDbText
  0
TEXT
  5
247
330
17
100
AcDbEntity
  8
TEXT_BUBBLES
100
AcDbText
 10
3.915556155999065
 20
5.346157266636857
 30
0.0
 40
0.1250000000000002
  1
2
  7
ROMANS
 72
     4
 11
3.975079965522875
 21
5.408657266636857
 31
0.0
100
AcDbText
  0
CIRCLE
  5
248
330
17
100
AcDbEntity
  8
TEXT_BUBBLES
100
AcDbCircle
 10
3.975079965522875
 20
5.408657266636857
 30
0.0
 40
0.1562500000000002
  0
TEXT
  5
249
330
17
100
AcDbEntity
  8
TEXT_BUBBLES
100
AcDbText
 10
4.83318324
 20
6.188452817463151
 30
0.0
 40
0.125
  1
FINISH GRADE
  7
ROMANS
100
AcDbText
  0
TEXT
  5
24C
330
17
100
AcDbEntity
  8
TEXT_BUBBLES
100
AcDbText
 10
4.547269418703321
 20
5.840855807519063
 30
0.0
 40
0.1250000000000002
  1
2
  7
ROMANS
 72
     4
 11
4.606793228227131
 21
5.903355807519063
 31
0.0
100
AcDbText
  0
CIRCLE
  5
24D
330
17
100
AcDbEntity
  8
TEXT_BUBBLES
100
AcDbCircle
 10
4.606793228227131
 20
5.903355807519063
 30
0.0
 40
0.1562500000000002
  0
TEXT
  5
258
330
17
100
AcDbEntity
  8
TEXT_BUBBLES
100
AcDbText
 10
3.924685352617413
 20
6.543045694908345
 30
0.0
 40
0.1250000000000002
  1
1
  7
ROMANS
 72
     4
 11
3.975280590712651
 21
6.605545694908345
 31
0.0
100
AcDbText
  0
CIRCLE
  5
259
330
17
100
AcDbEntity
  8
TEXT_BUBBLES
100
AcDbCircle
 10
3.975280590712651
 20
6.605545694908345
 30
0.0
 40
0.1562500000000002
  0
TEXT
  5
270
330
17
100
AcDbEntity
  8
INSTRUCT-OPTION
100
AcDbText
 10
9.574584192350522
 20
1.365878318717977
 30
0.0
 40
0.1250000018625002
  1
LAYER "INSTRUCT-OPTION".
  7
ROMANS
100
AcDbText
  0
TEXT
  5
271
330
17
100
AcDbEntity
  8
INSTRUCT-OPTION
100
AcDbText
 10
9.574584192350522
 20
1.543253373077976
 30
0.0
 40
0.1250000018625002
  1
TO TURN OFF THIS INSTRUCTION BOX, TURN OFF
  7
ROMANS
100
AcDbText
  0
TEXT
  5
278
330
17
100
AcDbEntity
  8
INSTRUCT-OPTION
100
AcDbText
 10
9.991060155986664
 20
6.821056544636046
 30
0.0
 40
0.1250000018625002
  1
CHOOSING A DIFFERENT SPRINKLER MODEL
  7
ROMANS
100
AcDbText
  0
TEXT
  5
27A
330
17
100
AcDbEntity
  8
INSTRUCT-OPTION
100
AcDbText
 10
9.574589933314532
 20
6.290849005221412
 30
0.0
 40
0.1250000018625002
  1
ON THE APPROPRIATE LAYER:
  7
ROMANS
100
AcDbText
  0
TEXT
  5
27B
330
17
100
AcDbEntity
  8
INSTRUCT-OPTION
100
AcDbText
 10
9.574589933314532
 20
6.468223761557663
 30
0.0
 40
0.1250000018625002
  1
CHOOSE A DIFFERENT SPRINKLER MODEL BY TURNING
  7
ROMANS
100
AcDbText
  0
TEXT
  5
2B3
330
17
100
AcDbEntity
  8
OPTION-3504-PC-SAM-N
100
AcDbText
 10
4.833186445900254
 20
5.494225120117109
 30
0.0
 40
0.125
  1
  3504-PC-SAM-N
  7
ROMANS
100
AcDbText
  0
LINE
  5
2B6
330
17
100
AcDbEntity
  8
INSTRUCT-OPTION
100
AcDbLine
 10
9.452280878731395
 20
6.766183690614764
 30
0.0
 11
9.452280878731393
 21
1.763391880262022
 31
0.0
  0
LINE
  5
2B7
330
17
100
AcDbEntity
  8
INSTRUCT-OPTION
100
AcDbLine
 10
9.452280878731393
 20
1.763391880262022
 30
0.0
 11
15.50403626963298
 21
1.763391880262022
 31
0.0
  0
LINE
  5
2B8
330
17
100
AcDbEntity
  8
INSTRUCT-OPTION
100
AcDbLine
 10
15.50403626963298
 20
1.763391880262022
 30
0.0
 11
15.50403626963298
 21
6.766183690614764
 31
0.0
  0
LINE
  5
2B9
330
17
100
AcDbEntity
  8
INSTRUCT-OPTION
100
AcDbLine
 10
15.50403626963298
 20
6.766183690614764
 30
0.0
 11
9.452280878731395
 21
6.766183690614764
 31
0.0
  0
LEADER
  5
362
330
17
100
AcDbEntity
  8
TEXT_BUBBLES
100
AcDbLeader
  3
STANDARD
 76
     2
 10
3.381634427890176
 20
6.170913317678305
 30
0.0
 10
3.843604337483787
 20
6.521430138465984
 30
0.0
1001
ACAD
1000
DSTYLE
1002
{
1070
   340
1005
1F
1070
   287
1070
     5
1002
}
  0
TEXT
  5
3E2
330
17
100
AcDbEntity
  8
OPTION-3504-PC-N
100
AcDbText
 10
4.833186445900254
 20
5.494225120117109
 30
0.0
 40
0.125
  1
  3504-PC-N
  7
ROMANS
100
AcDbText
  0
TEXT
  5
3E4
330
17
100
AcDbEntity
  8
OPTION-3504-PC-SAM
100
AcDbText
 10
4.833186445900254
 20
5.494225120117109
 30
0.0
 40
0.125
  1
  3504-PC-SAM
  7
ROMANS
100
AcDbText
  0
LINE
  5
4F5
330
17
100
AcDbEntity
  8
OPTION_SA
100
AcDbLine
 10
1.41880955465571
 20
3.98962166506956
 30
0.0
 11
1.640748492887072
 21
3.98962166506956
 31
0.0
  0
LINE
  5
4F6
330
17
100
AcDbEntity
  8
OPTION_SA
100
AcDbLine
 10
1.392362484081799
 20
3.948429038887621
 30
0.0
 11
1.666604863038955
 21
3.948429038887621
 31
0.0
  0
LINE
  5
4F7
330
17
100
AcDbEntity
  8
OPTION_SA
100
AcDbLine
 10
1.866696537584465
 20
3.512327990258309
 30
0.0
 11
1.469493153163502
 21
3.512327990258309
 31
0.0
  0
LWPOLYLINE
  5
4F8
330
17
100
AcDbEntity
  8
OPTION_SA
100
AcDbPolyline
 90
        3
 70
     0
 43
0.0
 10
1.473011841910298
 20
3.518901489448774
 42
0.3551655385017884
 10
1.623892297370687
 20
3.649595243418829
 42
-0.3351985284943452
 10
1.73324844844763
 20
3.779384989209254
 42
-0.5949761929811071
  0
LINE
  5
4F9
330
17
100
AcDbEntity
  8
OPTION_SA
100
AcDbLine
 10
4.101730978778878
 20
2.759102474984185
 30
0.0
 11
0.456800691482399
 21
2.759102474984185
 31
0.0
  0
LINE
  5
4FA
330
17
100
AcDbEntity
  8
OPTION_SA
100
AcDbLine
 10
3.911153451187268
 20
3.093815663849168
 30
0.0
 11
0.456800691482399
 21
3.093815663849168
 31
0.0
  0
LINE
  5
4FC
330
17
100
AcDbEntity
  8
OPTION_SA
100
AcDbLine
 10
1.392362484081799
 20
4.023928783003783
 30
0.0
 11
1.392362484081799
 21
3.589458659340008
 31
0.0
  0
ARC
  5
4FE
330
17
100
AcDbEntity
  8
OPTION_SA
100
AcDbCircle
 10
1.469493153163502
 20
3.589458659340008
 30
0.0
 40
0.0771306690817013
100
AcDbArc
 50
180.0
 51
270.0
  0
ARC
  5
4FF
330
17
100
AcDbEntity
  8
OPTION_SA
100
AcDbCircle
 10
2.004475765574268
 20
-1.400095860664623
 30
0.0
 40
4.881665759448553
100
AcDbArc
 50
61.49072909609822
 51
91.61727251044187
  0
ARC
  5
500
330
17
100
AcDbEntity
  8
OPTION_SA
100
AcDbCircle
 10
2.010056766642943
 20
-1.363108480325561
 30
0.0
 40
5.178227197230074
100
AcDbArc
 50
61.30701558492705
 51
91.57178904497754
  0
LINE
  5
505
330
17
100
AcDbEntity
  8
OPTION_SA
100
AcDbLine
 10
1.666604863038955
 20
4.023928783003783
 30
0.0
 11
1.666604863038955
 21
3.861332175372789
 31
0.0
  0
LINE
  5
506
330
17
100
AcDbEntity
  8
OPTION_SA
100
AcDbLine
 10
1.86670060026632
 20
3.479625298458794
 30
0.0
 11
1.868020825674346
 21
3.813170366259733
 31
0.0
  0
LINE
  5
507
330
17
100
AcDbEntity
  8
OPTION_SA
100
AcDbLine
 10
1.867906162234038
 20
3.784201506291096
 30
0.0
 11
1.74373553212066
 21
3.784201506291089
 31
0.0
  0
ARC
  5
508
330
17
100
AcDbEntity
  8
OPTION_SA
100
AcDbCircle
 10
1.74373553212066
 20
3.861332175372789
 30
0.0
 40
0.0771306690817013
100
AcDbArc
 50
180.0
 51
270.0
  0
CIRCLE
  5
509
330
17
100
AcDbEntity
  8
TEXT_SA_BUBBLES
100
AcDbCircle
 10
0.2274097680056832
 20
4.138210397315544
 30
0.0
 40
0.15625
  0
TEXT
  5
50A
330
17
100
AcDbEntity
  8
TEXT_SA_BUBBLES
100
AcDbText
 10
0.1678859584818737
 20
4.075710397315544
 30
0.0
 40
0.125
  1
3
  7
ROMANS
 72
     4
 11
0.2274097680056832
 21
4.138210397315544
 31
0.0
100
AcDbText
  0
TEXT
  5
50D
330
17
100
AcDbEntity
  8
TEXT_SA_BUBBLES
100
AcDbText
 10
4.83318324
 20
4.07797636
 30
0.0
 40
0.125
  1
SWING PIPE, 12-INCH LENGTH:
  7
ROMANS
100
AcDbText
  0
TEXT
  5
50E
330
17
100
AcDbEntity
  8
TEXT_SA_BUBBLES
100
AcDbText
 10
4.83318324
 20
4.952976356924023
 30
0.0
 40
0.125
  1
  BARB ELBOW:  RAIN BIRD
  7
ROMANS
100
AcDbText
  0
CIRCLE
  5
510
330
17
100
AcDbEntity
  8
TEXT_SA_BUBBLES
100
AcDbCircle
 10
4.606793228227131
 20
5.178082542124932
 30
0.0
 40
0.15625
  0
LINE
  5
511
330
17
100
AcDbEntity
  8
OPTION_SA
100
AcDbLine
 10
5.095939401497985
 20
3.166922730161178
 30
0.0
 11
4.489320063558195
 21
3.16692273016117
 31
0.0
  0
TEXT
  5
512
330
17
100
AcDbEntity
  8
TEXT_SA_BUBBLES
100
AcDbText
 10
4.53567768644516
 20
3.548846948988296
 30
0.0
 40
0.125
  1
6
  7
ROMANS
 72
     4
 11
4.59817768644516
 21
3.611346948988296
 31
0.0
100
AcDbText
  0
CIRCLE
  5
513
330
17
100
AcDbEntity
  8
TEXT_SA_BUBBLES
100
AcDbCircle
 10
4.59817768644516
 20
3.611346948988296
 30
0.0
 40
0.15625
  0
TEXT
  5
514
330
17
100
AcDbEntity
  8
TEXT_SA_BUBBLES
100
AcDbText
 10
4.53865387692135
 20
4.07090946232263
 30
0.0
 40
0.125
  1
5
  7
ROMANS
 72
     4
 11
4.59817768644516
 21
4.13340946232263
 31
0.0
100
AcDbText
  0
CIRCLE
  5
515
330
17
100
AcDbEntity
  8
TEXT_SA_BUBBLES
100
AcDbCircle
 10
4.59817768644516
 20
4.13340946232263
 30
0.0
 40
0.15625
  0
TEXT
  5
516
330
17
100
AcDbEntity
  8
TEXT_SA_BUBBLES
100
AcDbText
 10
4.53567768644516
 20
4.448268020737936
 30
0.0
 40
0.125
  1
4
  7
ROMANS
 72
     4
 11
4.59817768644516
 21
4.510768020737936
 31
0.0
100
AcDbText
  0
CIRCLE
  5
517
330
17
100
AcDbEntity
  8
TEXT_SA_BUBBLES
100
AcDbCircle
 10
4.59817768644516
 20
4.510768020737936
 30
0.0
 40
0.15625
  0
LINE
  5
518
330
17
100
AcDbEntity
  8
OPTION_SA
100
AcDbLine
 10
4.334499487101218
 20
2.889618587185505
 30
0.0
 11
4.496206970161843
 21
3.179258091372079
 31
0.0
  0
LINE
  5
519
330
17
100
AcDbEntity
  8
OPTION_SA
100
AcDbLine
 10
4.673102459237393
 20
3.048553270727086
 30
0.0
 11
4.48158869051581
 21
3.15307481779314
 31
0.0
  0
LINE
  5
51A
330
17
100
AcDbEntity
  8
OPTION_SA
100
AcDbLine
 10
5.095939401497985
 20
2.691588046538261
 30
0.0
 11
5.095939401497985
 21
3.166922730161178
 31
0.0
  0
TEXT
  5
51B
330
17
100
AcDbEntity
  8
TEXT_SA_BUBBLES
100
AcDbText
 10
4.83318324
 20
4.777976356924023
 30
0.0
 40
0.125
  1
  MODEL SBE-050
  7
ROMANS
100
AcDbText
  0
TEXT
  5
51C
330
17
100
AcDbEntity
  8
TEXT_SA_BUBBLES
100
AcDbText
 10
4.83318324
 20
4.427976356924023
 30
0.0
 40
0.125
  1
PVC LATERAL PIPE
  7
ROMANS
100
AcDbText
  0
TEXT
  5
51D
330
17
100
AcDbEntity
  8
TEXT_SA_BUBBLES
100
AcDbText
 10
4.547269418703321
 20
5.115582542124932
 30
0.0
 40
0.125
  1
3
  7
ROMANS
 72
     4
 11
4.606793228227131
 21
5.178082542124932
 31
0.0
100
AcDbText
  0
LINE
  5
51E
330
17
100
AcDbEntity
  8
OPTION_SA
100
AcDbLine
 10
4.101730978778878
 20
2.691588046538261
 30
0.0
 11
5.095939401497985
 21
2.691588046538261
 31
0.0
  0
LINE
  5
520
330
17
100
AcDbEntity
  8
OPTION_SA
100
AcDbLine
 10
4.101730978778878
 20
3.008098912443582
 30
0.0
 11
4.101730978778878
 21
2.691588046538261
 31
0.0
  0
ARC
  5
522
330
17
100
AcDbEntity
  8
OPTION_SA
100
AcDbCircle
 10
4.601267829913023
 20
2.929567627475452
 30
0.0
 40
0.1790592584646142
100
AcDbArc
 50
202.3302578892511
 51
100.5273986155575
  0
LINE
  5
523
330
17
100
AcDbEntity
  8
OPTION_SA
100
AcDbLine
 10
4.533914630276962
 20
2.808659454811397
 30
0.0
 11
4.346734723805898
 21
2.909365767953353
 31
0.0
  0
ARC
  5
524
330
17
100
AcDbEntity
  8
OPTION_SA
100
AcDbCircle
 10
4.601267829913023
 20
2.929567627475452
 30
0.0
 40
0.138565243409104
100
AcDbArc
 50
234.4756814862676
 51
62.64469113840124
  0
LINE
  5
525
330
17
100
AcDbEntity
  8
OPTION_SA
100
AcDbLine
 10
4.58533480329783
 20
3.036920266319738
 30
0.0
 11
4.601267829913023
 21
2.929567627475452
 31
0.0
  0
LINE
  5
526
330
17
100
AcDbEntity
  8
OPTION_SA
100
AcDbLine
 10
4.601267829913023
 20
2.929567627475452
 30
0.0
 11
4.507010914951173
 21
2.886828383294358
 31
0.0
  0
LWPOLYLINE
  5
528
330
17
100
AcDbEntity
  8
OPTION_SA
100
AcDbPolyline
 90
        4
 70
     0
 43
0.0
 10
5.650062795546232
 20
3.093815663849168
 42
-0.5107053858875276
 10
5.65006279554625
 20
2.924075149754111
 42
0.5107053858875159
 10
5.650062795546232
 20
2.759102474984185
 42
0.5397302473450178
 10
5.653229056623438
 20
2.926459069416673
 42
0.5397302473450178
  0
LINE
  5
529
330
17
100
AcDbEntity
  8
OPTION_SA
100
AcDbLine
 10
5.095939401497985
 20
2.759102474984185
 30
0.0
 11
5.650062795546232
 21
2.759102474984185
 31
0.0
  0
LINE
  5
52A
330
17
100
AcDbEntity
  8
OPTION_SA
100
AcDbLine
 10
5.095939401497985
 20
3.093815663849168
 30
0.0
 11
5.650062795546232
 21
3.093815663849168
 31
0.0
  0
CIRCLE
  5
52C
330
17
100
AcDbEntity
  8
TEXT_SA_BUBBLES
100
AcDbCircle
 10
4.746589857972793
 20
2.051041959603657
 30
0.0
 40
0.15625
  0
CIRCLE
  5
52D
330
17
100
AcDbEntity
  8
TEXT_SA_BUBBLES
100
AcDbCircle
 10
3.591692668688611
 20
2.050257819690803
 30
0.0
 40
0.15625
  0
CIRCLE
  5
52E
330
17
100
AcDbEntity
  8
TEXT_SA_BUBBLES
100
AcDbCircle
 10
3.125404170019978
 20
2.05103143115298
 30
0.0
 40
0.15625
  0
TEXT
  5
52F
330
17
100
AcDbEntity
  8
TEXT_SA_BUBBLES
100
AcDbText
 10
3.062904170019978
 20
1.98853143115298
 30
0.0
 40
0.125
  1
4
  7
ROMANS
 72
     4
 11
3.125404170019978
 21
2.05103143115298
 31
0.0
100
AcDbText
  0
TEXT
  5
530
330
17
100
AcDbEntity
  8
TEXT_SA_BUBBLES
100
AcDbText
 10
3.532168859164802
 20
1.987757819690803
 30
0.0
 40
0.125
  1
5
  7
ROMANS
 72
     4
 11
3.591692668688611
 21
2.050257819690803
 31
0.0
100
AcDbText
  0
TEXT
  5
531
330
17
100
AcDbEntity
  8
TEXT_SA_BUBBLES
100
AcDbText
 10
4.687066048448984
 20
1.988541959603657
 30
0.0
 40
0.125
  1
3
  7
ROMANS
 72
     4
 11
4.746589857972793
 21
2.051041959603657
 31
0.0
100
AcDbText
  0
CIRCLE
  5
532
330
17
100
AcDbEntity
  8
TEXT_SA_BUBBLES
100
AcDbCircle
 10
5.162806951394565
 20
2.051171188033511
 30
0.0
 40
0.15625
  0
TEXT
  5
533
330
17
100
AcDbEntity
  8
TEXT_SA_BUBBLES
100
AcDbText
 10
5.100306951394565
 20
1.988671188033511
 30
0.0
 40
0.125
  1
6
  7
ROMANS
 72
     4
 11
5.162806951394565
 21
2.051171188033511
 31
0.0
100
AcDbText
  0
LWPOLYLINE
  5
534
330
17
100
AcDbEntity
  8
OPTION_SA
100
AcDbPolyline
 90
        4
 70
     0
 43
0.0
 10
0.4568006914823995
 20
3.093815663849168
 42
0.5107053858875276
 10
0.4568006914823848
 20
2.924075149754111
 42
-0.5107053858875159
 10
0.4568006914823995
 20
2.759102474984185
 42
-0.5397302473450178
 10
0.4536344304051927
 20
2.926459069416673
 42
-0.5397302473450178
  0
LEADER
  5
536
330
17
100
AcDbEntity
  8
TEXT_SA_BUBBLES
100
AcDbLeader
  3
STANDARD
 76
     2
 10
1.391721987871616
 20
3.682104295725007
 30
0.0
 10
0.3662207000184275
 20
4.066477645704071
 30
0.0
1001
ACAD
1000
DSTYLE
1002
{
1070
   340
1005
1F
1070
   287
1070
     5
1002
}
  0
TEXT
  5
53D
330
17
100
AcDbEntity
  8
TEXT_SA_LEADERS
100
AcDbText
 10
4.83318324
 20
2.112301567590219
 30
0.0
 40
0.125
  1
PVC SCH 40 TEE OR ELL
  7
ROMANS
100
AcDbText
  0
TEXT
  5
53E
330
17
100
AcDbEntity
  8
TEXT_SA_LEADERS
100
AcDbText
 10
4.83318324
 20
4.82227718
 30
0.0
 40
0.125
  1
  BARB ELBOW:  RAIN BIRD
  7
ROMANS
100
AcDbText
  0
TEXT
  5
53F
330
17
100
AcDbEntity
  8
TEXT_SA_LEADERS
100
AcDbText
 10
4.83318324
 20
3.947277179999999
 30
0.0
 40
0.125
  1
  RAIN BIRD MODEL SP-100
  7
ROMANS
100
AcDbText
  0
TEXT
  5
540
330
17
100
AcDbEntity
  8
TEXT_SA_LEADERS
100
AcDbText
 10
4.83318324
 20
4.12227718
 30
0.0
 40
0.125
  1
SWING PIPE, 12-INCH LENGTH:
  7
ROMANS
100
AcDbText
  0
TEXT
  5
541
330
17
100
AcDbEntity
  8
TEXT_SA_LEADERS
100
AcDbText
 10
4.83318324
 20
4.99727718
 30
0.0
 40
0.125
  1
1/2-INCH MALE NPT x .490 INCH
  7
ROMANS
100
AcDbText
  0
TEXT
  5
542
330
17
100
AcDbEntity
  8
TEXT_SA_LEADERS
100
AcDbText
 10
4.83318324
 20
1.762301567590219
 30
0.0
 40
0.125
  1
PVC LATERAL PIPE
  7
ROMANS
100
AcDbText
  0
TEXT
  5
543
330
17
100
AcDbEntity
  8
TEXT_SA_LEADERS
100
AcDbText
 10
4.83318324
 20
4.647277179999999
 30
0.0
 40
0.125
  1
  MODEL SBE-050 (1 OF 2)
  7
ROMANS
100
AcDbText
  0
LEADER
  5
544
330
17
100
AcDbEntity
  8
TEXT_LEADERS
100
AcDbLeader
  3
STANDARD
 76
     3
 10
3.58399489966912
 20
6.167691687918517
 30
0.0
 10
4.394251377925598
 20
6.434057227676716
 30
0.0
 10
4.762479957868903
 20
6.434057227676716
 30
0.0
1001
ACAD
1000
DSTYLE
1002
{
1070
   340
1005
1F
1070
   287
1070
     5
1002
}
  0
LEADER
  5
545
330
17
100
AcDbEntity
  8
TEXT_LEADERS
100
AcDbLeader
  3
STANDARD
 76
     3
 10
1.820050003645934
 20
4.84482523699545
 30
0.0
 10
4.394251377925598
 20
5.908428053942163
 30
0.0
 10
4.762479957868903
 20
5.908428053942163
 30
0.0
1001
ACAD
1000
DSTYLE
1002
{
1070
   340
1005
1F
1070
   287
1070
     5
1002
}
  0
LEADER
  5
546
330
17
100
AcDbEntity
  8
TEXT_SA_LEADERS
100
AcDbLeader
  3
STANDARD
 76
     3
 10
1.684562317873078
 20
3.811858234468504
 30
0.0
 10
4.394251377925598
 20
5.050985114136197
 30
0.0
 10
4.762479957868903
 20
5.050985114136197
 30
0.0
1001
ACAD
1000
DSTYLE
1002
{
1070
   340
1005
1F
1070
   287
1070
     5
1002
}
  0
LEADER
  5
547
330
17
100
AcDbEntity
  8
TEXT_SA_LEADERS
100
AcDbLeader
  3
STANDARD
 76
     3
 10
3.05478556427021
 20
3.713556490937044
 30
0.0
 10
4.394251377925598
 20
4.19243162017618
 30
0.0
 10
4.762479957868903
 20
4.19243162017618
 30
0.0
1001
ACAD
1000
DSTYLE
1002
{
1070
   340
1005
1F
1070
   287
1070
     5
1002
}
  0
LEADER
  5
548
330
17
100
AcDbEntity
  8
TEXT_SA_LEADERS
100
AcDbLeader
  3
STANDARD
 76
     3
 10
4.235406200847393
 20
2.691588046538261
 30
0.0
 10
4.394251377925598
 20
2.173132537021421
 30
0.0
 10
4.762479957868903
 20
2.173132537021421
 30
0.0
1001
ACAD
1000
DSTYLE
1002
{
1070
   340
1005
1F
1070
   287
1070
     5
1002
}
  0
LEADER
  5
549
330
17
100
AcDbEntity
  8
TEXT_SA_LEADERS
100
AcDbLeader
  3
STANDARD
 76
     3
 10
3.332210154867901
 20
2.759102474984185
 30
0.0
 10
4.394251377925598
 20
1.820273664116966
 30
0.0
 10
4.762479957868903
 20
1.820273664116966
 30
0.0
1001
ACAD
1000
DSTYLE
1002
{
1070
   340
1005
1F
1070
   287
1070
     5
1002
}
  0
TEXT
  5
5EC
330
17
100
AcDbEntity
  8
INSTRUCT-OPTION
100
AcDbText
 10
9.62018008564611
 20
2.689068974511243
 30
0.0
 40
0.1250000018625
  1
%%URAIN BIRD SWING ASSEMBLY
  7
ROMANS
100
AcDbText
  0
TEXT
  5
5ED
330
17
100
AcDbEntity
  8
INSTRUCT-OPTION
100
AcDbText
 10
9.386867130997773
 20
2.223825991820029
 30
0.0
 40
0.1250000018625
  1
  %%UAND EITHER%%U TEXT_RB_SA_LEADERS
  7
ROMANS
100
AcDbText
  0
TEXT
  5
5EE
330
17
100
AcDbEntity
  8
INSTRUCT-OPTION
100
AcDbText
 10
9.636873064224431
 20
2.001984626220642
 30
0.0
 40
0.1250000018625
  1
  %%UOR%%U TEXT_RB_SA_BUBBLES
  7
ROMANS
100
AcDbText
  0
TEXT
  5
5EF
330
17
100
AcDbEntity
  8
INSTRUCT-OPTION
100
AcDbText
 10
9.386867130997773
 20
3.364407435579355
 30
0.0
 40
0.1250000018625
  1
  %%UAND EITHER%%U TEXT_SA_LEADERS
  7
ROMANS
100
AcDbText
  0
TEXT
  5
5F0
330
17
100
AcDbEntity
  8
INSTRUCT-OPTION
100
AcDbText
 10
9.62018008564611
 20
3.829650418270568
 30
0.0
 40
0.1250000018625
  1
%%UCONTRACTOR ASSEMBLED SWING ASSEMBLY
  7
ROMANS
100
AcDbText
  0
TEXT
  5
5F4
330
17
100
AcDbEntity
  8
INSTRUCT-OPTION
100
AcDbText
 10
9.636873064224431
 20
2.445667357419416
 30
0.0
 40
0.1250000018625
  1
  OPTION-RB-SA
  7
ROMANS
100
AcDbText
  0
TEXT
  5
5F5
330
17
100
AcDbEntity
  8
INSTRUCT-OPTION
100
AcDbText
 10
9.636873064224431
 20
3.142566069979968
 30
0.0
 40
0.1250000018625
  1
  %%UOR%%U TEXT_SA_BUBBLES
  7
ROMANS
100
AcDbText
  0
TEXT
  5
5F6
330
17
100
AcDbEntity
  8
INSTRUCT-OPTION
100
AcDbText
 10
9.636873064224431
 20
3.586248801178741
 30
0.0
 40
0.1250000018625
  1
  OPTION-SA
  7
ROMANS
100
AcDbText
  0
LINE
  5
647
330
17
100
AcDbEntity
  8
OPTION_RB_SA
100
AcDbLine
 10
1.423802336463968
 20
3.998158269640642
 30
0.0
 11
1.63584230585636
 21
3.998158269640642
 31
0.0
  0
TEXT
  5
648
330
17
100
AcDbEntity
  8
TEXT_RB_SA_BUBBLES
100
AcDbText
 10
4.545628240828622
 20
5.139364406992969
 30
0.0
 40
0.125
  1
3
  7
ROMANS
 72
     4
 11
4.605152050352431
 21
5.201864406992969
 31
0.0
100
AcDbText
  0
TEXT
  5
649
330
17
100
AcDbEntity
  8
TEXT_RB_SA_BUBBLES
100
AcDbText
 10
4.549544483778008
 20
4.797711523650755
 30
0.0
 40
0.125
  1
4
  7
ROMANS
 72
     4
 11
4.612044483778008
 21
4.860211523650755
 31
0.0
100
AcDbText
  0
CIRCLE
  5
64A
330
17
100
AcDbEntity
  8
TEXT_RB_SA_BUBBLES
100
AcDbCircle
 10
4.612044483778008
 20
4.860211523650755
 30
0.0
 40
0.15625
  0
CIRCLE
  5
64B
330
17
100
AcDbEntity
  8
TEXT_RB_SA_BUBBLES
100
AcDbCircle
 10
4.605152050352431
 20
5.201864406992969
 30
0.0
 40
0.15625
  0
TEXT
  5
64C
330
17
100
AcDbEntity
  8
TEXT_RB_SA_BUBBLES
100
AcDbText
 10
4.545628240828622
 20
4.266968176013732
 30
0.0
 40
0.125
  1
5
  7
ROMANS
 72
     4
 11
4.605152050352431
 21
4.329468176013732
 31
0.0
100
AcDbText
  0
CIRCLE
  5
64D
330
17
100
AcDbEntity
  8
TEXT_RB_SA_BUBBLES
100
AcDbCircle
 10
4.605152050352431
 20
4.329468176013732
 30
0.0
 40
0.15625
  0
TEXT
  5
64E
330
17
100
AcDbEntity
  8
TEXT_RB_SA_BUBBLES
100
AcDbText
 10
4.821120119999999
 20
4.26737401502857
 30
0.0
 40
0.125
  1
PVC SCH 40 TEE OR ELL
  7
ROMANS
100
AcDbText
  0
TEXT
  5
64F
330
17
100
AcDbEntity
  8
TEXT_RB_SA_BUBBLES
100
AcDbText
 10
4.821120119999999
 20
5.14237401502857
 30
0.0
 40
0.125
  1
PVC LATERAL PIPE
  7
ROMANS
100
AcDbText
  0
TEXT
  5
650
330
17
100
AcDbEntity
  8
TEXT_RB_SA_BUBBLES
100
AcDbText
 10
4.821120119999999
 20
4.61737401502857
 30
0.0
 40
0.125
  1
  RAIN BIRD MODEL SA125050
  7
ROMANS
100
AcDbText
  0
TEXT
  5
651
330
17
100
AcDbEntity
  8
TEXT_RB_SA_BUBBLES
100
AcDbText
 10
4.821120119999999
 20
4.79237401502857
 30
0.0
 40
0.125
  1
SWING ASSEMBLY:
  7
ROMANS
100
AcDbText
  0
LINE
  5
655
330
17
100
AcDbEntity
  8
OPTION_RB_SA
100
AcDbLine
 10
4.807638459218496
 20
2.708029036961967
 30
0.0
 11
4.807638459218496
 21
3.162162739545858
 31
0.0
  0
LINE
  5
656
330
17
100
AcDbEntity
  8
OPTION_RB_SA
100
AcDbLine
 10
4.807638459218496
 20
3.092316410520862
 30
0.0
 11
5.33704672101307
 21
3.092316410520862
 31
0.0
  0
LINE
  5
657
330
17
100
AcDbEntity
  8
OPTION_RB_SA
100
AcDbLine
 10
4.807638459218496
 20
2.772532172172495
 30
0.0
 11
5.33704672101307
 21
2.772532172172495
 31
0.0
  0
LWPOLYLINE
  5
659
330
17
100
AcDbEntity
  8
OPTION_RB_SA
100
AcDbPolyline
 90
        4
 70
     0
 43
0.0
 10
5.337046721013071
 20
3.092316410520862
 42
-0.5107053858875276
 10
5.337046721013087
 20
2.930146699787879
 42
0.5107053858875159
 10
5.337046721013071
 20
2.772532172172495
 42
0.5397302473450178
 10
5.340071759824418
 20
2.932424291346674
 42
0.5397302473450178
  0
TEXT
  5
65A
330
17
100
AcDbEntity
  8
TEXT_RB_SA_BUBBLES
100
AcDbText
 10
4.175441257595326
 20
1.978734335980077
 30
0.0
 40
0.125
  1
5
  7
ROMANS
 72
     4
 11
4.234965067119135
 21
2.041234335980077
 31
0.0
100
AcDbText
  0
CIRCLE
  5
65B
330
17
100
AcDbEntity
  8
TEXT_RB_SA_BUBBLES
100
AcDbCircle
 10
4.234965067119135
 20
2.041234335980077
 30
0.0
 40
0.15625
  0
LINE
  5
65F
330
17
100
AcDbEntity
  8
OPTION_RB_SA
100
AcDbLine
 10
1.799360357057118
 20
3.69812586440235
 30
0.0
 11
1.754474688390011
 21
3.712547920058715
 31
0.0
  0
LINE
  5
660
330
17
100
AcDbEntity
  8
OPTION_RB_SA
100
AcDbLine
 10
1.666011259518468
 20
4.023928783003783
 30
0.0
 11
1.666011259518468
 21
3.649996256915072
 31
0.0
  0
LINE
  5
661
330
17
100
AcDbEntity
  8
OPTION_RB_SA
100
AcDbLine
 10
1.72297688928823
 20
3.44750775902787
 30
0.0
 11
1.628619756310941
 21
3.478401920220444
 31
0.0
  0
LINE
  5
662
330
17
100
AcDbEntity
  8
OPTION_RB_SA
100
AcDbLine
 10
1.713961532434735
 20
3.417927907262908
 30
0.0
 11
1.806866866347051
 21
3.722755109331514
 31
0.0
  0
LINE
  5
664
330
17
100
AcDbEntity
  8
OPTION_RB_SA
100
AcDbLine
 10
4.223713193080195
 20
2.831914333500905
 30
0.0
 11
4.129417394873214
 21
2.860073322988855
 31
0.0
  0
LINE
  5
665
330
17
100
AcDbEntity
  8
OPTION_RB_SA
100
AcDbLine
 10
3.857773937008087
 20
2.904723828857894
 30
0.0
 11
3.857773937008087
 21
2.708029036961967
 31
0.0
  0
LINE
  5
666
330
17
100
AcDbEntity
  8
OPTION_RB_SA
100
AcDbLine
 10
4.215328744759659
 20
3.146275585394452
 30
0.0
 11
4.123710528891809
 21
2.841061656226754
 31
0.0
  0
ARC
  5
667
330
17
100
AcDbEntity
  8
OPTION_RB_SA
100
AcDbCircle
 10
4.335030336759073
 20
2.935394200822183
 30
0.0
 40
0.1989941380947772
100
AcDbArc
 50
204.54630708977
 51
122.199916707569
  0
LINE
  5
668
330
17
100
AcDbEntity
  8
OPTION_RB_SA
100
AcDbLine
 10
4.29868438744776
 20
3.082969813259715
 30
0.0
 11
4.204746412078366
 21
3.111021948256651
 31
0.0
  0
ARC
  5
669
330
17
100
AcDbEntity
  8
OPTION_RB_SA
100
AcDbCircle
 10
4.335030336759073
 20
2.935394200822183
 30
0.0
 40
0.1519854908129501
100
AcDbArc
 50
222.910381779526
 51
103.8358420178157
  0
TEXT
  5
66B
330
17
100
AcDbEntity
  8
TEXT_RB_SA_BUBBLES
100
AcDbText
 10
3.903867443569509
 20
4.231153518139121
 30
0.0
 40
0.125
  1
4
  7
ROMANS
 72
     4
 11
3.966367443569509
 21
4.293653518139121
 31
0.0
100
AcDbText
  0
TEXT
  5
66D
330
17
100
AcDbEntity
  8
TEXT_RB_SA_BUBBLES
100
AcDbText
 10
2.118638164146703
 20
1.978594579099546
 30
0.0
 40
0.125
  1
3
  7
ROMANS
 72
     4
 11
2.178161973670512
 21
2.041094579099546
 31
0.0
100
AcDbText
  0
CIRCLE
  5
66E
330
17
100
AcDbEntity
  8
TEXT_RB_SA_BUBBLES
100
AcDbCircle
 10
2.178161973670512
 20
2.041094579099546
 30
0.0
 40
0.15625
  0
CIRCLE
  5
670
330
17
100
AcDbEntity
  8
TEXT_RB_SA_BUBBLES
100
AcDbCircle
 10
3.966367443569509
 20
4.293653518139121
 30
0.0
 40
0.15625
  0
LINE
  5
673
330
17
100
AcDbEntity
  8
OPTION_RB_SA
100
AcDbLine
 10
4.215328744759659
 20
3.146275585394452
 30
0.0
 11
1.806866866347051
 21
3.722755109331512
 31
0.0
  0
LINE
  5
674
330
17
100
AcDbEntity
  8
OPTION_RB_SA
100
AcDbLine
 10
1.71396154507808
 20
3.417927948746372
 30
0.0
 11
4.123710528891809
 21
2.841061656226754
 31
0.0
  0
LINE
  5
676
330
17
100
AcDbEntity
  8
OPTION_RB_SA
100
AcDbLine
 10
4.807638459218496
 20
3.162162739545858
 30
0.0
 11
4.162728749915654
 21
3.16216273954585
 31
0.0
  0
LINE
  5
677
330
17
100
AcDbEntity
  8
OPTION_RB_SA
100
AcDbLine
 10
3.857773937008087
 20
2.708029036961967
 30
0.0
 11
4.807638459218496
 21
2.708029036961967
 31
0.0
  0
LINE
  5
67A
330
17
100
AcDbEntity
  8
OPTION_RB_SA
100
AcDbLine
 10
1.391768880561313
 20
3.64891499439556
 30
0.0
 11
1.391768880561312
 21
4.023928783003783
 31
0.0
  0
LWPOLYLINE
  5
67B
330
17
100
AcDbEntity
  8
OPTION_RB_SA
100
AcDbPolyline
 90
        4
 70
     0
 43
0.0
 10
0.5056237990352867
 20
3.092316410520862
 42
0.5107053858875276
 10
0.5056237990352727
 20
2.930146699787879
 42
-0.5107053858875159
 10
0.5056237990352867
 20
2.772532172172495
 42
-0.5397302473450178
 10
0.5025987602239389
 20
2.932424291346674
 42
-0.5397302473450178
  0
LINE
  5
67C
330
17
100
AcDbEntity
  8
OPTION_RB_SA
100
AcDbLine
 10
3.07414168306086
 20
3.092316410520861
 30
0.0
 11
0.5056237990352861
 21
3.092316410520862
 31
0.0
  0
LINE
  5
67D
330
17
100
AcDbEntity
  8
OPTION_RB_SA
100
AcDbLine
 10
3.857773937008087
 20
2.772532172172495
 30
0.0
 11
0.5056237990352861
 21
2.772532172172495
 31
0.0
  0
ARC
  5
67E
330
17
100
AcDbEntity
  8
OPTION_RB_SA
100
AcDbCircle
 10
1.52889007003989
 20
3.682904151774386
 30
0.0
 40
0.2275240054022093
100
AcDbArc
 50
127.0611407962445
 51
52.93885920375984
  0
LINE
  5
67F
330
17
100
AcDbEntity
  8
OPTION_RB_SA
100
AcDbLine
 10
1.391768880561312
 20
3.967976849136955
 30
0.0
 11
1.666011259518468
 21
3.967976849136955
 31
0.0
  0
ARC
  5
680
330
17
100
AcDbEntity
  8
OPTION_RB_SA
100
AcDbCircle
 10
1.528686810581147
 20
3.701008654180083
 30
0.0
 40
0.1464932385834307
100
AcDbArc
 50
200.8304993914681
 51
339.6213013705943
  0
TEXT
  5
682
330
17
100
AcDbEntity
  8
TEXT_RB_SA_LEADERS
100
AcDbText
 10
4.83318645
 20
3.84219531
 30
0.0
 40
0.125
  1
  RAIN BIRD MODEL SA 6050
  7
ROMANS
100
AcDbText
  0
LEADER
  5
692
330
17
100
AcDbEntity
  8
TEXT_RB_SA_LEADERS
100
AcDbLeader
  3
STANDARD
 40
0.18
 41
0.1714285714285714
 76
     3
 10
4.064529258594945
 20
2.708029036961967
 30
0.0
 10
4.394251377925598
 20
2.150060132786605
 30
0.0
 10
4.765032112807357
 20
2.150060132786605
 30
0.0
213
0.0
223
-0.09
233
0.0
1001
ACAD
1000
DSTYLE
1002
{
1070
   340
1005
1F
1070
   287
1070
     5
1002
}
  0
LEADER
  5
694
330
17
100
AcDbEntity
  8
TEXT_RB_SA_BUBBLES
100
AcDbLeader
  3
STANDARD
 76
     2
 10
2.771180828937712
 20
3.491940887581606
 30
0.0
 10
3.810117443569509
 20
4.293653518139121
 30
0.0
1001
ACAD
1000
DSTYLE
1002
{
1070
   340
1005
1F
1070
   287
1070
     5
1002
}
  0
LEADER
  5
695
330
17
100
AcDbEntity
  8
TEXT_BUBBLES
100
AcDbLeader
  3
STANDARD
 76
     2
 10
1.820050003645934
 20
4.346627945623604
 30
0.0
 10
3.818829969528975
 20
5.408621884347524
 30
0.0
1001
ACAD
1000
DSTYLE
1002
{
1070
   340
1005
1F
1070
   287
1070
     5
1002
}
  0
SOLID
  5
6CF
330
17
100
AcDbEntity
  8
INSTRUCT-CALLOUT
100
AcDbTrace
 10
13.40646687315841
 20
7.753509246993847
 30
0.0
 11
13.42226916681275
 21
7.695627578779618
 31
0.0
 12
13.24072301534289
 22
7.677161531923716
 32
0.0
 13
13.24072301534289
 23
7.677161531923716
 33
0.0
  0
LINE
  5
6D0
330
17
100
AcDbEntity
  8
INSTRUCT-CALLOUT
100
AcDbLine
 10
13.33719246236661
 20
7.703498688014282
 30
0.0
 11
13.59307387929145
 21
7.7733569594789
 31
0.0
  0
TEXT
  5
6D1
330
17
100
AcDbEntity
  8
INSTRUCT-CALLOUT
100
AcDbText
 10
13.69321215217077
 20
7.752008765870407
 30
0.0
 40
0.125
  1
1
  7
ROMANS
 72
     4
 11
13.74380739026601
 21
7.814508765870407
 31
0.0
100
AcDbText
  0
CIRCLE
  5
6D2
330
17
100
AcDbEntity
  8
INSTRUCT-CALLOUT
100
AcDbCircle
 10
13.74380739026601
 20
7.814508765870407
 30
0.0
 40
0.15625
  0
LWPOLYLINE
  5
6D3
330
17
100
AcDbEntity
  8
INSTRUCT-CALLOUT
100
AcDbPolyline
 90
        4
 70
     1
 43
0.0
 10
10.62507092693207
 20
8.925180752808316
 10
10.62507092693207
 20
7.493694731466074
 10
15.50403626963298
 20
7.493694731466074
 10
15.50403626963298
 20
8.925180752808316
  0
TEXT
  5
6D4
330
17
100
AcDbEntity
  8
INSTRUCT-CALLOUT
100
AcDbText
 10
10.66409827272737
 20
8.982296240241765
 30
0.0
 40
0.125
  1
CHOOSING EQUIPMENT CALLOUT METHOD
  7
ROMANS
100
AcDbText
  0
TEXT
  5
6D5
330
17
100
AcDbEntity
  8
INSTRUCT-CALLOUT
100
AcDbText
 10
10.66409827272737
 20
8.632296240241764
 30
0.0
 40
0.125
  1
CHOOSE EITHER LEADERS OR BUBBLE CALLOUTS
  7
ROMANS
100
AcDbText
  0
TEXT
  5
6D6
330
17
100
AcDbEntity
  8
INSTRUCT-CALLOUT
100
AcDbText
 10
10.66409827272737
 20
8.457296240241767
 30
0.0
 40
0.125
  1
BY TURNING ON THE APPROPRIATE LAYER:
  7
ROMANS
100
AcDbText
  0
TEXT
  5
6D7
330
17
100
AcDbEntity
  8
INSTRUCT-CALLOUT
100
AcDbText
 10
10.66409827272737
 20
8.107296240241762
 30
0.0
 40
0.125
  1
TEXT_LEADERS         TEXT_BUBBLES
  7
ROMANS
100
AcDbText
  0
LINE
  5
6D8
330
17
100
AcDbEntity
  8
INSTRUCT-CALLOUT
100
AcDbLine
 10
11.46638196204698
 20
7.856796588386843
 30
0.0
 11
11.60265050790561
 21
7.856796588386843
 31
0.0
  0
LINE
  5
6D9
330
17
100
AcDbEntity
  8
INSTRUCT-CALLOUT
100
AcDbLine
 10
11.17861154756866
 20
7.737044886580563
 30
0.0
 11
11.46638196204698
 21
7.856796588386843
 31
0.0
  0
SOLID
  5
6DA
330
17
100
AcDbEntity
  8
INSTRUCT-CALLOUT
100
AcDbTrace
 10
11.26399754510899
 20
7.74008321244245
 30
0.0
 11
11.24094566021725
 21
7.795478253763296
 31
0.0
 12
11.08628647870058
 22
7.698625078427675
 32
0.0
 13
11.08628647870058
 23
7.698625078427675
 33
0.0
  0
TEXT
  5
6DB
330
17
100
AcDbEntity
  8
INSTRUCT-CALLOUT
100
AcDbText
 10
11.62862524492274
 20
7.792045978992942
 30
0.0
 40
0.125
  1
ITEM 1
  7
ROMANS
100
AcDbText
  0
TEXT
  5
6DC
330
17
100
AcDbEntity
  8
INSTRUCT-CALLOUT
100
AcDbText
 10
10.66409827272737
 20
7.112738624764943
 30
0.0
 40
0.125
  1
LAYER "INSTRUCT-CALLOUT".
  7
ROMANS
100
AcDbText
  0
TEXT
  5
6DD
330
17
100
AcDbEntity
  8
INSTRUCT-CALLOUT
100
AcDbText
 10
10.66409827272737
 20
7.287738624764943
 30
0.0
 40
0.125
  1
TO TURN OFF THIS INSTRUCTION BOX, TURN OFF
  7
ROMANS
100
AcDbText
  0
TEXT
  5
6E1
330
17
100
AcDbEntity
  8
TEXT_RB_SA_LEADERS
100
AcDbText
 10
4.83318645
 20
4.017195309999999
 30
0.0
 40
0.125
  1
SWING ASSEMBLY:
  7
ROMANS
100
AcDbText
  0
TEXT
  5
6E2
330
17
100
AcDbEntity
  8
TEXT_RB_SA_LEADERS
100
AcDbText
 10
4.83318645
 20
2.088078243980555
 30
0.0
 40
0.125
  1
PVC SCH 40 TEE OR ELL
  7
ROMANS
100
AcDbText
  0
TEXT
  5
6E3
330
17
100
AcDbEntity
  8
TEXT_RB_SA_LEADERS
100
AcDbText
 10
4.83318645
 20
1.738078243980555
 30
0.0
 40
0.125
  1
PVC LATERAL PIPE
  7
ROMANS
100
AcDbText
  0
TEXT
  5
6E5
330
17
100
AcDbEntity
  8
TEXT_LEADERS
100
AcDbText
 10
4.83318645
 20
6.367105520490743
 30
0.0
 40
0.125
  1
FINISH GRADE
  7
ROMANS
100
AcDbText
  0
TEXT
  5
6E6
330
17
100
AcDbEntity
  8
TEXT_LEADERS
100
AcDbText
 10
4.83318645
 20
5.842105520490743
 30
0.0
 40
0.125
  1
ROTOR POP-UP SPRINKLER:
  7
ROMANS
100
AcDbText
  0
LEADER
  5
6E8
330
17
100
AcDbEntity
  8
TEXT_RB_SA_LEADERS
100
AcDbLeader
  3
STANDARD
 76
     3
 10
2.347934391249725
 20
2.747177143770108
 30
0.0
 10
4.394251377925598
 20
1.797277567068035
 30
0.0
 10
4.762479957868903
 20
1.797277567068033
 30
0.0
211
-1.0
221
0.0
231
0.0
210
0.0
220
0.0
230
-1.0
  0
LEADER
  5
6EA
330
17
100
AcDbEntity
  8
TEXT_RB_SA_LEADERS
100
AcDbLeader
  3
STANDARD
 76
     3
 10
2.432401196725209
 20
3.589678482889925
 30
0.0
 10
4.394251377925598
 20
4.066929610316829
 30
0.0
 10
4.762479957868903
 20
4.066929610316829
 30
0.0
  0
TEXT
  5
6F1
330
17
100
AcDbEntity
  8
TEXT_SA_BUBBLES
100
AcDbText
 10
4.83318324
 20
5.127976356924023
 30
0.0
 40
0.125
  1
1/2-INCH MALE NPT x .490 INCH
  7
ROMANS
100
AcDbText
  0
TEXT
  5
6F2
330
17
100
AcDbEntity
  8
TEXT_SA_BUBBLES
100
AcDbText
 10
4.83318324
 20
3.902976359999999
 30
0.0
 40
0.125
  1
  RAIN BIRD MODEL SP-100
  7
ROMANS
100
AcDbText
  0
TEXT
  5
6F3
330
17
100
AcDbEntity
  8
TEXT_SA_BUBBLES
100
AcDbText
 10
4.83318324
 20
3.55297636
 30
0.0
 40
0.125
  1
PVC SCH 40 TEE OR ELL
  7
ROMANS
100
AcDbText
  0
LEADER
  5
6F4
330
17
100
AcDbEntity
  8
TEXT_SA_BUBBLES
100
AcDbLeader
  3
STANDARD
 76
     2
 10
5.006117475831727
 20
2.683969577102136
 30
0.0
 10
5.12244465692709
 20
2.202118025315121
 30
0.0
  0
LEADER
  5
6F5
330
17
100
AcDbEntity
  8
TEXT_SA_BUBBLES
100
AcDbLeader
  3
STANDARD
 76
     2
 10
4.53067616185242
 20
2.931374754956765
 30
0.0
 10
4.70872653683917
 20
2.20263493903454
 30
0.0
  0
LEADER
  5
6F6
330
17
100
AcDbEntity
  8
TEXT_SA_BUBBLES
100
AcDbLeader
  3
STANDARD
 76
     2
 10
2.949270733269617
 20
2.757113995823545
 30
0.0
 10
3.087752238807975
 20
2.202677052837244
 30
0.0
  0
LEADER
  5
6F7
330
17
100
AcDbEntity
  8
TEXT_SA_BUBBLES
100
AcDbLeader
  3
STANDARD
 76
     2
 10
3.301442606891889
 20
3.307182004457259
 30
0.0
 10
3.576541492318688
 20
2.205771498685956
 30
0.0
  0
LEADER
  5
6FB
330
17
100
AcDbEntity
  8
TEXT_RB_SA_BUBBLES
100
AcDbLeader
  3
STANDARD
 76
     2
 10
1.990456724255918
 20
2.772532172172495
 30
0.0
 10
2.14051004245851
 20
2.192740200783809
 30
0.0
  0
LEADER
  5
6FC
330
17
100
AcDbEntity
  8
TEXT_RB_SA_BUBBLES
100
AcDbLeader
  3
STANDARD
 76
     2
 10
4.066240142130897
 20
2.706105283076465
 30
0.0
 10
4.194602772651657
 20
2.192181173261686
 30
0.0
  0
LINE
  5
6FD
330
17
100
AcDbEntity
  8
IMAGE
100
AcDbLine
 10
1.820050003645934
 20
5.819563407128013
 30
0.0
 11
1.820050003645934
 21
4.065956173908828
 31
0.0
  0
LINE
  5
6FE
330
17
100
AcDbEntity
  8
IMAGE
100
AcDbLine
 10
1.238917343474819
 20
5.819563407128013
 30
0.0
 11
1.238917343474819
 21
4.065956173908828
 31
0.0
  0
HATCH
  5
6FF
330
17
100
AcDbEntity
  8
IMAGE
100
AcDbHatch
 10
0.0
 20
0.0
 30
0.0
210
0.0
220
0.0
230
1.0
  2
EARTH
 70
     0
 71
     0
 91
        2
 92
        7
 72
     1
 73
     1
 93
       15
 10
1.178518724299732
 20
6.044609985786134
 42
-0.215532805524378
 10
1.188490532884358
 20
6.066668285157153
 42
0.0
 10
1.300948357762751
 20
6.165631171050138
 42
0.0
 10
0.4423489585226191
 20
6.167324301089202
 42
0.0
 10
0.4573805176093682
 20
6.102109160713056
 42
0.0
 10
0.4831069988300301
 20
5.978197503695483
 42
0.0
 10
0.5836741252354815
 20
5.872989481163208
 42
0.0
 10
0.6164169195163242
 20
5.751415776211925
 42
0.0
 10
0.6702086529777047
 20
5.604124562621572
 42
0.0
 10
0.7731145778603478
 20
5.557365449476037
 42
0.0
 10
0.9812651986456987
 20
5.557365449476037
 42
0.0
 10
1.105220062708881
 20
5.477874953537669
 42
0.0
 10
1.238917343474819
 20
5.4544953969649
 42
0.0
 10
1.238917343474819
 20
5.819563407128013
 42
0.0
 10
1.178518724299731
 20
5.819563407128013
 42
0.0
 97
        0
 92
        7
 72
     1
 73
     1
 93
       15
 10
2.475293221885258
 20
5.872989481163208
 42
0.0
 10
2.575860348290708
 20
5.978197503695482
 42
0.0
 10
2.601586829511369
 20
6.10210916071306
 42
0.0
 10
2.616451412312717
 20
6.16659986646275
 42
0.0
 10
1.758018989358006
 20
6.165631171050137
 42
0.0
 10
1.870476814236395
 20
6.066668285157153
 42
-0.2155328055243939
 10
1.880448622821022
 20
6.044609985786133
 42
0.0
 10
1.880448622821022
 20
5.819563407128013
 42
0.0
 10
1.820050003645934
 20
5.819563407128013
 42
0.0
 10
1.820050003645934
 20
5.454495396964904
 42
0.0
 10
1.953747284411857
 20
5.477874953537668
 42
0.0
 10
2.077702148475039
 20
5.557365449476037
 42
0.0
 10
2.285852769260389
 20
5.557365449476038
 42
0.0
 10
2.388758694143033
 20
5.60412456262157
 42
0.0
 10
2.442550427604417
 20
5.751415776211933
 42
0.0
 97
        0
 75
     0
 76
     1
 52
45.0
 41
0.65
 77
     0
 78
     6
 53
45.0
 43
0.000000000000002
 44
0.0000000000000053
 45
0.0
 46
0.2298097038856279
 79
     2
 49
0.1625
 49
-0.1625
 53
45.0
 43
-0.0430893194785533
 44
0.0430893194785607
 45
0.0
 46
0.2298097038856279
 79
     2
 49
0.1625
 49
-0.1625
 53
45.0
 43
-0.0861786389571084
 44
0.086178638957116
 45
0.0
 46
0.2298097038856279
 79
     2
 49
0.1625
 49
-0.1625
 53
135.0
 43
-0.0861786389571084
 44
0.1149048519428195
 45
-0.2298097038856279
 46
0.0
 79
     2
 49
0.1625
 49
-0.1625
 53
135.0
 43
-0.0430893194785533
 44
0.1579941714213744
 45
-0.2298097038856279
 46
0.0
 79
     2
 49
0.1625
 49
-0.1625
 53
135.0
 43
0.000000000000002
 44
0.2010834908999297
 45
-0.2298097038856279
 46
0.0
 79
     2
 49
0.1625
 49
-0.1625
 47
0.0023379558272417
 98
        2
 10
0.8432777084621518
 20
6.027294568907326
 10
2.316703423642882
 20
5.83792014630406
  0
LINE
  5
700
330
17
100
AcDbEntity
  8
IMAGE
100
AcDbLine
 10
1.758018989358006
 20
6.165631171050136
 30
0.0
 11
3.58399489966912
 21
6.167691687918517
 31
0.0
  0
LINE
  5
701
330
17
100
AcDbEntity
  8
IMAGE
100
AcDbLine
 10
2.242620448902599
 20
6.548372744939716
 30
0.0
 11
2.333821521337645
 21
6.167324301089201
 31
0.0
  0
LINE
  5
702
330
17
100
AcDbEntity
  8
IMAGE
100
AcDbLine
 10
1.333596260019552
 20
6.165631171050136
 30
0.0
 11
0.280315660562767
 21
6.167691687918517
 31
0.0
  0
LINE
  5
703
330
17
100
AcDbEntity
  8
IMAGE
100
AcDbLine
 10
1.870734035228036
 20
6.001085743675846
 30
0.0
 11
1.868356831083488
 21
5.817701423953582
 31
0.0
  0
LINE
  5
704
330
17
100
AcDbEntity
  8
IMAGE
100
AcDbLine
 10
1.834818325516449
 20
6.001085743675846
 30
0.0
 11
1.832447155576632
 21
5.818166919747191
 31
0.0
  0
LINE
  5
705
330
17
100
AcDbEntity
  8
IMAGE
100
AcDbLine
 10
1.7628213069878
 20
6.001085743675846
 30
0.0
 11
1.765192476927616
 21
5.818166919747191
 31
0.0
  0
LINE
  5
706
330
17
100
AcDbEntity
  8
IMAGE
100
AcDbLine
 10
1.655092280720707
 20
6.001085743675846
 30
0.0
 11
1.657457416455791
 21
5.818632415540799
 31
0.0
  0
LINE
  5
707
330
17
100
AcDbEntity
  8
IMAGE
100
AcDbLine
 10
1.727077230839892
 20
6.001085743675846
 30
0.0
 11
1.724712095104808
 21
5.818632415540799
 31
0.0
  0
LINE
  5
708
330
17
100
AcDbEntity
  8
IMAGE
100
AcDbLine
 10
1.547363254453614
 20
6.001085743675846
 30
0.0
 11
1.549722355983966
 21
5.819097911334407
 31
0.0
  0
LINE
  5
709
330
17
100
AcDbEntity
  8
IMAGE
100
AcDbLine
 10
1.619336136163335
 20
6.001085743675846
 30
0.0
 11
1.616977034632983
 21
5.819097911334407
 31
0.0
  0
LINE
  5
70A
330
17
100
AcDbEntity
  8
IMAGE
100
AcDbLine
 10
1.511595041486778
 20
6.001085743675846
 30
0.0
 11
1.509241974161158
 21
5.819563407128013
 31
0.0
  0
LINE
  5
70B
330
17
100
AcDbEntity
  8
IMAGE
100
AcDbLine
 10
1.1884079626855
 20
6.001085743675846
 30
0.0
 11
1.186036792745684
 21
5.818166919747191
 31
0.0
  0
LINE
  5
70C
330
17
100
AcDbEntity
  8
IMAGE
100
AcDbLine
 10
1.296136988952593
 20
6.001085743675846
 30
0.0
 11
1.293771853217508
 21
5.818632415540799
 31
0.0
  0
LINE
  5
70D
330
17
100
AcDbEntity
  8
IMAGE
100
AcDbLine
 10
1.224152038833408
 20
6.001085743675846
 30
0.0
 11
1.226517174568492
 21
5.818632415540799
 31
0.0
  0
LINE
  5
70E
330
17
100
AcDbEntity
  8
IMAGE
100
AcDbLine
 10
1.403866015219686
 20
6.001085743675846
 30
0.0
 11
1.401506913689333
 21
5.819097911334407
 31
0.0
  0
LINE
  5
70F
330
17
100
AcDbEntity
  8
IMAGE
100
AcDbLine
 10
1.331893133509965
 20
6.001085743675846
 30
0.0
 11
1.334252235040317
 21
5.819097911334407
 31
0.0
  0
LINE
  5
710
330
17
100
AcDbEntity
  8
IMAGE
100
AcDbLine
 10
1.439634228186521
 20
6.001085743675846
 30
0.0
 11
1.441987295512141
 21
5.819563407128013
 31
0.0
  0
LINE
  5
711
330
17
100
AcDbEntity
  8
IMAGE
100
AcDbLine
 10
1.880448622821022
 20
5.819563407128013
 30
0.0
 11
1.880448622821022
 21
6.044609985786134
 31
0.0
  0
LINE
  5
712
330
17
100
AcDbEntity
  8
IMAGE
100
AcDbLine
 10
1.178518724299731
 20
5.819563407128013
 30
0.0
 11
1.178518724299732
 21
6.044609985786134
 31
0.0
  0
LINE
  5
713
330
17
100
AcDbEntity
  8
IMAGE
100
AcDbLine
 10
1.880448622821022
 20
5.819563407128013
 30
0.0
 11
1.178518724299731
 21
5.819563407128013
 31
0.0
  0
LINE
  5
714
330
17
100
AcDbEntity
  8
IMAGE
100
AcDbLine
 10
1.30358459352752
 20
6.057893093602682
 30
0.0
 11
1.344326310179641
 21
6.067687464279724
 31
0.0
  0
LINE
  5
715
330
17
100
AcDbEntity
  8
IMAGE
100
AcDbLine
 10
1.421271067470108
 20
6.057893093602682
 30
0.0
 11
1.30358459352752
 21
6.057893093602682
 31
0.0
  0
LINE
  5
716
330
17
100
AcDbEntity
  8
IMAGE
100
AcDbLine
 10
1.331893133509965
 20
6.001085743675846
 30
0.0
 11
1.296136988952593
 21
6.001085743675846
 31
0.0
  0
LINE
  5
717
330
17
100
AcDbEntity
  8
IMAGE
100
AcDbLine
 10
1.344326310179641
 20
6.165631171050138
 30
0.0
 11
1.281009167950615
 21
6.044833932699961
 31
0.0
  0
LINE
  5
718
330
17
100
AcDbEntity
  8
IMAGE
100
AcDbLine
 10
1.333596260019551
 20
6.165631171050138
 30
0.0
 11
1.270279117790525
 21
6.044833932699961
 31
0.0
  0
LINE
  5
719
330
17
100
AcDbEntity
  8
IMAGE
100
AcDbLine
 10
1.418482997021622
 20
6.019695047962223
 30
0.0
 11
1.296121353827313
 21
6.019695047962223
 31
0.0
  0
LINE
  5
71A
330
17
100
AcDbEntity
  8
IMAGE
100
AcDbLine
 10
1.758018989358006
 20
6.165631171050136
 30
0.0
 11
1.300948357762747
 21
6.165631171050138
 31
0.0
  0
LINE
  5
71B
330
17
100
AcDbEntity
  8
IMAGE
100
AcDbLine
 10
0.8278508806576251
 20
6.621651291834048
 30
0.0
 11
0.8278508806576251
 21
6.167324301089184
 31
0.0
  0
LINE
  5
71C
330
17
100
AcDbEntity
  8
IMAGE
100
AcDbLine
 10
0.6301963814098497
 20
6.621651291834048
 30
0.0
 11
0.6301963814098497
 21
6.167324301089184
 31
0.0
  0
LINE
  5
71D
330
17
100
AcDbEntity
  8
IMAGE
100
AcDbLine
 10
0.6371577292025319
 20
6.489749907424254
 30
0.0
 11
0.8978093149192613
 21
6.167324301089184
 31
0.0
  0
LINE
  5
71E
330
17
100
AcDbEntity
  8
IMAGE
100
AcDbLine
 10
0.9459744610835267
 20
6.592339873076324
 30
0.0
 11
0.7434066445194924
 21
6.167324301089184
 31
0.0
  0
LINE
  5
71F
330
17
100
AcDbEntity
  8
IMAGE
100
AcDbLine
 10
0.6872995503895292
 20
6.569810797185395
 30
0.0
 11
0.7363832694256556
 21
6.167324301089184
 31
0.0
  0
LINE
  5
720
330
17
100
AcDbEntity
  8
IMAGE
100
AcDbLine
 10
0.4354365064097903
 20
6.551353376547844
 30
0.0
 11
0.5338760831433726
 21
6.176052490251128
 31
0.0
  0
LINE
  5
721
330
17
100
AcDbEntity
  8
IMAGE
100
AcDbLine
 10
0.6384681334227802
 20
6.545200903002009
 30
0.0
 11
0.6738940648521032
 21
6.167324301089184
 31
0.0
  0
LINE
  5
722
330
17
100
AcDbEntity
  8
IMAGE
100
AcDbLine
 10
0.5499194542152464
 20
6.548372744939716
 30
0.0
 11
0.6411205266502873
 21
6.167324301089201
 31
0.0
  0
LINE
  5
723
330
17
100
AcDbEntity
  8
IMAGE
100
AcDbLine
 10
0.550261723974256
 20
6.539048429456157
 30
0.0
 11
0.5150986307503623
 21
6.167324301089184
 31
0.0
  0
LINE
  5
724
330
17
100
AcDbEntity
  8
IMAGE
100
AcDbLine
 10
0.6793463188054117
 20
6.592339873076324
 30
0.0
 11
0.4767785022413769
 21
6.167324301089184
 31
0.0
  0
LINE
  5
725
330
17
100
AcDbEntity
  8
IMAGE
100
AcDbLine
 10
0.7357439929756749
 20
6.551353376547844
 30
0.0
 11
0.83418356970925
 21
6.176052490251128
 31
0.0
  0
LINE
  5
726
330
17
100
AcDbEntity
  8
IMAGE
100
AcDbLine
 10
0.9333984922234503
 20
6.551353376547844
 30
0.0
 11
1.031838068957025
 21
6.176052490251128
 31
0.0
  0
LINE
  5
727
330
17
100
AcDbEntity
  8
IMAGE
100
AcDbLine
 10
1.136430119236433
 20
6.545200903002009
 30
0.0
 11
1.171856050665756
 21
6.167324301089184
 31
0.0
  0
LINE
  5
728
330
17
100
AcDbEntity
  8
IMAGE
100
AcDbLine
 10
1.267911999400159
 20
6.606995582455191
 30
0.0
 11
1.161971359702892
 21
6.167324301089184
 31
0.0
  0
LINE
  5
729
330
17
100
AcDbEntity
  8
IMAGE
100
AcDbLine
 10
1.047881440028899
 20
6.548372744939716
 30
0.0
 11
1.139082512463947
 21
6.167324301089201
 31
0.0
  0
LINE
  5
72A
330
17
100
AcDbEntity
  8
IMAGE
100
AcDbLine
 10
1.20378880781195
 20
6.545200903002009
 30
0.0
 11
1.23921473924128
 21
6.167324301089184
 31
0.0
  0
LINE
  5
72B
330
17
100
AcDbEntity
  8
IMAGE
100
AcDbLine
 10
1.117197352818255
 20
6.539048429456157
 30
0.0
 11
1.082034259594355
 21
6.167324301089184
 31
0.0
  0
LINE
  5
72C
330
17
100
AcDbEntity
  8
IMAGE
100
AcDbLine
 10
1.070257500152383
 20
6.606995582455191
 30
0.0
 11
0.9643168604551101
 21
6.167324301089184
 31
0.0
  0
LINE
  5
72D
330
17
100
AcDbEntity
  8
IMAGE
100
AcDbLine
 10
0.8502269407811235
 20
6.548372744939716
 30
0.0
 11
0.9414280132161717
 21
6.167324301089201
 31
0.0
  0
LINE
  5
72E
330
17
100
AcDbEntity
  8
IMAGE
100
AcDbLine
 10
1.246281947649404
 20
6.592339873076324
 30
0.0
 11
1.04371413108537
 21
6.167324301089184
 31
0.0
  0
LINE
  5
72F
330
17
100
AcDbEntity
  8
IMAGE
100
AcDbLine
 10
1.188490532884358
 20
6.066668285157153
 30
0.0
 11
1.300948357762747
 21
6.165631171050136
 31
0.0
  0
LINE
  5
730
330
17
100
AcDbEntity
  8
IMAGE
100
AcDbLine
 10
1.270279117790525
 20
6.019695047962223
 30
0.0
 11
1.178518724299731
 21
6.019695047962223
 31
0.0
  0
LINE
  5
731
330
17
100
AcDbEntity
  8
IMAGE
100
AcDbLine
 10
1.192905196771828
 20
6.057893093602682
 30
0.0
 11
1.281504341276819
 21
6.066249554903866
 31
0.0
  0
LINE
  5
732
330
17
100
AcDbEntity
  8
IMAGE
100
AcDbLine
 10
1.277124214247717
 20
6.057893093602682
 30
0.0
 11
1.192905196771828
 21
6.057893093602682
 31
0.0
  0
LINE
  5
733
330
17
100
AcDbEntity
  8
IMAGE
100
AcDbLine
 10
1.224152038833408
 20
6.001085743675846
 30
0.0
 11
1.1884079626855
 21
6.001085743675846
 31
0.0
  0
LINE
  5
734
330
17
100
AcDbEntity
  8
IMAGE
100
AcDbLine
 10
1.178518724299731
 20
6.019695047962223
 30
0.0
 11
1.192905196771828
 21
6.057893093602682
 31
0.0
  0
ARC
  5
735
330
17
100
AcDbEntity
  8
IMAGE
100
AcDbCircle
 10
1.207901836330856
 20
6.044609985786134
 30
0.0
 40
0.0293831120311238
100
AcDbArc
 50
131.3477772196934
 51
180.0
  0
LINE
  5
736
330
17
100
AcDbEntity
  8
IMAGE
100
AcDbLine
 10
1.296121353827313
 20
6.019695047962223
 30
0.0
 11
1.30358459352752
 21
6.057893093602682
 31
0.0
  0
LINE
  5
737
330
17
100
AcDbEntity
  8
IMAGE
100
AcDbLine
 10
1.281009167950615
 20
6.044833932699961
 30
0.0
 11
1.270279117790525
 21
6.044833932699961
 31
0.0
  0
LINE
  5
738
330
17
100
AcDbEntity
  8
IMAGE
100
AcDbLine
 10
1.296121353827313
 20
6.019695047962223
 30
0.0
 11
1.281009167950615
 21
6.01969504796222
 31
0.0
  0
LINE
  5
739
330
17
100
AcDbEntity
  8
IMAGE
100
AcDbLine
 10
1.270279117790525
 20
6.044833932699961
 30
0.0
 11
1.270279117790525
 21
6.019695047962223
 31
0.0
  0
LINE
  5
73A
330
17
100
AcDbEntity
  8
IMAGE
100
AcDbLine
 10
1.281009167950615
 20
6.044833932699961
 30
0.0
 11
1.281009167950615
 21
6.019695047962223
 31
0.0
  0
LINE
  5
73B
330
17
100
AcDbEntity
  8
IMAGE
100
AcDbLine
 10
2.21905273120994
 20
6.621651291834048
 30
0.0
 11
2.21905273120994
 21
6.167324301089184
 31
0.0
  0
LINE
  5
73C
330
17
100
AcDbEntity
  8
IMAGE
100
AcDbLine
 10
2.022589889531328
 20
6.621651291834048
 30
0.0
 11
2.022589889531328
 21
6.167324301089184
 31
0.0
  0
LINE
  5
73D
330
17
100
AcDbEntity
  8
IMAGE
100
AcDbLine
 10
1.944004752859882
 20
6.621651291834048
 30
0.0
 11
1.944004752859882
 21
6.167324301089184
 31
0.0
  0
LINE
  5
73E
330
17
100
AcDbEntity
  8
IMAGE
100
AcDbLine
 10
1.866062150348925
 20
6.057893093602682
 30
0.0
 11
1.777463005843935
 21
6.066249554903866
 31
0.0
  0
LINE
  5
73F
330
17
100
AcDbEntity
  8
IMAGE
100
AcDbLine
 10
1.777958179170138
 20
6.044833932699961
 30
0.0
 11
1.788688229330228
 21
6.044833932699961
 31
0.0
  0
LINE
  5
740
330
17
100
AcDbEntity
  8
IMAGE
100
AcDbLine
 10
1.870476814236396
 20
6.066668285157153
 30
0.0
 11
1.758018989358006
 21
6.165631171050136
 31
0.0
  0
LINE
  5
741
330
17
100
AcDbEntity
  8
IMAGE
100
AcDbLine
 10
1.725371087101202
 20
6.165631171050138
 30
0.0
 11
1.788688229330228
 21
6.044833932699961
 31
0.0
  0
LINE
  5
742
330
17
100
AcDbEntity
  8
IMAGE
100
AcDbLine
 10
1.616985187819022
 20
6.019695047962223
 30
0.0
 11
1.44198215930173
 21
6.019695047962223
 31
0.0
  0
LINE
  5
743
330
17
100
AcDbEntity
  8
IMAGE
100
AcDbLine
 10
1.529483673560377
 20
6.057893093602685
 30
0.0
 11
1.602598715346926
 21
6.057893093602685
 31
0.0
  0
LINE
  5
744
330
17
100
AcDbEntity
  8
IMAGE
100
AcDbLine
 10
1.591195536170528
 20
6.067687464279722
 30
0.0
 11
1.529483673560377
 21
6.067687464279724
 31
0.0
  0
LINE
  5
745
330
17
100
AcDbEntity
  8
IMAGE
100
AcDbLine
 10
1.547363254453615
 20
6.001085743675846
 30
0.0
 11
1.511595041486778
 21
6.001085743675846
 31
0.0
  0
LINE
  5
746
330
17
100
AcDbEntity
  8
IMAGE
100
AcDbLine
 10
1.741695038229597
 20
6.165631171050138
 30
0.0
 11
1.317272308891142
 21
6.165631171050138
 31
0.0
  0
LINE
  5
747
330
17
100
AcDbEntity
  8
IMAGE
100
AcDbLine
 10
1.741695038229597
 20
6.214603024435344
 30
0.0
 11
1.317272308891142
 21
6.214603024435344
 31
0.0
  0
LINE
  5
748
330
17
100
AcDbEntity
  8
IMAGE
100
AcDbLine
 10
1.344326310179641
 20
6.165631171050138
 30
0.0
 11
1.344326310179641
 21
6.067687464279724
 31
0.0
  0
LINE
  5
749
330
17
100
AcDbEntity
  8
IMAGE
100
AcDbLine
 10
1.467771810950226
 20
6.165631171050136
 30
0.0
 11
1.467771810950226
 21
6.067687464279724
 31
0.0
  0
LINE
  5
74A
330
17
100
AcDbEntity
  8
IMAGE
100
AcDbLine
 10
1.467771810950226
 20
6.165631171050136
 30
0.0
 11
1.441982159301731
 21
6.044833932699964
 31
0.0
  0
LINE
  5
74B
330
17
100
AcDbEntity
  8
IMAGE
100
AcDbLine
 10
1.444272648670118
 20
6.165631171050136
 30
0.0
 11
1.418482997021622
 21
6.044833932699964
 31
0.0
  0
LINE
  5
74C
330
17
100
AcDbEntity
  8
IMAGE
100
AcDbLine
 10
1.439634228186521
 20
6.001085743675846
 30
0.0
 11
1.403866015219686
 21
6.001085743675846
 31
0.0
  0
LINE
  5
74D
330
17
100
AcDbEntity
  8
IMAGE
100
AcDbLine
 10
1.441982159301731
 20
6.044833932699964
 30
0.0
 11
1.418482997021622
 21
6.044833932699964
 31
0.0
  0
LINE
  5
74E
330
17
100
AcDbEntity
  8
IMAGE
100
AcDbLine
 10
1.418482997021622
 20
6.044833932699961
 30
0.0
 11
1.418482997021622
 21
6.019695047962223
 31
0.0
  0
LINE
  5
74F
330
17
100
AcDbEntity
  8
IMAGE
100
AcDbLine
 10
1.344326310179641
 20
6.067687464279724
 30
0.0
 11
1.423362120306473
 21
6.067687464279722
 31
0.0
  0
LINE
  5
750
330
17
100
AcDbEntity
  8
IMAGE
100
AcDbLine
 10
1.456368631773827
 20
6.057893093602685
 30
0.0
 11
1.467771810950226
 21
6.067687464279724
 31
0.0
  0
LINE
  5
751
330
17
100
AcDbEntity
  8
IMAGE
100
AcDbLine
 10
1.441982159301731
 20
6.019695047962223
 30
0.0
 11
1.456368631773827
 21
6.057893093602685
 31
0.0
  0
LINE
  5
752
330
17
100
AcDbEntity
  8
IMAGE
100
AcDbLine
 10
1.441982159301731
 20
6.044833932699964
 30
0.0
 11
1.441982159301731
 21
6.019695047962223
 31
0.0
  0
LINE
  5
753
330
17
100
AcDbEntity
  8
IMAGE
100
AcDbLine
 10
1.529483673560377
 20
6.057893093602685
 30
0.0
 11
1.456368631773827
 21
6.057893093602685
 31
0.0
  0
LINE
  5
754
330
17
100
AcDbEntity
  8
IMAGE
100
AcDbLine
 10
1.467771810950226
 20
6.067687464279722
 30
0.0
 11
1.529483673560377
 21
6.067687464279724
 31
0.0
  0
LINE
  5
755
330
17
100
AcDbEntity
  8
IMAGE
100
AcDbLine
 10
1.318696779404219
 20
6.165631171050136
 30
0.0
 11
1.318696779404219
 21
6.137205754996551
 31
0.0
  0
LINE
  5
756
330
17
100
AcDbEntity
  8
IMAGE
100
AcDbLine
 10
1.371603688668729
 20
6.165631171050138
 30
0.0
 11
1.371603688668729
 21
6.165631171050138
 31
0.0
  0
LINE
  5
757
330
17
100
AcDbEntity
  8
IMAGE
100
AcDbLine
 10
1.317272308891142
 20
6.165631171050138
 30
0.0
 11
1.317272308891142
 21
6.214603024435344
 31
0.0
  0
LINE
  5
758
330
17
100
AcDbEntity
  8
IMAGE
100
AcDbLine
 10
1.714641036941112
 20
6.165631171050138
 30
0.0
 11
1.714641036941112
 21
6.067687464279724
 31
0.0
  0
LINE
  5
759
330
17
100
AcDbEntity
  8
IMAGE
100
AcDbLine
 10
1.714641036941112
 20
6.165631171050138
 30
0.0
 11
1.777958179170139
 21
6.044833932699961
 31
0.0
  0
LINE
  5
75A
330
17
100
AcDbEntity
  8
IMAGE
100
AcDbLine
 10
1.591195536170528
 20
6.165631171050136
 30
0.0
 11
1.591195536170528
 21
6.067687464279724
 31
0.0
  0
LINE
  5
75B
330
17
100
AcDbEntity
  8
IMAGE
100
AcDbLine
 10
1.591195536170528
 20
6.165631171050136
 30
0.0
 11
1.616985187819023
 21
6.044833932699964
 31
0.0
  0
LINE
  5
75C
330
17
100
AcDbEntity
  8
IMAGE
100
AcDbLine
 10
1.614694698450636
 20
6.165631171050136
 30
0.0
 11
1.640484350099131
 21
6.044833932699964
 31
0.0
  0
LINE
  5
75D
330
17
100
AcDbEntity
  8
IMAGE
100
AcDbLine
 10
1.777958179170138
 20
6.019695047962223
 30
0.0
 11
1.640484350099131
 21
6.019695047962223
 31
0.0
  0
LINE
  5
75E
330
17
100
AcDbEntity
  8
IMAGE
100
AcDbLine
 10
1.637696279650645
 20
6.057893093602682
 30
0.0
 11
1.755382753593233
 21
6.057893093602682
 31
0.0
  0
LINE
  5
75F
330
17
100
AcDbEntity
  8
IMAGE
100
AcDbLine
 10
1.714641036941112
 20
6.067687464279724
 30
0.0
 11
1.635605226814281
 21
6.067687464279722
 31
0.0
  0
LINE
  5
760
330
17
100
AcDbEntity
  8
IMAGE
100
AcDbLine
 10
1.640484350099131
 20
6.019695047962223
 30
0.0
 11
1.76284599329344
 21
6.019695047962223
 31
0.0
  0
LINE
  5
761
330
17
100
AcDbEntity
  8
IMAGE
100
AcDbLine
 10
1.602598715346926
 20
6.057893093602685
 30
0.0
 11
1.591195536170528
 21
6.067687464279724
 31
0.0
  0
LINE
  5
762
330
17
100
AcDbEntity
  8
IMAGE
100
AcDbLine
 10
1.616985187819023
 20
6.019695047962223
 30
0.0
 11
1.602598715346926
 21
6.057893093602685
 31
0.0
  0
LINE
  5
763
330
17
100
AcDbEntity
  8
IMAGE
100
AcDbLine
 10
1.616985187819023
 20
6.044833932699964
 30
0.0
 11
1.640484350099131
 21
6.044833932699964
 31
0.0
  0
LINE
  5
764
330
17
100
AcDbEntity
  8
IMAGE
100
AcDbLine
 10
1.616985187819023
 20
6.044833932699964
 30
0.0
 11
1.616985187819023
 21
6.019695047962223
 31
0.0
  0
LINE
  5
765
330
17
100
AcDbEntity
  8
IMAGE
100
AcDbLine
 10
1.640484350099131
 20
6.044833932699961
 30
0.0
 11
1.640484350099131
 21
6.019695047962223
 31
0.0
  0
LINE
  5
766
330
17
100
AcDbEntity
  8
IMAGE
100
AcDbLine
 10
1.655092280720707
 20
6.001085743675846
 30
0.0
 11
1.619336136163336
 21
6.001085743675846
 31
0.0
  0
LINE
  5
767
330
17
100
AcDbEntity
  8
IMAGE
100
AcDbLine
 10
1.755382753593233
 20
6.057893093602682
 30
0.0
 11
1.714641036941112
 21
6.067687464279724
 31
0.0
  0
LINE
  5
768
330
17
100
AcDbEntity
  8
IMAGE
100
AcDbLine
 10
1.76284599329344
 20
6.019695047962223
 30
0.0
 11
1.755382753593233
 21
6.057893093602682
 31
0.0
  0
LINE
  5
769
330
17
100
AcDbEntity
  8
IMAGE
100
AcDbLine
 10
1.76284599329344
 20
6.019695047962223
 30
0.0
 11
1.777958179170139
 21
6.01969504796222
 31
0.0
  0
LINE
  5
76A
330
17
100
AcDbEntity
  8
IMAGE
100
AcDbLine
 10
1.777958179170139
 20
6.044833932699961
 30
0.0
 11
1.777958179170139
 21
6.019695047962223
 31
0.0
  0
LINE
  5
76B
330
17
100
AcDbEntity
  8
IMAGE
100
AcDbLine
 10
1.7628213069878
 20
6.001085743675846
 30
0.0
 11
1.727077230839892
 21
6.001085743675846
 31
0.0
  0
LINE
  5
76C
330
17
100
AcDbEntity
  8
IMAGE
100
AcDbLine
 10
1.740270567716535
 20
6.165631171050136
 30
0.0
 11
1.740270567716535
 21
6.137205754996551
 31
0.0
  0
LINE
  5
76D
330
17
100
AcDbEntity
  8
IMAGE
100
AcDbLine
 10
1.741695038229597
 20
6.165631171050138
 30
0.0
 11
1.741695038229596
 21
6.214603024435344
 31
0.0
  0
LINE
  5
76E
330
17
100
AcDbEntity
  8
IMAGE
100
AcDbLine
 10
1.882038559263227
 20
6.569810797185395
 30
0.0
 11
1.931122278299353
 21
6.167324301089184
 31
0.0
  0
LINE
  5
76F
330
17
100
AcDbEntity
  8
IMAGE
100
AcDbLine
 10
2.128137501097148
 20
6.551353376547844
 30
0.0
 11
2.226577077830724
 21
6.176052490251128
 31
0.0
  0
LINE
  5
770
330
17
100
AcDbEntity
  8
IMAGE
100
AcDbLine
 10
2.169276929112166
 20
6.577684163697447
 30
0.0
 11
2.135049953209972
 21
6.167324301089201
 31
0.0
  0
LINE
  5
771
330
17
100
AcDbEntity
  8
IMAGE
100
AcDbLine
 10
1.831896738076229
 20
6.489749907424254
 30
0.0
 11
2.092548323792963
 21
6.167324301089184
 31
0.0
  0
LINE
  5
772
330
17
100
AcDbEntity
  8
IMAGE
100
AcDbLine
 10
1.981875155421379
 20
6.514438535272764
 30
0.0
 11
2.077051638987843
 21
6.167324301089184
 31
0.0
  0
LINE
  5
773
330
17
100
AcDbEntity
  8
IMAGE
100
AcDbLine
 10
1.803453422591785
 20
6.569810797185395
 30
0.0
 11
1.852537141627909
 21
6.167324301089184
 31
0.0
  0
LINE
  5
774
330
17
100
AcDbEntity
  8
IMAGE
100
AcDbLine
 10
2.090691792440722
 20
6.577684163697447
 30
0.0
 11
2.056464816538528
 21
6.167324301089201
 31
0.0
  0
LINE
  5
775
330
17
100
AcDbEntity
  8
IMAGE
100
AcDbLine
 10
1.788688229330228
 20
6.019695047962223
 30
0.0
 11
1.880448622821022
 21
6.019695047962223
 31
0.0
  0
LINE
  5
776
330
17
100
AcDbEntity
  8
IMAGE
100
AcDbLine
 10
1.880448622821022
 20
6.019695047962223
 30
0.0
 11
1.866062150348925
 21
6.057893093602682
 31
0.0
  0
LINE
  5
777
330
17
100
AcDbEntity
  8
IMAGE
100
AcDbLine
 10
1.781843132873036
 20
6.057893093602682
 30
0.0
 11
1.866062150348925
 21
6.057893093602682
 31
0.0
  0
ARC
  5
778
330
17
100
AcDbEntity
  8
IMAGE
100
AcDbCircle
 10
1.851065510789898
 20
6.044609985786134
 30
0.0
 40
0.0293831120311238
100
AcDbArc
 50
0.0
 51
48.6522227803065
  0
LINE
  5
779
330
17
100
AcDbEntity
  8
IMAGE
100
AcDbLine
 10
1.788688229330228
 20
6.044833932699961
 30
0.0
 11
1.788688229330228
 21
6.019695047962223
 31
0.0
  0
LINE
  5
77A
330
17
100
AcDbEntity
  8
IMAGE
100
AcDbLine
 10
1.870734035228036
 20
6.001085743675846
 30
0.0
 11
1.834818325516448
 21
6.001085743675846
 31
0.0
  0
LINE
  5
77B
330
17
100
AcDbEntity
  8
IMAGE
100
AcDbLine
 10
1.880448622821021
 20
6.019695047962223
 30
0.0
 11
1.788688229330228
 21
6.019695047962223
 31
0.0
  0
LINE
  5
77C
330
17
100
AcDbEntity
  8
IMAGE
100
AcDbLine
 10
2.485680873488055
 20
6.621651291834048
 30
0.0
 11
2.485680873488055
 21
6.167324301089184
 31
0.0
  0
LINE
  5
77D
330
17
100
AcDbEntity
  8
IMAGE
100
AcDbLine
 10
2.705711432859326
 20
6.548372744939716
 30
0.0
 11
2.796912505294372
 21
6.167324301089201
 31
0.0
  0
LINE
  5
77E
330
17
100
AcDbEntity
  8
IMAGE
100
AcDbLine
 10
2.835138297449494
 20
6.592339873076324
 30
0.0
 11
2.632570480885457
 21
6.167324301089184
 31
0.0
  0
LINE
  5
77F
330
17
100
AcDbEntity
  8
IMAGE
100
AcDbLine
 10
2.591228485053875
 20
6.551353376547844
 30
0.0
 11
2.689668061787452
 21
6.176052490251128
 31
0.0
  0
LINE
  5
780
330
17
100
AcDbEntity
  8
IMAGE
100
AcDbLine
 10
2.632367913068893
 20
6.577684163697447
 30
0.0
 11
2.5981409371667
 21
6.167324301089201
 31
0.0
  0
LINE
  5
781
330
17
100
AcDbEntity
  8
IMAGE
100
AcDbLine
 10
2.706053702618339
 20
6.539048429456157
 30
0.0
 11
2.670890609394442
 21
6.167324301089184
 31
0.0
  0
LINE
  5
782
330
17
100
AcDbEntity
  8
IMAGE
100
AcDbLine
 10
2.324600342775759
 20
6.551353376547844
 30
0.0
 11
2.423039919509337
 21
6.176052490251128
 31
0.0
  0
LINE
  5
783
330
17
100
AcDbEntity
  8
IMAGE
100
AcDbLine
 10
2.252583991438687
 20
6.545200903002009
 30
0.0
 11
2.288009922868011
 21
6.167324301089184
 31
0.0
  0
LINE
  5
784
330
17
100
AcDbEntity
  8
IMAGE
100
AcDbLine
 10
2.384065871602414
 20
6.606995582455191
 30
0.0
 11
2.278125231905145
 21
6.167324301089184
 31
0.0
  0
LINE
  5
785
330
17
100
AcDbEntity
  8
IMAGE
100
AcDbLine
 10
2.43908329058121
 20
6.548372744939716
 30
0.0
 11
2.530284363016256
 21
6.167324301089201
 31
0.0
  0
LINE
  5
786
330
17
100
AcDbEntity
  8
IMAGE
100
AcDbLine
 10
2.462651008273857
 20
6.606995582455191
 30
0.0
 11
2.356710368576588
 21
6.167324301089184
 31
0.0
  0
LINE
  5
787
330
17
100
AcDbEntity
  8
IMAGE
100
AcDbLine
 10
2.638675455770881
 20
6.592339873076324
 30
0.0
 11
2.436107639206845
 21
6.167324301089184
 31
0.0
  0
LINE
  5
788
330
17
100
AcDbEntity
  8
IMAGE
100
AcDbLine
 10
2.560090319099437
 20
6.592339873076324
 30
0.0
 11
2.357522502535398
 21
6.167324301089184
 31
0.0
  0
LINE
  5
789
330
17
100
AcDbEntity
  8
IMAGE
100
AcDbLine
 10
0.4828834771268016
 20
6.592339873076324
 30
0.0
 11
0.280315660562767
 21
6.167324301089184
 31
0.0
  0
LINE
  5
78A
330
17
100
AcDbEntity
  8
IMAGE
100
AcDbLine
 10
0.329888894843972
 20
6.621651291834048
 30
0.0
 11
0.329888894843972
 21
6.167324301089184
 31
0.0
  0
LINE
  5
78B
330
17
100
AcDbEntity
  8
IMAGE
100
AcDbLine
 10
0.2832913119371307
 20
6.548372744939716
 30
0.0
 11
0.3744923843721788
 21
6.167324301089201
 31
0.0
  0
LINE
  5
78C
330
17
100
AcDbEntity
  8
IMAGE
100
AcDbLine
 10
0.4765759344248119
 20
6.577684163697447
 30
0.0
 11
0.4423489585226191
 21
6.167324301089201
 31
0.0
  0
LINE
  5
78D
330
17
100
AcDbEntity
  8
IMAGE
100
AcDbLine
 10
3.08919047086753
 20
6.551353376547844
 30
0.0
 11
3.187630047601107
 21
6.176052490251128
 31
0.0
  0
LINE
  5
78E
330
17
100
AcDbEntity
  8
IMAGE
100
AcDbLine
 10
3.226049478796462
 20
6.606995582455191
 30
0.0
 11
3.120108839099193
 21
6.167324301089184
 31
0.0
  0
LINE
  5
78F
330
17
100
AcDbEntity
  8
IMAGE
100
AcDbLine
 10
2.983642859301708
 20
6.621651291834048
 30
0.0
 11
2.983642859301708
 21
6.167324301089184
 31
0.0
  0
LINE
  5
790
330
17
100
AcDbEntity
  8
IMAGE
100
AcDbLine
 10
2.785988360053933
 20
6.621651291834048
 30
0.0
 11
2.785988360053933
 21
6.167324301089184
 31
0.0
  0
LINE
  5
791
330
17
100
AcDbEntity
  8
IMAGE
100
AcDbLine
 10
2.843091529033609
 20
6.569810797185395
 30
0.0
 11
2.892175248069735
 21
6.167324301089184
 31
0.0
  0
LINE
  5
792
330
17
100
AcDbEntity
  8
IMAGE
100
AcDbLine
 10
2.792949707846611
 20
6.489749907424254
 30
0.0
 11
3.053601293563346
 21
6.167324301089184
 31
0.0
  0
LINE
  5
793
330
17
100
AcDbEntity
  8
IMAGE
100
AcDbLine
 10
2.794260112066858
 20
6.545200903002009
 30
0.0
 11
2.829686043496182
 21
6.167324301089184
 31
0.0
  0
LINE
  5
794
330
17
100
AcDbEntity
  8
IMAGE
100
AcDbLine
 10
3.101766439727608
 20
6.592339873076324
 30
0.0
 11
2.899198623163571
 21
6.167324301089184
 31
0.0
  0
LINE
  5
795
330
17
100
AcDbEntity
  8
IMAGE
100
AcDbLine
 10
2.891535971619752
 20
6.551353376547844
 30
0.0
 11
2.98997554835333
 21
6.176052490251128
 31
0.0
  0
LINE
  5
796
330
17
100
AcDbEntity
  8
IMAGE
100
AcDbLine
 10
3.006018919425205
 20
6.548372744939716
 30
0.0
 11
3.097219991860249
 21
6.167324301089201
 31
0.0
  0
LINE
  5
797
330
17
100
AcDbEntity
  8
IMAGE
100
AcDbLine
 10
3.292222097880513
 20
6.545200903002009
 30
0.0
 11
3.327648029309839
 21
6.167324301089184
 31
0.0
  0
LINE
  5
798
330
17
100
AcDbEntity
  8
IMAGE
100
AcDbLine
 10
3.42370397804424
 20
6.606995582455191
 30
0.0
 11
3.317763338346972
 21
6.167324301089184
 31
0.0
  0
LINE
  5
799
330
17
100
AcDbEntity
  8
IMAGE
100
AcDbLine
 10
3.20367341867298
 20
6.548372744939716
 30
0.0
 11
3.294874491108026
 21
6.167324301089201
 31
0.0
  0
LINE
  5
79A
330
17
100
AcDbEntity
  8
IMAGE
100
AcDbLine
 10
3.272989331462333
 20
6.539048429456157
 30
0.0
 11
3.237826238238436
 21
6.167324301089184
 31
0.0
  0
LINE
  5
79B
330
17
100
AcDbEntity
  8
IMAGE
100
AcDbLine
 10
3.402073926293487
 20
6.592339873076324
 30
0.0
 11
3.199506109729449
 21
6.167324301089184
 31
0.0
  0
LINE
  5
79C
330
17
100
AcDbEntity
  8
IMAGE
100
AcDbLine
 10
1.778022612740889
 20
4.023928783003783
 30
0.0
 11
1.280944734379865
 21
4.023928783003783
 31
0.0
  0
ARC
  5
79D
330
17
100
AcDbEntity
  8
IMAGE
100
AcDbCircle
 10
1.280944734379865
 20
4.065956173908828
 30
0.0
 40
0.0420273909050456
100
AcDbArc
 50
180.0
 51
270.0
  0
ARC
  5
79E
330
17
100
AcDbEntity
  8
IMAGE
100
AcDbCircle
 10
1.778022612740889
 20
4.065956173908828
 30
0.0
 40
0.0420273909050456
100
AcDbArc
 50
270.0
 51
0.0
  0
INSERT
  5
7B3
330
17
100
AcDbEntity
  8
TITLE
100
AcDbBlockReference
 66
     1
  2
titleblock
 10
-0.8865804171450299
 20
-1.229722472328506
 30
0.0
  0
ATTRIB
  5
7B4
330
7B3
100
AcDbEntity
  8
TITLE
100
AcDbText
 10
-0.3810248133426858
 20
-0.4454953758501399
 30
0.0
 40
0.2
  1
D
  7
L200
 72
     4
 11
-0.2801380466305439
 21
-0.3454953758501398
 31
0.0
100
AcDbAttribute
  2
D
 70
     0
  0
ATTRIB
  5
7B5
330
7B3
100
AcDbEntity
  8
TITLE
100
AcDbText
 10
0.3448619533694561
 20
0.1139898304182434
 30
0.0
 40
0.2
  1

  7
L200
100
AcDbAttribute
  2
TITLE1
 70
     0
  0
ATTRIB
  5
7B6
330
7B3
100
AcDbEntity
  8
TITLE
100
AcDbText
 10
0.3448619533694561
 20
-0.2454953758501397
 30
0.0
 40
0.2
  1
ROTOR POP-UP SPRINKLER
  7
L200
100
AcDbAttribute
  2
TITLE2
 70
     0
  0
ATTRIB
  5
7B7
330
7B3
100
AcDbEntity
  8
TITLE
100
AcDbText
 10
1.827065334023284
 20
-0.6369297058701882
 30
0.0
 40
0.2
  1
3504 WITH SWING PIPE
  7
L200
100
AcDbAttribute
  2
TITLE3
 70
     0
  0
ATTRIB
  5
7B8
330
7B3
100
AcDbEntity
  8
TITLE
100
AcDbText
 10
1.827065334023284
 20
-0.9604663915117328
 30
0.0
 40
0.2
  1

  7
L200
100
AcDbAttribute
  2
TITLE4
 70
     0
  0
ATTRIB
  5
7B9
330
7B3
100
AcDbEntity
  8
TITLE
 62
     7
100
AcDbText
 10
6.803015365202304
 20
-0.2601196807838673
 30
0.0
 40
0.08
  1
1-30-04
  7
L80
 72
     2
 11
7.374443936630875
 21
-0.2601196807838673
 31
0.0
100
AcDbAttribute
  2
REVISED
 70
     0
  0
ATTRIB
  5
7BA
330
7B3
100
AcDbEntity
  8
TITLE
 62
     7
100
AcDbText
 10
-0.622638046630545
 20
-1.145010824307785
 30
0.0
 40
0.08
  1
R-3504-SP.DWG
  7
L80
100
AcDbAttribute
  2
DWG-NAME
 70
     0
  0
ATTRIB
  5
7BB
330
7B3
100
AcDbEntity
  8
TITLE
 62
     7
100
AcDbText
 10
0.3448619533694561
 20
-0.5291586929330176
 30
0.0
 40
0.1
  1
N.T.S.
  7
L100
100
AcDbAttribute
  2
SCALE
 70
     0
  0
SEQEND
  5
7BC
330
7B3
100
AcDbEntity
  8
0
  0
TEXT
  5
7F5
330
17
100
AcDbEntity
  8
IMAGE
100
AcDbText
 10
0.30783809
 20
0.86003099
 30
0.0
 40
0.125
  1
FOR FLOWS ABOVE 4 GPM USE A SWING JOINT INSTEAD OF
  7
ROMANS
100
AcDbText
  0
TEXT
  5
7F6
330
17
100
AcDbEntity
  8
IMAGE
100
AcDbText
 10
0.30783809
 20
1.03503099
 30
0.0
 40
0.125
  1

  7
ROMANS
100
AcDbText
  0
TEXT
  5
7F9
330
17
100
AcDbEntity
  8
IMAGE
100
AcDbText
 10
0.3078380873718418
 20
1.210030991925711
 30
0.0
 40
0.125
  1
NOTE:
  7
ROMANS
100
AcDbText
  0
TEXT
  5
7FA
330
17
100
AcDbEntity
  8
IMAGE
100
AcDbText
 10
0.30783809
 20
0.68503099
 30
0.0
 40
0.125
  1
SWING PIPE OR SWING ASSEMBLY.
  7
ROMANS
100
AcDbText
  0
TEXT
  5
818
330
17
100
AcDbEntity
  8
INSTRUCT-OPTION
100
AcDbText
 10
9.574584192350522
 20
5.210876206662117
 30
0.0
 40
0.1250000018625002
  1
%%U3504-PC-SAM
  7
ROMANS
100
AcDbText
  0
TEXT
  5
819
330
17
100
AcDbEntity
  8
INSTRUCT-OPTION
100
AcDbText
 10
9.574584192350522
 20
4.981488915132912
 30
0.0
 40
0.1250000018625002
  1
  OPTION-3504-PC-SAM
  7
ROMANS
100
AcDbText
  0
TEXT
  5
81A
330
17
100
AcDbEntity
  8
INSTRUCT-OPTION
100
AcDbText
 10
12.55769866716809
 20
5.628028110760242
 30
0.0
 40
0.1250000018625002
  1
  OPTION-3504-PC-SAM-N
  7
ROMANS
100
AcDbText
  0
TEXT
  5
81B
330
17
100
AcDbEntity
  8
INSTRUCT-OPTION
100
AcDbText
 10
9.574584192350522
 20
5.644901158888723
 30
0.0
 40
0.1250000018625002
  1
  OPTION-3504-PC
  7
ROMANS
100
AcDbText
  0
TEXT
  5
81C
330
17
100
AcDbEntity
  8
INSTRUCT-OPTION
100
AcDbText
 10
12.55769866716809
 20
4.958550183362978
 30
0.0
 40
0.1250000018625002
  1
  OPTION-3504-PC-N
  7
ROMANS
100
AcDbText
  0
TEXT
  5
81D
330
17
100
AcDbEntity
  8
INSTRUCT-OPTION
100
AcDbText
 10
12.54622514683791
 20
5.857415402289449
 30
0.0
 40
0.1250000018625002
  1
%%U3504-PC-SAM W/ N COVER
  7
ROMANS
100
AcDbText
  0
TEXT
  5
81E
330
17
100
AcDbEntity
  8
INSTRUCT-OPTION
100
AcDbText
 10
9.574584192350522
 20
5.874288450417928
 30
0.0
 40
0.1250000018625002
  1
%%U3504-PC
  7
ROMANS
100
AcDbText
  0
TEXT
  5
81F
330
17
100
AcDbEntity
  8
INSTRUCT-OPTION
100
AcDbText
 10
12.54622514683791
 20
5.210876206662117
 30
0.0
 40
0.1250000018625002
  1
%%U3504-PC W/ N COVER
  7
ROMANS
100
AcDbText
  0
TEXT
  5
82F
330
17
100
AcDbEntity
  8
INSTRUCT-OPTION
100
AcDbText
 10
9.574584192350522
 20
4.504447188061194
 30
0.0
 40
0.125
  1
CHOOSE A DIFFERENT SWING ASSEMBLY 
  7
ROMANS
100
AcDbText
  0
TEXT
  5
830
330
17
100
AcDbEntity
  8
INSTRUCT-OPTION
100
AcDbText
 10
9.574584192350522
 20
4.329447188061194
 30
0.0
 40
0.125
  1
BY TURNING ON THE APPROPRIATE LAYERS:
  7
ROMANS
100
AcDbText
  0
TEXT
  5
835
330
17
100
AcDbEntity
  8
OPTION-4504-PC
100
AcDbText
 10
4.833186445900254
 20
5.494225120117109
 30
0.0
 40
0.125
  1
  3504-PC
  7
ROMANS
100
AcDbText
  0
ENDSEC
  0
SECTION
  2
OBJECTS
  0
DICTIONARY
  5
C
330
0
100
AcDbDictionary
281
     1
  3
ACAD_GROUP
350
D
  3
ACAD_LAYOUT
350
6AA
  3
ACAD_MLINESTYLE
350
1A
  3
ACAD_PLOTSETTINGS
350
6AB
  3
ACAD_PLOTSTYLENAME
350
6A8
  3
ACDBVARIABLEDICTIONARY
350
30
  0
DICTIONARY
  5
6BA
330
2
100
AcDbDictionary
280
     1
281
     1
  3
ACAD_LAYERFILTERS
360
6DE
  3
ACAD_LAYERSTATES
360
6BB
  0
DICTIONARY
  5
D
102
{ACAD_REACTORS
330
C
102
}
330
C
100
AcDbDictionary
281
     1
  0
DICTIONARY
  5
6AA
102
{ACAD_REACTORS
330
C
102
}
330
C
100
AcDbDictionary
281
     1
  3
Layout1
350
6AD
  3
Model
350
6AC
  0
DICTIONARY
  5
1A
102
{ACAD_REACTORS
330
C
102
}
330
C
100
AcDbDictionary
281
     1
  3
STANDARD
350
1B
  0
DICTIONARY
  5
6AB
102
{ACAD_REACTORS
330
C
102
}
330
C
100
AcDbDictionary
281
     1
  3
1055 B&W Full Shaded Draft
350
7BE
  3
1055 B&W Full Shaded Final
350
7BF
  3
1055 Color Full Shaded Draft
350
7C0
  3
1055 Color Full Shaded Final
350
7C1
  3
1055 PLUS B&W Full Shaded Draft
350
7C2
  3
1055 PLUS B&W Full Shaded Final
350
7C3
  3
1055 PLUS Color Full Shaded Draft
350
7C4
  3
1055 PLUS Color Full Shaded Final
350
7C5
  3
1055-B&W-Shaded-Draft
350
7C6
  3
1055-B&W-Shaded-Final
350
7C7
  3
1055-Color-Shaded-Draft
350
7C8
  3
1055-Color-Shaded-Final
350
7C9
  3
1055-PLUS-B&W-Shaded-Draft
350
7CA
  3
1055-PLUS-B&W-Shaded-Final
350
7CB
  3
1055-PLUS-Color-Shaded-Draft
350
7CC
  3
1055-PLUS-Color-Shaded-Final
350
7CD
  3
2200 Color Inkjet
350
7CE
  3
2200-Color-Inkjet
350
7CF
  3
24x36 PDF
350
7D0
  3
8500 B&W Shaded 11x17
350
7D1
  3
8500 B&W Shaded 8.5x11
350
7D2
  3
8500 Color Shaded 11x17
350
7D3
  3
8500 Color Shaded 8.5x11
350
7D4
  3
8500-B&W-Shaded-11x17
350
7D5
  3
8500-B&W-Shaded-8.5x11
350
7D6
  3
8500-Color-Shaded-11x17
350
7D7
  3
8500-Color-Shaded-8.5x11
350
7D8
  3
Laser Jet 5 Shaded 11x17
350
7D9
  3
Laser Jet 5 Shaded 8.5x11
350
7DA
  3
LaserJet5-Shaded-11x17
350
7DB
  3
LaserJet5-Shaded-8.5x11
350
7DC
  3
Oki Doki B&W Shaded 11x17
350
7DD
  3
Oki Doki B&W Shaded 8.5x11
350
7DE
  3
Oki Doki Color Laser
350
7DF
  3
Oki Doki Color Shaded 11x17
350
7E0
  3
Oki Doki Color Shaded 8.5x11
350
7E1
  3
Oki-Doki-B&W-Shaded-11x17
350
7E2
  3
Oki-Doki-B&W-Shaded-8.5x11
350
7E3
  3
Oki-Doki-Color-Laser
350
7E4
  3
Oki-Doki-Color-Shaded-11x17
350
7E5
  3
Oki-Doki-Color-Shaded-8.5x11
350
7E6
  0
ACDBDICTIONARYWDFLT
  5
6A8
102
{ACAD_REACTORS
330
C
102
}
330
C
100
AcDbDictionary
281
     1
  3
Normal
350
6A9
100
AcDbDictionaryWithDefault
340
6A9
  0
DICTIONARY
  5
30
102
{ACAD_REACTORS
330
C
102
}
330
C
100
AcDbDictionary
281
     1
  3
DIMADEC
350
31
  3
DIMASSOC
350
6B3
  3
SORTENTS
350
365
  0
DICTIONARY
  5
6DE
102
{ACAD_REACTORS
330
6BA
102
}
330
6BA
100
AcDbDictionary
280
     1
281
     1
  0
DICTIONARY
  5
6BB
102
{ACAD_REACTORS
330
6BA
102
}
330
6BA
100
AcDbDictionary
281
     1
  0
LAYOUT
  5
6AD
102
{ACAD_REACTORS
330
6AA
102
}
330
6AA
100
AcDbPlotSettings
  1

  2
S:\AutoCAD 2002\Plotters\1055B&WDraftShaded.pc3
  4

  6

 40
0.0
 41
0.0
 42
0.0
 43
0.0
 44
0.0
 45
0.0
 46
0.0
 47
0.0
 48
0.0
 49
0.0
140
0.0
141
0.0
142
1.0
143
1.0
 70
   688
 72
     0
 73
     0
 74
     5
  7
TRexLJ5Shaded2.ctb
 75
    16
147
1.0
148
0.0
149
0.0
100
AcDbLayout
  1
Layout1
 70
     1
 71
     1
 10
0.0
 20
0.0
 11
12.0
 21
9.0
 12
0.0
 22
0.0
 32
0.0
 14
1.000000000000000E+20
 24
1.000000000000000E+20
 34
1.000000000000000E+20
 15
-1.000000000000000E+20
 25
-1.000000000000000E+20
 35
-1.000000000000000E+20
146
0.0
 13
0.0
 23
0.0
 33
0.0
 16
1.0
 26
0.0
 36
0.0
 17
0.0
 27
1.0
 37
0.0
 76
     0
330
14
  0
LAYOUT
  5
6AC
102
{ACAD_REACTORS
330
6AA
102
}
330
6AA
100
AcDbPlotSettings
  1

  2
8500ColorShaded.pc3
  4
11x17
  6

 40
5.027083396911621
 41
5.027085304260253
 42
5.027099609375
 43
5.027069091796875
 44
279.3999938964843
 45
431.7999877929687
 46
1.27
 47
0.0
 48
180360.0524337165
 49
80033.77936194791
140
180369.1574725906
141
80037.61796031875
142
1.0
143
0.9931242156595709
 70
 28340
 72
     0
 73
     1
 74
     1
  7
8500ColorShaded.ctb
 75
     0
147
1.006923388063659
148
22.51914259548376
149
31.23495079714407
100
AcDbLayout
  1
Model
 70
     1
 71
     0
 10
0.0
 20
0.0
 11
12.0
 21
9.0
 12
0.0
 22
0.0
 32
0.0
 14
0.0
 24
0.0
 34
0.0
 15
0.0
 25
0.0
 35
0.0
146
0.0
 13
0.0
 23
0.0
 33
0.0
 16
1.0
 26
0.0
 36
0.0
 17
0.0
 27
1.0
 37
0.0
 76
     0
330
17
  0
MLINESTYLE
  5
1B
102
{ACAD_REACTORS
330
1A
102
}
330
1A
100
AcDbMlineStyle
  2
STANDARD
 70
     0
  3

 62
   256
 51
90.0
 52
90.0
 71
     2
 49
0.5
 62
   256
  6
BYLAYER
 49
-0.5
 62
   256
  6
BYLAYER
  0
PLOTSETTINGS
  5
7BE
102
{ACAD_REACTORS
330
6AB
102
}
330
6AB
100
AcDbPlotSettings
  1
1055 B&W Full Shaded Draft
  2
1055B&WDraftShaded.pc3
  4
User607
  6
ps1
 40
0.0
 41
0.0
 42
0.0
 43
0.0
 44
901.7000122070312
 45
1155.700073242187
 46
0.0
 47
0.0
 48
180377.877572
 49
80019.819395
140
180380.8390819999
141
80022.26069
142
1.0
143
1.0
 70
   688
 72
     0
 73
     2
 74
     3
  7
1055B&WFullDraftShaded.ctb
 75
    16
147
1.0
148
-4581603.303200401
149
-2032962.095032944
  0
PLOTSETTINGS
  5
7BF
102
{ACAD_REACTORS
330
6AB
102
}
330
6AB
100
AcDbPlotSettings
  1
1055 B&W Full Shaded Final
  2
1055B&WFinalShaded.pc3
  4
User257
  6
PS1
 40
4.995333194732666
 41
8.297271728515625
 42
4.99530029296875
 43
8.29736328125
 44
911.6906738281249
 45
1172.294677734375
 46
0.0
 47
0.0
 48
180377.877572
 49
80019.819395
140
180380.8390819999
141
80022.26069
142
1.0
143
1.0
 70
   688
 72
     0
 73
     3
 74
     3
  7
1055B&WFullFinalShaded.ctb
 75
    16
147
1.0
148
-4581603.303200401
149
-2032962.095032944
  0
PLOTSETTINGS
  5
7C0
102
{ACAD_REACTORS
330
6AB
102
}
330
6AB
100
AcDbPlotSettings
  1
1055 Color Full Shaded Draft
  2
1055ColorDraftShaded.pc3
  4
User607
  6
PS1
 40
0.0
 41
0.0
 42
0.0
 43
0.0
 44
901.7000122070312
 45
1155.700073242187
 46
0.0
 47
0.0
 48
180377.877572
 49
80019.819395
140
180380.8390819999
141
80022.26069
142
1.0
143
1.0
 70
   688
 72
     0
 73
     2
 74
     3
  7
1055ColorFullDraftShaded.ctb
 75
    16
147
1.0
148
-4581603.303200401
149
-2032962.095032944
  0
PLOTSETTINGS
  5
7C1
102
{ACAD_REACTORS
330
6AB
102
}
330
6AB
100
AcDbPlotSettings
  1
1055 Color Full Shaded Final
  2
1055ColorFinalShaded.pc3
  4
User607
  6
PS1
 40
0.0
 41
0.0
 42
0.0
 43
0.0
 44
901.7000122070312
 45
1155.700073242187
 46
0.0
 47
0.0
 48
180377.877572
 49
80019.819395
140
180380.8390819999
141
80022.26069
142
1.0
143
1.0
 70
   688
 72
     0
 73
     2
 74
     3
  7
1055ColorFullFinalShaded.ctb
 75
    16
147
1.0
148
-4581603.303200401
149
-2032962.095032944
  0
PLOTSETTINGS
  5
7C2
102
{ACAD_REACTORS
330
6AB
102
}
330
6AB
100
AcDbPlotSettings
  1
1055 PLUS B&W Full Shaded Draft
  2
1055_PLUS_B&WDraftShaded.pc3
  4
User257
  6
ps1
 40
4.995333194732666
 41
8.297393798828125
 42
4.99530029296875
 43
8.29736328125
 44
901.6152954101562
 45
1155.615356445312
 46
0.0
 47
0.0
 48
180377.877572
 49
80019.819395
140
180380.8390819999
141
80022.26069
142
1.0
143
1.0
 70
   688
 72
     0
 73
     3
 74
     5
  7
1055B&WFullDraftShaded.ctb
 75
    16
147
1.0
148
-4581603.303200401
149
-2032962.095032944
  0
PLOTSETTINGS
  5
7C3
102
{ACAD_REACTORS
330
6AB
102
}
330
6AB
100
AcDbPlotSettings
  1
1055 PLUS B&W Full Shaded Final
  2
1055_PLUS_B&WFinalShaded.pc3
  4
User257
  6
PS1
 40
4.995333194732666
 41
8.297271728515625
 42
4.99530029296875
 43
8.29736328125
 44
901.6576538085937
 45
1155.657592773437
 46
0.0
 47
0.0
 48
180377.877572
 49
80019.819395
140
180380.8390819999
141
80022.26069
142
1.0
143
1.0
 70
   688
 72
     0
 73
     3
 74
     5
  7
1055B&WFullFinalShaded.ctb
 75
    16
147
1.0
148
-4581603.303200401
149
-2032962.095032944
  0
PLOTSETTINGS
  5
7C4
102
{ACAD_REACTORS
330
6AB
102
}
330
6AB
100
AcDbPlotSettings
  1
1055 PLUS Color Full Shaded Draft
  2
1055_PLUS_ColorDraftShaded.pc3
  4
User257
  6
PS1
 40
4.995333194732666
 41
8.297393798828125
 42
4.99530029296875
 43
8.29736328125
 44
901.6152954101562
 45
1155.615356445312
 46
0.0
 47
0.0
 48
180377.877572
 49
80019.819395
140
180380.8390819999
141
80022.26069
142
1.0
143
1.0
 70
   688
 72
     0
 73
     3
 74
     5
  7
1055ColorFullDraftShaded.ctb
 75
    16
147
1.0
148
-4581603.303200401
149
-2032962.095032944
  0
PLOTSETTINGS
  5
7C5
102
{ACAD_REACTORS
330
6AB
102
}
330
6AB
100
AcDbPlotSettings
  1
1055 PLUS Color Full Shaded Final
  2
1055_PLUS_ColorFinalShaded.pc3
  4
User257
  6
PS1
 40
4.995333194732666
 41
8.297271728515625
 42
4.99530029296875
 43
8.29736328125
 44
901.6576538085937
 45
1155.657592773437
 46
0.0
 47
0.0
 48
180377.877572
 49
80019.819395
140
180380.8390819999
141
80022.26069
142
1.0
143
1.0
 70
   688
 72
     0
 73
     3
 74
     5
  7
1055ColorFullFinalShaded.ctb
 75
    16
147
1.0
148
-4581603.303200401
149
-2032962.095032944
  0
PLOTSETTINGS
  5
7C6
102
{ACAD_REACTORS
330
6AB
102
}
330
6AB
100
AcDbPlotSettings
  1
1055-B&W-Shaded-Draft
  2
1055B&WDraftShaded.pc3
  4
User257
  6

 40
4.995333194732666
 41
8.297393798828125
 42
4.99530029296875
 43
8.29736328125
 44
901.6152954101562
 45
1155.615356445312
 46
0.0
 47
0.0
 48
180360.0524337165
 49
80033.77936194791
140
180369.1574725906
141
80037.61796031875
142
1.0
143
30.0
 70
  1696
 72
     0
 73
     1
 74
     1
  7
1055B&WFullDraftShaded.ctb
 75
     0
147
0.0333333333333333
148
-190.0773302744904
149
-129.2444057835751
  0
PLOTSETTINGS
  5
7C7
102
{ACAD_REACTORS
330
6AB
102
}
330
6AB
100
AcDbPlotSettings
  1
1055-B&W-Shaded-Final
  2
1055B&WFinalShaded.pc3
  4
User607
  6

 40
0.0
 41
0.0
 42
0.0
 43
0.0
 44
901.7000122070312
 45
1155.700073242187
 46
0.0
 47
0.0
 48
180360.0524337165
 49
80033.77936194791
140
180369.1574725906
141
80037.61796031875
142
1.0
143
30.0
 70
  1696
 72
     0
 73
     1
 74
     1
  7
1055B&WFullFinalShaded.ctb
 75
     0
147
0.0333333333333333
148
-190.0773302744904
149
-129.2444057835751
  0
PLOTSETTINGS
  5
7C8
102
{ACAD_REACTORS
330
6AB
102
}
330
6AB
100
AcDbPlotSettings
  1
1055-Color-Shaded-Draft
  2
1055ColorDraftShaded.pc3
  4
User257
  6

 40
4.995333194732666
 41
8.297393798828125
 42
4.99530029296875
 43
8.29736328125
 44
901.6152954101562
 45
1155.615356445312
 46
0.0
 47
0.0
 48
180360.0524337165
 49
80033.77936194791
140
180369.1574725906
141
80037.61796031875
142
1.0
143
30.0
 70
  1696
 72
     0
 73
     1
 74
     1
  7
1055ColorFullDraftShaded.ctb
 75
     0
147
0.0333333333333333
148
-190.0773302744904
149
-129.2444057835751
  0
PLOTSETTINGS
  5
7C9
102
{ACAD_REACTORS
330
6AB
102
}
330
6AB
100
AcDbPlotSettings
  1
1055-Color-Shaded-Final
  2
1055ColorDraftShaded.pc3
  4
User257
  6

 40
4.995333194732666
 41
8.297393798828125
 42
4.99530029296875
 43
8.29736328125
 44
901.6152954101562
 45
1155.615356445312
 46
0.0
 47
0.0
 48
180360.0524337165
 49
80033.77936194791
140
180369.1574725906
141
80037.61796031875
142
1.0
143
30.0
 70
  1696
 72
     0
 73
     1
 74
     1
  7
1055ColorFullFinalShaded.ctb
 75
     0
147
0.0333333333333333
148
-190.0773302744904
149
-129.2444057835751
  0
PLOTSETTINGS
  5
7CA
102
{ACAD_REACTORS
330
6AB
102
}
330
6AB
100
AcDbPlotSettings
  1
1055-PLUS-B&W-Shaded-Draft
  2
1055_PLUS_B&WDraftShaded.pc3
  4
User257
  6

 40
4.995333194732666
 41
8.297393798828125
 42
4.99530029296875
 43
8.29736328125
 44
901.6152954101562
 45
1155.615356445312
 46
0.0
 47
0.0
 48
180360.0524337165
 49
80033.77936194791
140
180369.1574725906
141
80037.61796031875
142
1.0
143
30.0
 70
  1696
 72
     0
 73
     1
 74
     0
  7
1055B&WFullDraftShaded.ctb
 75
     0
147
0.0333333333333333
148
0.9506237099442845
149
8.593888772447144
  0
PLOTSETTINGS
  5
7CB
102
{ACAD_REACTORS
330
6AB
102
}
330
6AB
100
AcDbPlotSettings
  1
1055-PLUS-B&W-Shaded-Final
  2
1055_PLUS_B&WFinalShaded.pc3
  4
User257
  6

 40
4.995333194732666
 41
8.297271728515625
 42
4.99530029296875
 43
8.29736328125
 44
901.6576538085937
 45
1155.657592773437
 46
0.0
 47
0.0
 48
180360.0524337165
 49
80033.77936194791
140
180369.1574725906
141
80037.61796031875
142
1.0
143
30.0
 70
  1696
 72
     0
 73
     1
 74
     0
  7
1055B&WFullFinalShaded.ctb
 75
     0
147
0.0333333333333333
148
0.9506237099442845
149
8.593888772447144
  0
PLOTSETTINGS
  5
7CC
102
{ACAD_REACTORS
330
6AB
102
}
330
6AB
100
AcDbPlotSettings
  1
1055-PLUS-Color-Shaded-Draft
  2
1055_PLUS_ColorDraftShaded.pc3
  4
User257
  6

 40
4.995333194732666
 41
8.297393798828125
 42
4.99530029296875
 43
8.29736328125
 44
901.6152954101562
 45
1155.615356445312
 46
0.0
 47
0.0
 48
180360.0524337165
 49
80033.77936194791
140
180369.1574725906
141
80037.61796031875
142
1.0
143
30.0
 70
  1696
 72
     0
 73
     1
 74
     0
  7
1055ColorFullDraftShaded.ctb
 75
     0
147
0.0333333333333333
148
0.9506237099442845
149
8.593888772447144
  0
PLOTSETTINGS
  5
7CD
102
{ACAD_REACTORS
330
6AB
102
}
330
6AB
100
AcDbPlotSettings
  1
1055-PLUS-Color-Shaded-Final
  2
1055_PLUS_ColorFinalShaded.pc3
  4
User257
  6

 40
4.995333194732666
 41
8.297271728515625
 42
4.99530029296875
 43
8.29736328125
 44
901.6576538085937
 45
1155.657592773437
 46
0.0
 47
0.0
 48
180360.0524337165
 49
80033.77936194791
140
180369.1574725906
141
80037.61796031875
142
1.0
143
30.0
 70
  1696
 72
     0
 73
     1
 74
     0
  7
1055ColorFullFinalShaded.ctb
 75
     0
147
0.0333333333333333
148
0.9506237099442845
149
8.593888772447144
  0
PLOTSETTINGS
  5
7CE
102
{ACAD_REACTORS
330
6AB
102
}
330
6AB
100
AcDbPlotSettings
  1
2200 Color Inkjet
  2
HP  2200 Color Inkjet.pc3
  4
Letter
  6
PS1
 40
7.143749713897705
 41
12.47775650024414
 42
7.14373779296875
 43
3.17498779296875
 44
215.8999938964843
 45
279.3999938964843
 46
0.0
 47
0.0
 48
180377.877572
 49
80019.819395
140
180380.8390819999
141
80022.26069
142
1.0
143
0.3486331030131726
 70
   688
 72
     0
 73
     1
 74
     3
  7
Color.ctb
 75
     0
147
2.868344948764708
148
-4581603.303200401
149
-2032962.095032944
  0
PLOTSETTINGS
  5
7CF
102
{ACAD_REACTORS
330
6AB
102
}
330
6AB
100
AcDbPlotSettings
  1
2200-Color-Inkjet
  2
HP  2200 Color Inkjet.pc3
  4
Letter
  6

 40
7.143749713897705
 41
12.47775650024414
 42
7.14373779296875
 43
3.17498779296875
 44
215.8999938964843
 45
279.3999938964843
 46
0.0
 47
0.0
 48
180360.0524337165
 49
80033.77936194791
140
180369.1574725906
141
80037.61796031875
142
1.0
143
0.069393053089765
 70
  1712
 72
     0
 73
     1
 74
     1
  7
Color.ctb
 75
     0
147
14.41066440334347
148
-190.0773302744904
149
-129.2444057835751
  0
PLOTSETTINGS
  5
7D0
102
{ACAD_REACTORS
330
6AB
102
}
330
6AB
100
AcDbPlotSettings
  1
24x36 PDF
  2
Bluebeam PDF Printer.pc3
  4
User128
  6
PS1
 40
3.174999952316284
 41
3.174999952316284
 42
3.17498779296875
 43
3.17498779296875
 44
609.5999755859375
 45
914.3999633789062
 46
270.5099999999999
 47
416.3059999999999
 48
180377.877572
 49
80019.819395
140
180380.8390819999
141
80022.26069
142
1.0
143
1.0
 70
   692
 72
     0
 73
     1
 74
     4
  7
1055B&WFullDraftShaded.ctb
 75
    16
147
1.0
148
-4581598.0903288
149
-2032503.412632999
  0
PLOTSETTINGS
  5
7D1
102
{ACAD_REACTORS
330
6AB
102
}
330
6AB
100
AcDbPlotSettings
  1
8500 B&W Shaded 11x17
  2
8500B&WShaded.pc3
  4
11x17
  6
PS1
 40
5.027083396911621
 41
5.027085304260253
 42
5.027099609375
 43
5.027069091796875
 44
279.3999938964843
 45
431.7999877929687
 46
0.0
 47
92.964
 48
180377.877572
 49
80019.819395
140
180380.8390819999
141
80022.26069
142
1.0
143
0.0116192543742624
 70
   692
 72
     0
 73
     1
 74
     3
  7
8500B&WShaded.ctb
 75
     0
147
86.06404230335863
148
-4581651.879813895
149
-2032998.63613423
  0
PLOTSETTINGS
  5
7D2
102
{ACAD_REACTORS
330
6AB
102
}
330
6AB
100
AcDbPlotSettings
  1
8500 B&W Shaded 8.5x11
  2
8500B&WShaded.pc3
  4
Letter
  6
PS1
 40
5.027083396911621
 41
5.027085304260253
 42
5.027084350585937
 43
5.027069091796875
 44
215.8999938964843
 45
279.3999938964843
 46
0.0
 47
44.44999999999999
 48
180377.877572
 49
80019.819395
140
180380.8390819999
141
80022.26069
142
1.0
143
0.0152035994604527
 70
   692
 72
     0
 73
     1
 74
     3
  7
8500B&WShaded.ctb
 75
     0
147
65.77389799048455
148
-4581651.879813895
149
-2032998.63613423
  0
PLOTSETTINGS
  5
7D3
102
{ACAD_REACTORS
330
6AB
102
}
330
6AB
100
AcDbPlotSettings
  1
8500 Color Shaded 11x17
  2
8500ColorShaded.pc3
  4
11x17
  6
PS1
 40
5.027083396911621
 41
5.027085304260253
 42
5.027099609375
 43
5.027069091796875
 44
279.3999938964843
 45
431.7999877929687
 46
0.0
 47
92.964
 48
180377.877572
 49
80019.819395
140
180380.8390819999
141
80022.26069
142
1.0
143
0.0116192543742624
 70
   692
 72
     0
 73
     1
 74
     3
  7
8500ColorShaded.ctb
 75
     0
147
86.06404230335863
148
-4581651.879813895
149
-2032998.63613423
  0
PLOTSETTINGS
  5
7D4
102
{ACAD_REACTORS
330
6AB
102
}
330
6AB
100
AcDbPlotSettings
  1
8500 Color Shaded 8.5x11
  2
8500ColorShaded.pc3
  4
Letter
  6
PS1
 40
5.027083396911621
 41
5.027085304260253
 42
5.027084350585937
 43
5.027069091796875
 44
215.8999938964843
 45
279.3999938964843
 46
0.0
 47
44.44999999999999
 48
180377.877572
 49
80019.819395
140
180380.8390819999
141
80022.26069
142
1.0
143
0.0152035994604527
 70
   692
 72
     0
 73
     1
 74
     3
  7
8500ColorShaded.ctb
 75
     0
147
65.77389799048455
148
-4581651.879813895
149
-2032998.63613423
  0
PLOTSETTINGS
  5
7D5
102
{ACAD_REACTORS
330
6AB
102
}
330
6AB
100
AcDbPlotSettings
  1
8500-B&W-Shaded-11x17
  2
8500B&WShaded.pc3
  4
11x17
  6

 40
5.027083396911621
 41
5.027085304260253
 42
5.027099609375
 43
5.027069091796875
 44
279.3999938964843
 45
431.7999877929687
 46
0.0
 47
0.0
 48
180360.0524337165
 49
80033.77936194791
140
180369.1574725906
141
80037.61796031875
142
1.0
143
0.0519425466957002
 70
  1712
 72
     0
 73
     1
 74
     1
  7
8500B&WShaded.ctb
 75
     0
147
19.252040256293
148
-190.0773302744904
149
-129.2444057835751
  0
PLOTSETTINGS
  5
7D6
102
{ACAD_REACTORS
330
6AB
102
}
330
6AB
100
AcDbPlotSettings
  1
8500-B&W-Shaded-8.5x11
  2
8500B&WShaded.pc3
  4
Letter
  6

 40
5.027083396911621
 41
5.027085304260253
 42
5.027084350585937
 43
5.027069091796875
 44
215.8999938964843
 45
279.3999938964843
 46
0.0
 47
0.0
 48
180360.0524337165
 49
80033.77936194791
140
180369.1574725906
141
80037.61796031875
142
1.0
143
0.0679659511256221
 70
  1712
 72
     0
 73
     1
 74
     1
  7
8500B&WShaded.ctb
 75
     0
147
14.71324955273106
148
-190.0773302744904
149
-129.2444057835751
  0
PLOTSETTINGS
  5
7D7
102
{ACAD_REACTORS
330
6AB
102
}
330
6AB
100
AcDbPlotSettings
  1
8500-Color-Shaded-11x17
  2
8500ColorShaded.pc3
  4
11x17
  6

 40
5.027083396911621
 41
5.027085304260253
 42
5.027099609375
 43
5.027069091796875
 44
279.3999938964843
 45
431.7999877929687
 46
0.0
 47
0.0
 48
180360.0524337165
 49
80033.77936194791
140
180369.1574725906
141
80037.61796031875
142
1.0
143
0.0519425466957002
 70
  1712
 72
     0
 73
     1
 74
     1
  7
8500ColorShaded.ctb
 75
     0
147
19.252040256293
148
-190.0773302744904
149
-129.2444057835751
  0
PLOTSETTINGS
  5
7D8
102
{ACAD_REACTORS
330
6AB
102
}
330
6AB
100
AcDbPlotSettings
  1
8500-Color-Shaded-8.5x11
  2
8500ColorShaded.pc3
  4
Letter
  6

 40
5.027083396911621
 41
5.027085304260253
 42
5.027084350585937
 43
5.027069091796875
 44
215.8999938964843
 45
279.3999938964843
 46
0.0
 47
0.0
 48
180360.0524337165
 49
80033.77936194791
140
180369.1574725906
141
80037.61796031875
142
1.0
143
0.0679659511256221
 70
  1712
 72
     0
 73
     1
 74
     1
  7
8500ColorShaded.ctb
 75
     0
147
14.71324955273106
148
-190.0773302744904
149
-129.2444057835751
  0
PLOTSETTINGS
  5
7D9
102
{ACAD_REACTORS
330
6AB
102
}
330
6AB
100
AcDbPlotSettings
  1
Laser Jet 5 Shaded 11x17
  2
LaserJet5Shaded.pc3
  4
11x17
  6
PS1
 40
7.143749713897705
 41
5.873736858367919
 42
7.143768310546875
 43
7.14373779296875
 44
279.3999938964843
 45
431.7999877929687
 46
0.0
 47
29.71799999999999
 48
180377.877572
 49
80019.819395
140
180380.8390819999
141
80022.26069
142
1.0
143
0.2557442899420743
 70
   692
 72
     0
 73
     1
 74
     3
  7
LaserJet5Shaded.ctb
 75
     0
147
3.910155727138614
148
-4581603.303200401
149
-2032962.095032944
  0
PLOTSETTINGS
  5
7DA
102
{ACAD_REACTORS
330
6AB
102
}
330
6AB
100
AcDbPlotSettings
  1
Laser Jet 5 Shaded 8.5x11
  2
LaserJet5Shaded.pc3
  4
Letter
  6
PS1
 40
7.143749713897705
 41
6.974400997161865
 42
7.14373779296875
 43
6.297088623046875
 44
215.8999938964843
 45
279.3999938964843
 46
2.794
 47
0.0
 48
180377.877572
 49
80019.819395
140
180380.8390819999
141
80022.26069
142
1.0
143
0.345513616778612
 70
   692
 72
     0
 73
     1
 74
     3
  7
LaserJet5Shaded.ctb
 75
     0
147
2.894241938489939
148
-4581603.303200401
149
-2032962.095032944
  0
PLOTSETTINGS
  5
7DB
102
{ACAD_REACTORS
330
6AB
102
}
330
6AB
100
AcDbPlotSettings
  1
LaserJet5-Shaded-11x17
  2
LaserJet5Shaded.pc3
  4
11x17
  6

 40
7.143749713897705
 41
5.873736858367919
 42
7.143768310546875
 43
7.14373779296875
 44
279.3999938964843
 45
431.7999877929687
 46
0.0
 47
0.0
 48
180360.0524337165
 49
80033.77936194791
140
180369.1574725906
141
80037.61796031875
142
1.0
143
0.0527719690046124
 70
  1712
 72
     0
 73
     1
 74
     1
  7
LaserJet5Shaded.ctb
 75
     0
147
18.9494540162524
148
-190.0773302744904
149
-129.2444057835751
  0
PLOTSETTINGS
  5
7DC
102
{ACAD_REACTORS
330
6AB
102
}
330
6AB
100
AcDbPlotSettings
  1
LaserJet5-Shaded-8.5x11
  2
LaserJet5Shaded.pc3
  4
Letter
  6

 40
7.143749713897705
 41
6.974400997161865
 42
7.14373779296875
 43
6.297088623046875
 44
215.8999938964843
 45
279.3999938964843
 46
0.0
 47
0.0
 48
180360.0524337165
 49
80033.77936194791
140
180369.1574725906
141
80037.61796031875
142
1.0
143
0.069393053089765
 70
  1712
 72
     0
 73
     1
 74
     1
  7
LaserJet5Shaded.ctb
 75
     0
147
14.41066440334347
148
-190.0773302744904
149
-129.2444057835751
  0
PLOTSETTINGS
  5
7DD
102
{ACAD_REACTORS
330
6AB
102
}
330
6AB
100
AcDbPlotSettings
  1
Oki Doki B&W Shaded 11x17
  2
OKI DOKI Color Laser.pc3
  4
Tabloid
  6
PS1
 40
5.027083396911621
 41
5.027085304260253
 42
5.027099609375
 43
5.027069091796875
 44
279.3999938964843
 45
431.7999877929687
 46
0.0
 47
47.49799999999999
 48
180377.877572
 49
80019.819395
140
180380.8390819999
141
80022.26069
142
1.0
143
0.2302203728173071
 70
   692
 72
     0
 73
     1
 74
     4
  7
OKIB&WShaded.ctb
 75
     0
147
4.343664236846477
148
-4581598.0903288
149
-2032503.412632999
  0
PLOTSETTINGS
  5
7DE
102
{ACAD_REACTORS
330
6AB
102
}
330
6AB
100
AcDbPlotSettings
  1
Oki Doki B&W Shaded 8.5x11
  2
OKI DOKI Color Laser.pc3
  4
Letter
  6
PS1
 40
5.027083396911621
 41
5.027085304260253
 42
5.027084350585937
 43
5.027069091796875
 44
215.8999938964843
 45
279.3999938964843
 46
0.0
 47
9.906
 48
180377.877572
 49
80019.819395
140
180380.8390819999
141
80022.26069
142
1.0
143
0.3012394963745367
 70
   692
 72
     0
 73
     1
 74
     4
  7
OKIB&WShaded.ctb
 75
     0
147
3.319617819161008
148
-4581598.0903288
149
-2032503.412632999
  0
PLOTSETTINGS
  5
7DF
102
{ACAD_REACTORS
330
6AB
102
}
330
6AB
100
AcDbPlotSettings
  1
Oki Doki Color Laser
  2
OKI DOKI Color Laser.pc3
  4
Letter
  6
PS1
 40
5.027083396911621
 41
5.027085304260253
 42
5.027084350585937
 43
5.027069091796875
 44
215.8999938964843
 45
279.3999938964843
 46
71.88199999999999
 47
97.02799999999999
 48
180377.877572
 49
80019.819395
140
180380.8390819999
141
80022.26069
142
1.0
143
1.0
 70
   692
 72
     0
 73
     1
 74
     4
  7
Color.ctb
 75
    16
147
1.0
148
-4581598.0903288
149
-2032503.412632999
  0
PLOTSETTINGS
  5
7E0
102
{ACAD_REACTORS
330
6AB
102
}
330
6AB
100
AcDbPlotSettings
  1
Oki Doki Color Shaded 11x17
  2
OKI DOKI Color Laser.pc3
  4
Tabloid
  6
PS1
 40
5.027083396911621
 41
5.027085304260253
 42
5.027099609375
 43
5.027069091796875
 44
279.3999938964843
 45
431.7999877929687
 46
0.0
 47
47.49799999999999
 48
180377.877572
 49
80019.819395
140
180380.8390819999
141
80022.26069
142
1.0
143
0.2302203728173071
 70
   692
 72
     0
 73
     1
 74
     4
  7
OKIColorShaded.ctb
 75
     0
147
4.343664236846477
148
-4581598.0903288
149
-2032503.412632999
  0
PLOTSETTINGS
  5
7E1
102
{ACAD_REACTORS
330
6AB
102
}
330
6AB
100
AcDbPlotSettings
  1
Oki Doki Color Shaded 8.5x11
  2
OKI DOKI Color Laser.pc3
  4
Letter
  6
PS1
 40
5.027083396911621
 41
5.027085304260253
 42
5.027084350585937
 43
5.027069091796875
 44
215.8999938964843
 45
279.3999938964843
 46
0.0
 47
9.906
 48
180377.877572
 49
80019.819395
140
180380.8390819999
141
80022.26069
142
1.0
143
0.3012394963745367
 70
   692
 72
     0
 73
     1
 74
     4
  7
OKIColorShaded.ctb
 75
     0
147
3.319617819161008
148
-4581598.0903288
149
-2032503.412632999
  0
PLOTSETTINGS
  5
7E2
102
{ACAD_REACTORS
330
6AB
102
}
330
6AB
100
AcDbPlotSettings
  1
Oki-Doki-B&W-Shaded-11x17
  2
OKI DOKI Color Laser.pc3
  4
Tabloid
  6

 40
5.027083396911621
 41
5.027085304260253
 42
5.027099609375
 43
5.027069091796875
 44
279.3999938964843
 45
431.7999877929687
 46
45.72
 47
0.0
 48
180360.0524337165
 49
80033.77936194791
140
180369.1574725906
141
80037.61796031875
142
1.0
143
0.5483586774064594
 70
  1716
 72
     0
 73
     1
 74
     4
  7
OKIB&WShaded.ctb
 75
     0
147
1.823623918435361
148
-4581145.331816398
149
-2032857.995793476
  0
PLOTSETTINGS
  5
7E3
102
{ACAD_REACTORS
330
6AB
102
}
330
6AB
100
AcDbPlotSettings
  1
Oki-Doki-B&W-Shaded-8.5x11
  2
OKI DOKI Color Laser.pc3
  4
Letter
  6

 40
5.027083396911621
 41
5.027085304260253
 42
5.027084350585937
 43
5.027069091796875
 44
215.8999938964843
 45
279.3999938964843
 46
46.228
 47
0.0
 48
180360.0524337165
 49
80033.77936194791
140
180369.1574725906
141
80037.61796031875
142
1.0
143
0.8586284006917006
 70
  1716
 72
     0
 73
     1
 74
     4
  7
OKIB&WShaded.ctb
 75
     0
147
1.16464817515285
148
-4581145.331816398
149
-2032857.995793476
  0
PLOTSETTINGS
  5
7E4
102
{ACAD_REACTORS
330
6AB
102
}
330
6AB
100
AcDbPlotSettings
  1
Oki-Doki-Color-Laser
  2
OKI DOKI Color Laser.pc3
  4
Letter
  6

 40
5.027083396911621
 41
5.027085304260253
 42
5.027084350585937
 43
5.027069091796875
 44
215.8999938964843
 45
279.3999938964843
 46
17.018
 47
0.0
 48
180360.0524337165
 49
80033.77936194791
140
180369.1574725906
141
80037.61796031875
142
1.0
143
1.429088128819241
 70
  1716
 72
     0
 73
     1
 74
     0
  7
Color.ctb
 75
     0
147
0.6997469084193093
148
0.9506237099442977
149
8.593888772447144
  0
PLOTSETTINGS
  5
7E5
102
{ACAD_REACTORS
330
6AB
102
}
330
6AB
100
AcDbPlotSettings
  1
Oki-Doki-Color-Shaded-11x17
  2
OKI DOKI Color Laser.pc3
  4
Tabloid
  6

 40
5.027083396911621
 41
5.027085304260253
 42
5.027099609375
 43
5.027069091796875
 44
279.3999938964843
 45
431.7999877929687
 46
45.72
 47
0.0
 48
180360.0524337165
 49
80033.77936194791
140
180369.1574725906
141
80037.61796031875
142
1.0
143
0.5483586774064594
 70
  1716
 72
     0
 73
     1
 74
     4
  7
OKIColorShaded.ctb
 75
     0
147
1.823623918435361
148
-4581145.331816398
149
-2032857.995793476
  0
PLOTSETTINGS
  5
7E6
102
{ACAD_REACTORS
330
6AB
102
}
330
6AB
100
AcDbPlotSettings
  1
Oki-Doki-Color-Shaded-8.5x11
  2
OKI DOKI Color Laser.pc3
  4
Letter
  6

 40
5.027083396911621
 41
5.027085304260253
 42
5.027084350585937
 43
5.027069091796875
 44
215.8999938964843
 45
279.3999938964843
 46
46.228
 47
0.0
 48
180360.0524337165
 49
80033.77936194791
140
180369.1574725906
141
80037.61796031875
142
1.0
143
0.8586284006917006
 70
  1716
 72
     0
 73
     1
 74
     4
  7
OKIColorShaded.ctb
 75
     0
147
1.16464817515285
148
-4581145.331816398
149
-2032857.995793476
  0
ACDBPLACEHOLDER
  5
6A9
102
{ACAD_REACTORS
330
6A8
102
}
330
6A8
  0
DICTIONARYVAR
  5
31
102
{ACAD_REACTORS
330
30
102
}
330
30
100
DictionaryVariables
280
     0
  1
0
  0
DICTIONARYVAR
  5
6B3
102
{ACAD_REACTORS
330
30
102
}
330
30
100
DictionaryVariables
280
     0
  1
1
  0
DICTIONARYVAR
  5
365
102
{ACAD_REACTORS
330
30
102
}
330
30
100
DictionaryVariables
280
     0
  1
1
  0
ENDSEC
  0
EOF
