  0
SECTION
  2
HEADER
  9
$ACADVER
  1
AC1015
  9
$ACADMAINTVER
 70
    13
  9
$DWGCODEPAGE
  3
ANSI_1252
  9
$INSBASE
 10
0.0
 20
0.0
 30
0.0
  9
$EXTMIN
 10
-0.8280366420207695
 20
-0.251424769891445
 30
0.0
  9
$EXTMAX
 10
15.66196335797922
 20
10.18857523010855
 30
0.03
  9
$LIMMIN
 10
0.0
 20
0.0
  9
$LIMMAX
 10
12.0
 20
9.0
  9
$ORTHOMODE
 70
     1
  9
$REGENMODE
 70
     1
  9
$FILLMODE
 70
     1
  9
$QTEXTMODE
 70
     0
  9
$MIRRTEXT
 70
     0
  9
$LTSCALE
 40
1.0
  9
$ATTMODE
 70
     1
  9
$TEXTSIZE
 40
0.1
  9
$TRACEWID
 40
0.05
  9
$TEXTSTYLE
  7
ROMANS
  9
$CLAYER
  8
IMAGE
  9
$CELTYPE
  6
BYLAYER
  9
$CECOLOR
 62
   256
  9
$CELTSCALE
 40
1.0
  9
$DISPSILH
 70
     0
  9
$DIMSCALE
 40
1.0
  9
$DIMASZ
 40
0.18
  9
$DIMEXO
 40
0.0625
  9
$DIMDLI
 40
0.38
  9
$DIMRND
 40
0.0
  9
$DIMDLE
 40
0.0
  9
$DIMEXE
 40
0.18
  9
$DIMTP
 40
0.0
  9
$DIMTM
 40
0.0
  9
$DIMTXT
 40
0.18
  9
$DIMCEN
 40
0.09
  9
$DIMTSZ
 40
0.0
  9
$DIMTOL
 70
     0
  9
$DIMLIM
 70
     0
  9
$DIMTIH
 70
     1
  9
$DIMTOH
 70
     1
  9
$DIMSE1
 70
     0
  9
$DIMSE2
 70
     0
  9
$DIMTAD
 70
     0
  9
$DIMZIN
 70
     0
  9
$DIMBLK
  1

  9
$DIMASO
 70
     1
  9
$DIMSHO
 70
     1
  9
$DIMPOST
  1

  9
$DIMAPOST
  1

  9
$DIMALT
 70
     0
  9
$DIMALTD
 70
     2
  9
$DIMALTF
 40
25.4
  9
$DIMLFAC
 40
1.0
  9
$DIMTOFL
 70
     0
  9
$DIMTVP
 40
0.0
  9
$DIMTIX
 70
     0
  9
$DIMSOXD
 70
     0
  9
$DIMSAH
 70
     0
  9
$DIMBLK1
  1

  9
$DIMBLK2
  1

  9
$DIMSTYLE
  2
STANDARD
  9
$DIMCLRD
 70
     0
  9
$DIMCLRE
 70
     0
  9
$DIMCLRT
 70
     0
  9
$DIMTFAC
 40
1.0
  9
$DIMGAP
 40
0.09
  9
$DIMJUST
 70
     0
  9
$DIMSD1
 70
     0
  9
$DIMSD2
 70
     0
  9
$DIMTOLJ
 70
     1
  9
$DIMTZIN
 70
     0
  9
$DIMALTZ
 70
     0
  9
$DIMALTTZ
 70
     0
  9
$DIMUPT
 70
     0
  9
$DIMDEC
 70
     4
  9
$DIMTDEC
 70
     4
  9
$DIMALTU
 70
     2
  9
$DIMALTTD
 70
     2
  9
$DIMTXSTY
  7
SIMPLEX
  9
$DIMAUNIT
 70
     0
  9
$DIMADEC
 70
     0
  9
$DIMALTRND
 40
0.0
  9
$DIMAZIN
 70
     0
  9
$DIMDSEP
 70
    46
  9
$DIMATFIT
 70
     3
  9
$DIMFRAC
 70
     0
  9
$DIMLDRBLK
  1

  9
$DIMLUNIT
 70
     2
  9
$DIMLWD
 70
    -2
  9
$DIMLWE
 70
    -2
  9
$DIMTMOVE
 70
     2
  9
$LUNITS
 70
     2
  9
$LUPREC
 70
     4
  9
$SKETCHINC
 40
0.1
  9
$FILLETRAD
 40
0.0
  9
$AUNITS
 70
     0
  9
$AUPREC
 70
     0
  9
$MENU
  1
ACAD
  9
$ELEVATION
 40
0.0
  9
$PELEVATION
 40
0.0
  9
$THICKNESS
 40
0.0
  9
$LIMCHECK
 70
     0
  9
$CHAMFERA
 40
0.0
  9
$CHAMFERB
 40
0.0
  9
$CHAMFERC
 40
0.0
  9
$CHAMFERD
 40
0.0
  9
$SKPOLY
 70
     0
  9
$TDCREATE
 40
2449637.699090856
  9
$TDUCREATE
 40
2449637.990757523
  9
$TDUPDATE
 40
2453045.458310821
  9
$TDUUPDATE
 40
2453045.749977488
  9
$TDINDWG
 40
0.6987457870
  9
$TDUSRTIMER
 40
0.6987457870
  9
$USRTIMER
 70
     1
  9
$ANGBASE
 50
0.0
  9
$ANGDIR
 70
     0
  9
$PDMODE
 70
     0
  9
$PDSIZE
 40
0.0
  9
$PLINEWID
 40
0.0
  9
$SPLFRAME
 70
     0
  9
$SPLINETYPE
 70
     6
  9
$SPLINESEGS
 70
     8
  9
$HANDSEED
  5
6A2
  9
$SURFTAB1
 70
     6
  9
$SURFTAB2
 70
     6
  9
$SURFTYPE
 70
     6
  9
$SURFU
 70
     6
  9
$SURFV
 70
     6
  9
$UCSBASE
  2

  9
$UCSNAME
  2

  9
$UCSORG
 10
0.0
 20
0.0
 30
0.0
  9
$UCSXDIR
 10
1.0
 20
0.0
 30
0.0
  9
$UCSYDIR
 10
0.0
 20
1.0
 30
0.0
  9
$UCSORTHOREF
  2

  9
$UCSORTHOVIEW
 70
     0
  9
$UCSORGTOP
 10
0.0
 20
0.0
 30
0.0
  9
$UCSORGBOTTOM
 10
0.0
 20
0.0
 30
0.0
  9
$UCSORGLEFT
 10
0.0
 20
0.0
 30
0.0
  9
$UCSORGRIGHT
 10
0.0
 20
0.0
 30
0.0
  9
$UCSORGFRONT
 10
0.0
 20
0.0
 30
0.0
  9
$UCSORGBACK
 10
0.0
 20
0.0
 30
0.0
  9
$PUCSBASE
  2

  9
$PUCSNAME
  2

  9
$PUCSORG
 10
0.0
 20
0.0
 30
0.0
  9
$PUCSXDIR
 10
1.0
 20
0.0
 30
0.0
  9
$PUCSYDIR
 10
0.0
 20
1.0
 30
0.0
  9
$PUCSORTHOREF
  2

  9
$PUCSORTHOVIEW
 70
     0
  9
$PUCSORGTOP
 10
0.0
 20
0.0
 30
0.0
  9
$PUCSORGBOTTOM
 10
0.0
 20
0.0
 30
0.0
  9
$PUCSORGLEFT
 10
0.0
 20
0.0
 30
0.0
  9
$PUCSORGRIGHT
 10
0.0
 20
0.0
 30
0.0
  9
$PUCSORGFRONT
 10
0.0
 20
0.0
 30
0.0
  9
$PUCSORGBACK
 10
0.0
 20
0.0
 30
0.0
  9
$USERI1
 70
     0
  9
$USERI2
 70
     0
  9
$USERI3
 70
     0
  9
$USERI4
 70
     0
  9
$USERI5
 70
     0
  9
$USERR1
 40
0.0
  9
$USERR2
 40
0.0
  9
$USERR3
 40
0.0
  9
$USERR4
 40
0.0
  9
$USERR5
 40
0.0
  9
$WORLDVIEW
 70
     1
  9
$SHADEDGE
 70
     3
  9
$SHADEDIF
 70
    70
  9
$TILEMODE
 70
     1
  9
$MAXACTVP
 70
    16
  9
$PINSBASE
 10
0.0
 20
0.0
 30
0.0
  9
$PLIMCHECK
 70
     0
  9
$PEXTMIN
 10
1.000000000000000E+20
 20
1.000000000000000E+20
 30
1.000000000000000E+20
  9
$PEXTMAX
 10
-1.000000000000000E+20
 20
-1.000000000000000E+20
 30
-1.000000000000000E+20
  9
$PLIMMIN
 10
0.0
 20
0.0
  9
$PLIMMAX
 10
12.0
 20
9.0
  9
$UNITMODE
 70
     0
  9
$VISRETAIN
 70
     0
  9
$PLINEGEN
 70
     1
  9
$PSLTSCALE
 70
     1
  9
$TREEDEPTH
 70
  3020
  9
$CMLSTYLE
  2
STANDARD
  9
$CMLJUST
 70
     0
  9
$CMLSCALE
 40
1.0
  9
$PROXYGRAPHICS
 70
     1
  9
$MEASUREMENT
 70
     0
  9
$CELWEIGHT
370
    -1
  9
$ENDCAPS
280
     0
  9
$JOINSTYLE
280
     0
  9
$LWDISPLAY
290
     0
  9
$INSUNITS
 70
     0
  9
$HYPERLINKBASE
  1

  9
$STYLESHEET
  1
8500ColorShaded.ctb
  9
$XEDIT
290
     1
  9
$CEPSNTYPE
380
     0
  9
$PSTYLEMODE
290
     1
  9
$FINGERPRINTGUID
  2
{3E0AE3C3-289B-45DE-A7B2-1A159519F2E2}
  9
$VERSIONGUID
  2
{430B156C-2E0B-4E3A-8748-DD153F2BE9FD}
  9
$EXTNAMES
290
     1
  9
$PSVPSCALE
 40
0.0
  9
$OLESTARTUP
290
     0
  0
ENDSEC
  0
SECTION
  2
CLASSES
  0
CLASS
  1
DICTIONARYVAR
  2
AcDbDictionaryVar
  3
AutoCAD 2000
 90
        0
280
     0
281
     0
  0
CLASS
  1
LWPOLYLINE
  2
AcDbPolyline
  3
AutoCAD 2000
 90
    32768
280
     0
281
     1
  0
CLASS
  1
HATCH
  2
AcDbHatch
  3
AutoCAD 2000
 90
    32768
280
     0
281
     1
  0
CLASS
  1
ACDBDICTIONARYWDFLT
  2
AcDbDictionaryWithDefault
  3
AutoCAD 2000
 90
        0
280
     0
281
     0
  0
CLASS
  1
ACDBPLACEHOLDER
  2
AcDbPlaceHolder
  3
AutoCAD 2000
 90
        0
280
     0
281
     0
  0
CLASS
  1
LAYOUT
  2
AcDbLayout
  3
AutoCAD 2000
 90
        0
280
     0
281
     0
  0
CLASS
  1
PLOTSETTINGS
  2
AcDbPlotSettings
  3
AutoCAD 2000
 90
        0
280
     0
281
     0
  0
ENDSEC
  0
SECTION
  2
TABLES
  0
TABLE
  2
VPORT
  5
8
330
0
100
AcDbSymbolTable
 70
     3
  0
VPORT
  5
6A1
330
8
100
AcDbSymbolTableRecord
100
AcDbViewportTableRecord
  2
*Active
 70
     0
 10
0.0
 20
0.0
 11
1.0
 21
1.0
 12
7.416963396373002
 22
4.968575254416069
 13
0.0
 23
0.0
 14
0.14
 24
0.14
 15
0.14
 25
0.14
 16
0.0
 26
0.0
 36
1.0
 17
0.0
 27
0.0
 37
0.0
 40
10.53237808906607
 41
1.639044943820224
 42
50.0
 43
0.0
 44
0.0
 50
0.0
 51
0.0
 71
     0
 72
  5000
 73
     1
 74
     1
 75
     0
 76
     0
 77
     0
 78
     0
281
     0
 65
     1
110
0.0
120
0.0
130
0.0
111
1.0
121
0.0
131
0.0
112
0.0
122
1.0
132
0.0
 79
     0
146
0.0
  0
ENDTAB
  0
TABLE
  2
LTYPE
  5
5
330
0
100
AcDbSymbolTable
 70
     1
  0
LTYPE
  5
11
330
5
100
AcDbSymbolTableRecord
100
AcDbLinetypeTableRecord
  2
BYBLOCK
 70
     0
  3

 72
    65
 73
     0
 40
0.0
  0
LTYPE
  5
12
330
5
100
AcDbSymbolTableRecord
100
AcDbLinetypeTableRecord
  2
BYLAYER
 70
     0
  3

 72
    65
 73
     0
 40
0.0
  0
LTYPE
  5
13
330
5
100
AcDbSymbolTableRecord
100
AcDbLinetypeTableRecord
  2
CONTINUOUS
 70
     0
  3
Solid line
 72
    65
 73
     0
 40
0.0
  0
ENDTAB
  0
TABLE
  2
LAYER
  5
2
102
{ACAD_XDICTIONARY
360
53F
102
}
330
0
100
AcDbSymbolTable
 70
    11
  0
LAYER
  5
E
330
2
100
AcDbSymbolTableRecord
100
AcDbLayerTableRecord
  2
0
 70
     0
 62
     7
  6
CONTINUOUS
370
    -3
390
52D
  0
LAYER
  5
22
330
2
100
AcDbSymbolTableRecord
100
AcDbLayerTableRecord
  2
TEXT_BUBBLES
 70
     0
 62
    -6
  6
CONTINUOUS
370
    -3
390
52D
  0
LAYER
  5
23
330
2
100
AcDbSymbolTableRecord
100
AcDbLayerTableRecord
  2
IMAGE
 70
     0
 62
     7
  6
CONTINUOUS
370
    -3
390
52D
  0
LAYER
  5
26
330
2
100
AcDbSymbolTableRecord
100
AcDbLayerTableRecord
  2
TEXT_LEADERS
 70
     0
 62
     5
  6
CONTINUOUS
370
    -3
390
52D
  0
LAYER
  5
27
330
2
100
AcDbSymbolTableRecord
100
AcDbLayerTableRecord
  2
INSTRUCT-OPTION
 70
     0
 62
     7
  6
CONTINUOUS
370
    -3
390
52D
  0
LAYER
  5
28
330
2
100
AcDbSymbolTableRecord
100
AcDbLayerTableRecord
  2
INSTRUCT-CALLOUT
 70
     0
 62
     4
  6
CONTINUOUS
370
    -3
390
52D
  0
LAYER
  5
3DF
330
2
100
AcDbSymbolTableRecord
100
AcDbLayerTableRecord
  2
OPTION-3504-PC--N
 70
     0
 62
    -1
  6
CONTINUOUS
370
    -3
390
52D
  0
LAYER
  5
3E1
330
2
100
AcDbSymbolTableRecord
100
AcDbLayerTableRecord
  2
OPTION-3504-PC-SAM
 70
     0
 62
    -1
  6
CONTINUOUS
370
    -3
390
52D
  0
LAYER
  5
3E3
330
2
100
AcDbSymbolTableRecord
100
AcDbLayerTableRecord
  2
OPTION-3504-PC-SAM-N
 70
     0
 62
    -1
  6
CONTINUOUS
370
    -3
390
52D
  0
LAYER
  5
62E
330
2
100
AcDbSymbolTableRecord
100
AcDbLayerTableRecord
  2
TITLE
 70
     0
 62
     4
  6
CONTINUOUS
370
    -3
390
52D
  0
LAYER
  5
689
330
2
100
AcDbSymbolTableRecord
100
AcDbLayerTableRecord
  2
OPTION-3504-PC
 70
     0
 62
     1
  6
CONTINUOUS
370
    -3
390
52D
  0
ENDTAB
  0
TABLE
  2
STYLE
  5
3
330
0
100
AcDbSymbolTable
 70
     6
  0
STYLE
  5
F
330
3
100
AcDbSymbolTableRecord
100
AcDbTextStyleTableRecord
  2
STANDARD
 70
     0
 40
0.0
 41
1.0
 50
0.0
 71
     0
 42
0.2
  3
txt
  4

  0
STYLE
  5
1E
330
3
100
AcDbSymbolTableRecord
100
AcDbTextStyleTableRecord
  2
ROMANS
 70
     0
 40
0.0
 41
1.0
 50
0.0
 71
     0
 42
0.1
  3
ROMANS.SHX
  4

  0
STYLE
  5
1F
330
3
100
AcDbSymbolTableRecord
100
AcDbTextStyleTableRecord
  2
SIMPLEX
 70
     0
 40
0.0
 41
1.0
 50
0.0
 71
     0
 42
0.1
  3
SIMPLEX
  4

  0
STYLE
  5
62F
330
3
100
AcDbSymbolTableRecord
100
AcDbTextStyleTableRecord
  2
L100
 70
     0
 40
0.1
 41
1.0
 50
0.0
 71
     0
 42
0.1
  3
romans.shx
  4

  0
STYLE
  5
630
330
3
100
AcDbSymbolTableRecord
100
AcDbTextStyleTableRecord
  2
L200
 70
     0
 40
0.2
 41
1.0
 50
0.0
 71
     0
 42
0.081
  3
ARIAL.TTF
  4

1001
ACAD
1000
Arial
1071
       34
  0
STYLE
  5
631
330
3
100
AcDbSymbolTableRecord
100
AcDbTextStyleTableRecord
  2
L80
 70
     0
 40
0.08
 41
1.0
 50
0.0
 71
     0
 42
0.08
  3
ROMANS
  4

  0
ENDTAB
  0
TABLE
  2
VIEW
  5
6
330
0
100
AcDbSymbolTable
 70
     0
  0
ENDTAB
  0
TABLE
  2
UCS
  5
7
330
0
100
AcDbSymbolTable
 70
     0
  0
ENDTAB
  0
TABLE
  2
APPID
  5
9
330
0
100
AcDbSymbolTable
 70
     3
  0
APPID
  5
10
330
9
100
AcDbSymbolTableRecord
100
AcDbRegAppTableRecord
  2
ACAD
 70
     0
  0
APPID
  5
632
330
9
100
AcDbSymbolTableRecord
100
AcDbRegAppTableRecord
  2
RAK
 70
     0
  0
APPID
  5
633
330
9
100
AcDbSymbolTableRecord
100
AcDbRegAppTableRecord
  2
DCO15
 70
     0
  0
ENDTAB
  0
TABLE
  2
DIMSTYLE
  5
A
330
0
100
AcDbSymbolTable
 70
     1
100
AcDbDimStyleTable
 71
     0
  0
DIMSTYLE
105
288
102
{ACAD_REACTORS
330
578
330
577
330
576
330
575
330
574
330
573
330
572
102
}
330
A
100
AcDbSymbolTableRecord
100
AcDbDimStyleTableRecord
  2
STANDARD
 70
     0
340
F
  0
ENDTAB
  0
TABLE
  2
BLOCK_RECORD
  5
1
330
0
100
AcDbSymbolTable
 70
     1
  0
BLOCK_RECORD
  5
17
330
1
100
AcDbSymbolTableRecord
100
AcDbBlockTableRecord
  2
*MODEL_SPACE
340
530
  0
BLOCK_RECORD
  5
14
330
1
100
AcDbSymbolTableRecord
100
AcDbBlockTableRecord
  2
*PAPER_SPACE
340
531
  0
BLOCK_RECORD
  5
634
330
1
100
AcDbSymbolTableRecord
100
AcDbBlockTableRecord
  2
titleblock
340
0
102
{BLKREFS
331
643
102
}
  0
ENDTAB
  0
ENDSEC
  0
SECTION
  2
BLOCKS
  0
BLOCK
  5
2E
330
17
100
AcDbEntity
  8
0
100
AcDbBlockBegin
  2
*MODEL_SPACE
 70
     0
 10
0.0
 20
0.0
 30
0.0
  3
*MODEL_SPACE
  1

  0
ENDBLK
  5
2F
330
17
100
AcDbEntity
  8
0
100
AcDbBlockEnd
  0
BLOCK
  5
2C
330
14
100
AcDbEntity
 67
     1
  8
0
100
AcDbBlockBegin
  2
*PAPER_SPACE
 70
     0
 10
0.0
 20
0.0
 30
0.0
  3
*PAPER_SPACE
  1

  0
ENDBLK
  5
2D
330
14
100
AcDbEntity
 67
     1
  8
0
100
AcDbBlockEnd
  0
BLOCK
  5
640
330
634
100
AcDbEntity
  8
0
100
AcDbBlockBegin
  2
titleblock
 70
     2
 10
0.0
 20
0.0
 30
0.0
  3
titleblock
  1

  0
LWPOLYLINE
  5
635
330
634
100
AcDbEntity
  8
IMAGE
100
AcDbPolyline
 90
        4
 70
     1
 43
0.0
 10
0.0
 20
0.0
 10
16.48999999999999
 20
0.0000000000000001
 10
16.48999999999999
 20
10.44
 10
0.0
 20
10.44
  0
ATTDEF
  5
636
330
634
100
AcDbEntity
  8
TITLE
100
AcDbText
 10
0.5055556038023421
 20
0.7842270964783673
 30
0.0
 40
0.2
  1
D
  7
L200
 72
     4
 11
0.6064423705144839
 21
0.8842270964783672
 31
0.0
100
AcDbAttributeDefinition
  3
#
  2
D
 70
     0
  0
ATTDEF
  5
637
330
634
100
AcDbEntity
  8
TITLE
100
AcDbText
 10
1.231442370514484
 20
1.34371230274675
 30
0.0
 40
0.2
  1

  7
L200
100
AcDbAttributeDefinition
  3
DETAIL TITLE TOP LINE
  2
TITLE1
 70
     0
  0
ATTDEF
  5
638
330
634
100
AcDbEntity
  8
TITLE
100
AcDbText
 10
1.231442370514484
 20
0.9842270964783674
 30
0.0
 40
0.2
  1
TITLE
  7
L200
100
AcDbAttributeDefinition
  3
DETAIL TITLE TOP 2ND LINE
  2
TITLE2
 70
     0
  0
ATTDEF
  5
639
330
634
100
AcDbEntity
  8
TITLE
100
AcDbText
 10
2.713645751168312
 20
0.5927927664583189
 30
0.0
 40
0.2
  1
TITLE2
  7
L200
100
AcDbAttributeDefinition
  3
DETAIL TITLE BOTTOM 1
  2
TITLE3
 70
     0
  0
ATTDEF
  5
63A
330
634
100
AcDbEntity
  8
TITLE
100
AcDbText
 10
2.713645751168312
 20
0.2692560808167741
 30
0.0
 40
0.2
  1

  7
L200
100
AcDbAttributeDefinition
  3
DETAIL TITLE BOTTOM 2
  2
TITLE4
 70
     0
  0
ATTDEF
  5
63B
330
634
100
AcDbEntity
  8
TITLE
 62
     7
100
AcDbText
 10
8.177214829966379
 20
0.9696027915446398
 30
0.0
 40
0.08
  1
-
  7
L80
 72
     2
 11
8.261024353775903
 21
0.9696027915446398
 31
0.0
100
AcDbAttributeDefinition
  3
REVISION DATE
  2
REVISED
 70
     0
  0
ATTDEF
  5
63C
330
634
100
AcDbEntity
  8
TITLE
 62
     7
100
AcDbText
 10
0.2639423705144838
 20
0.0847116480207214
 30
0.0
 40
0.08
  1
-
  7
L80
100
AcDbAttributeDefinition
  3
DWG-NAME
  2
DWG-NAME
 70
     0
  0
LWPOLYLINE
  5
63D
330
634
100
AcDbEntity
  8
TITLE
 62
     3
100
AcDbPolyline
 90
        2
 70
     1
 43
0.03
 10
0.6064423705144839
 20
0.5417270964783675
 42
0.9999999999999998
 10
0.6064423705144839
 20
1.226727096478367
 42
0.9999999999999998
  0
ATTDEF
  5
63E
330
634
100
AcDbEntity
  8
TITLE
 62
     7
100
AcDbText
 10
1.231442370514484
 20
0.7005637793954894
 30
0.0
 40
0.1
  1
N.T.S.
  7
L100
100
AcDbAttributeDefinition
  3
SCALE
  2
SCALE
 70
     0
  0
LWPOLYLINE
  5
63F
330
634
100
AcDbEntity
  8
TITLE
 62
     3
100
AcDbPolyline
 90
        2
 70
     0
 43
0.04
 39
0.03
 10
0.9489423705144833
 20
0.8842270964783672
 10
8.261024353775903
 20
0.8842270964783672
  0
ENDBLK
  5
641
330
634
100
AcDbEntity
  8
0
100
AcDbBlockEnd
  0
ENDSEC
  0
SECTION
  2
ENTITIES
  0
LWPOLYLINE
  5
E7
330
17
100
AcDbEntity
  8
IMAGE
100
AcDbPolyline
 90
        2
 70
     0
 43
0.0
 10
1.98752577746776
 20
3.180167600620069
 10
1.939012116373871
 20
2.951022566304947
  0
LINE
  5
EB
330
17
100
AcDbEntity
  8
IMAGE
100
AcDbLine
 10
2.022613762385523
 20
3.192780922951408
 30
0.0
 11
1.965811364390529
 21
2.92448561923161
 31
0.0
  0
LINE
  5
EC
330
17
100
AcDbEntity
  8
IMAGE
100
AcDbLine
 10
3.609585783508084
 20
2.855952171010384
 30
0.0
 11
3.55278338551309
 21
2.587656867290587
 31
0.0
  0
LWPOLYLINE
  5
ED
330
17
100
AcDbEntity
  8
IMAGE
100
AcDbPolyline
 90
        2
 70
     0
 43
0.0
 10
3.637186739509261
 20
2.829836382957841
 10
3.588673078415371
 20
2.600691348642719
  0
LINE
  5
F1
330
17
100
AcDbEntity
  8
IMAGE
100
AcDbLine
 10
1.392362484081799
 20
3.963725993920558
 30
0.0
 11
1.666604863038954
 21
3.963725993920558
 31
0.0
  0
LWPOLYLINE
  5
F2
330
17
100
AcDbEntity
  8
IMAGE
100
AcDbPolyline
 90
        2
 70
     0
 43
0.0
 10
1.412138328557214
 20
3.995489508382114
 10
1.646362627177173
 20
3.995489508382114
  0
LWPOLYLINE
  5
F6
330
17
100
AcDbEntity
  8
IMAGE
100
AcDbPolyline
 90
        2
 70
     0
 43
0.0
 10
1.412138328557214
 20
3.45100029388263
 10
1.646362627177173
 20
3.45100029388263
  0
LINE
  5
FA
330
17
100
AcDbEntity
  8
IMAGE
100
AcDbLine
 10
1.392362484081799
 20
3.484782397087254
 30
0.0
 11
1.666604863038954
 21
3.484782397087254
 31
0.0
  0
LWPOLYLINE
  5
FB
330
17
100
AcDbEntity
  8
IMAGE
100
AcDbPolyline
 90
        4
 70
     0
 43
0.0
 10
0.5028960487013054
 20
2.781235806078659
 42
0.6332430429610296
 10
0.5028960487013054
 20
2.617713945578304
 42
-0.6332430429610812
 10
0.5028960487013054
 20
2.454192085077949
 42
-0.6134111328532366
 10
0.5028960487013081
 20
2.617713945578302
 42
-0.6134111328532366
  0
LWPOLYLINE
  5
101
330
17
100
AcDbEntity
  8
IMAGE
100
AcDbPolyline
 90
        4
 70
     0
 43
0.0
 10
5.114284034108839
 20
2.783592596787218
 42
-0.6332430429610296
 10
5.114284034108839
 20
2.620070736286863
 42
0.6332430429610812
 10
5.114284034108839
 20
2.456548875786508
 42
0.6134111328532366
 10
5.114284034108838
 20
2.620070736286861
 42
0.6134111328532366
  0
ARC
  5
107
330
17
100
AcDbEntity
  8
IMAGE
100
AcDbCircle
 10
1.530110266100005
 20
3.162115146252341
 30
0.0
 40
0.1616993430891156
100
AcDbArc
 50
179.379115872957
 51
0.2371380430744057
  0
LINE
  5
108
330
17
100
AcDbEntity
  8
IMAGE
100
AcDbLine
 10
3.61561441518928
 20
2.574065584217162
 30
0.0
 11
1.901641578082996
 21
2.936940990145246
 31
0.0
  0
LINE
  5
109
330
17
100
AcDbEntity
  8
IMAGE
100
AcDbLine
 10
3.672956266515247
 20
2.842246110174194
 30
0.0
 11
1.958983429408962
 21
3.205121516102278
 31
0.0
  0
LINE
  5
10A
330
17
100
AcDbEntity
  8
IMAGE
100
AcDbLine
 10
1.36975474183955
 20
3.41937889217346
 30
0.0
 11
1.691296360591509
 21
3.41937889217346
 31
0.0
  0
LINE
  5
10B
330
17
100
AcDbEntity
  8
IMAGE
100
AcDbLine
 10
1.36975474183955
 20
3.41937889217346
 30
0.0
 11
1.36841092301089
 21
3.162115146252341
 31
0.0
  0
LINE
  5
10C
330
17
100
AcDbEntity
  8
IMAGE
100
AcDbLine
 10
1.69129636059151
 20
3.41937889217346
 30
0.0
 11
1.691809609189121
 21
3.162115146252341
 31
0.0
  0
LINE
  5
10D
330
17
100
AcDbEntity
  8
IMAGE
100
AcDbLine
 10
4.495348847546795
 20
2.823892761867222
 30
0.0
 11
4.495348847546794
 21
2.417756592015983
 31
0.0
  0
LINE
  5
10E
330
17
100
AcDbEntity
  8
IMAGE
100
AcDbLine
 10
3.675811187999837
 20
2.857397019982931
 30
0.0
 11
4.07125244648484
 21
2.773456497802224
 31
0.0
  0
LINE
  5
10F
330
17
100
AcDbEntity
  8
IMAGE
100
AcDbLine
 10
3.611821353720936
 20
2.558124725559335
 30
0.0
 11
4.007137481091343
 21
2.473598981113362
 31
0.0
  0
LINE
  5
110
330
17
100
AcDbEntity
  8
IMAGE
100
AcDbLine
 10
4.07125244648484
 20
2.773456497802224
 30
0.0
 11
4.090140011084203
 21
2.737805576542273
 31
0.0
  0
LINE
  5
111
330
17
100
AcDbEntity
  8
IMAGE
100
AcDbLine
 10
4.007137481091343
 20
2.473598981113362
 30
0.0
 11
4.040950408679333
 21
2.494319713339557
 31
0.0
  0
LINE
  5
112
330
17
100
AcDbEntity
  8
IMAGE
100
AcDbLine
 10
4.040950408679333
 20
2.494319713339554
 30
0.0
 11
4.090140011084203
 21
2.737805576542273
 31
0.0
  0
ARC
  5
113
330
17
100
AcDbEntity
  8
IMAGE
100
AcDbCircle
 10
4.035619969304417
 20
2.622108214348958
 30
0.0
 40
0.1278996269508258
100
AcDbArc
 50
272.3885930691139
 51
64.76879059918148
  0
LINE
  5
114
330
17
100
AcDbEntity
  8
IMAGE
100
AcDbLine
 10
1.898405983840502
 20
2.921563442794829
 30
0.0
 11
1.521626392370538
 21
3.000638518092108
 31
0.0
  0
LINE
  5
115
330
17
100
AcDbEntity
  8
IMAGE
100
AcDbLine
 10
1.961419527682691
 20
3.221042821706054
 30
0.0
 11
1.691588446299544
 21
3.278235328828126
 31
0.0
  0
LINE
  5
116
330
17
100
AcDbEntity
  8
IMAGE
100
AcDbLine
 10
1.961419527682691
 20
3.221042821706054
 30
0.0
 11
1.898405983840502
 21
2.92156344279483
 31
0.0
  0
LINE
  5
117
330
17
100
AcDbEntity
  8
IMAGE
100
AcDbLine
 10
3.675811187999837
 20
2.857397019982931
 30
0.0
 11
3.611821353720936
 21
2.558124725559336
 31
0.0
  0
LINE
  5
118
330
17
100
AcDbEntity
  8
IMAGE
100
AcDbLine
 10
4.495348847546795
 20
2.417756592015983
 30
0.0
 11
3.573885146968401
 21
2.417756592015983
 31
0.0
  0
LINE
  5
119
330
17
100
AcDbEntity
  8
IMAGE
100
AcDbLine
 10
3.573885146968399
 20
2.582900336330444
 30
0.0
 11
3.573885146968401
 21
2.417756592015984
 31
0.0
  0
LINE
  5
11A
330
17
100
AcDbEntity
  8
IMAGE
100
AcDbLine
 10
4.071252446484844
 20
2.773456497802225
 30
0.0
 11
4.007137481091343
 21
2.473598981113362
 31
0.0
  0
LINE
  5
11B
330
17
100
AcDbEntity
  8
IMAGE
100
AcDbLine
 10
5.114284034108839
 20
2.783592596787218
 30
0.0
 11
4.495348847546795
 21
2.783592596787218
 31
0.0
  0
LINE
  5
11C
330
17
100
AcDbEntity
  8
IMAGE
100
AcDbLine
 10
5.114284034108839
 20
2.456548875786508
 30
0.0
 11
4.495348847546794
 21
2.456548875786508
 31
0.0
  0
LINE
  5
11D
330
17
100
AcDbEntity
  8
IMAGE
100
AcDbLine
 10
3.573885146968401
 20
2.454192085077948
 30
0.0
 11
0.5028960487013054
 21
2.454192085077949
 31
0.0
  0
LINE
  5
11E
330
17
100
AcDbEntity
  8
IMAGE
100
AcDbLine
 10
2.637085346734683
 20
2.78123580607866
 30
0.0
 11
0.5028960487013054
 21
2.781235806078659
 31
0.0
  0
LINE
  5
11F
330
17
100
AcDbEntity
  8
IMAGE
100
AcDbLine
 10
3.833648733558105
 20
2.823892761867223
 30
0.0
 11
4.495348847546795
 21
2.823892761867224
 31
0.0
  0
LINE
  5
120
330
17
100
AcDbEntity
  8
IMAGE
100
AcDbLine
 10
1.392362484081799
 20
4.023928783003783
 30
0.0
 11
1.392362484081799
 21
3.419378892173461
 31
0.0
  0
LINE
  5
121
330
17
100
AcDbEntity
  8
IMAGE
100
AcDbLine
 10
1.666604863038954
 20
4.023507862627694
 30
0.0
 11
1.666604863038954
 21
3.419378892173461
 31
0.0
  0
TEXT
  5
1D9
330
17
100
AcDbEntity
  8
TEXT_LEADERS
100
AcDbText
 10
5.134884859999999
 20
3.380320086557046
 30
0.0
 40
0.125
  1
  (LENGTH AS REQUIRED)
  7
ROMANS
100
AcDbText
  0
TEXT
  5
1DB
330
17
100
AcDbEntity
  8
TEXT_LEADERS
100
AcDbText
 10
5.134884859999999
 20
4.080320086557046
 30
0.0
 40
0.125
  1
PVC SCH 40 STREET ELL
  7
ROMANS
100
AcDbText
  0
TEXT
  5
1DC
330
17
100
AcDbEntity
  8
TEXT_LEADERS
100
AcDbText
 10
5.134884859999999
 20
3.555320086557046
 30
0.0
 40
0.125
  1
PVC SCH 80 NIPPLE
  7
ROMANS
100
AcDbText
  0
TEXT
  5
1DE
330
17
100
AcDbEntity
  8
TEXT_LEADERS
100
AcDbText
 10
5.134884859999999
 20
1.455320086557046
 30
0.0
 40
0.125
  1
PVC LATERAL PIPE
  7
ROMANS
100
AcDbText
  0
TEXT
  5
1DF
330
17
100
AcDbEntity
  8
TEXT_LEADERS
100
AcDbText
 10
5.134884859999999
 20
4.430320086557046
 30
0.0
 40
0.125
  1
PVC SCH 40 ELL
  7
ROMANS
100
AcDbText
  0
TEXT
  5
1E0
330
17
100
AcDbEntity
  8
TEXT_LEADERS
100
AcDbText
 10
5.134884859999999
 20
4.780320086557047
 30
0.0
 40
0.125
  1
  (LENGTH AS REQUIRED)
  7
ROMANS
100
AcDbText
  0
TEXT
  5
1E1
330
17
100
AcDbEntity
  8
TEXT_LEADERS
100
AcDbText
 10
5.134884859999999
 20
4.955320086557046
 30
0.0
 40
0.125
  1
PVC SCH 80 NIPPLE
  7
ROMANS
100
AcDbText
  0
TEXT
  5
1E2
330
17
100
AcDbEntity
  8
TEXT_LEADERS
100
AcDbText
 10
5.14145639
 20
5.842840992593363
 30
0.0
 40
0.125
  1
ROTOR POP-UP SPRINKLER:
  7
ROMANS
100
AcDbText
  0
TEXT
  5
1E3
330
17
100
AcDbEntity
  8
TEXT_LEADERS
100
AcDbText
 10
5.14145639
 20
5.667840992593363
 30
0.0
 40
0.125
  1
  RAIN BIRD 
  7
ROMANS
100
AcDbText
  0
TEXT
  5
1E4
330
17
100
AcDbEntity
  8
TEXT_LEADERS
100
AcDbText
 10
5.14145639
 20
6.49985427
 30
0.0
 40
0.125
  1
FINISH GRADE
  7
ROMANS
100
AcDbText
  0
TEXT
  5
20F
330
17
100
AcDbEntity
  8
TEXT_LEADERS
100
AcDbText
 10
5.134884859999999
 20
3.030320086557046
 30
0.0
 40
0.125
  1
PVC SCH 40 STREET ELL
  7
ROMANS
100
AcDbText
  0
TEXT
  5
214
330
17
100
AcDbEntity
  8
TEXT_BUBBLES
100
AcDbText
 10
5.14145639
 20
5.667244511481815
 30
0.0
 40
0.125
  1
  RAIN BIRD 
  7
ROMANS
100
AcDbText
  0
TEXT
  5
215
330
17
100
AcDbEntity
  8
TEXT_BUBBLES
100
AcDbText
 10
5.14145639
 20
5.842244511481815
 30
0.0
 40
0.125
  1
ROTOR POP-UP SPRINKLER:
  7
ROMANS
100
AcDbText
  0
TEXT
  5
217
330
17
100
AcDbEntity
  8
TEXT_BUBBLES
100
AcDbText
 10
5.14145639
 20
4.611409994392617
 30
0.0
 40
0.125
  1
PVC SCH 40 ELL
  7
ROMANS
100
AcDbText
  0
TEXT
  5
218
330
17
100
AcDbEntity
  8
TEXT_BUBBLES
100
AcDbText
 10
5.14145639
 20
4.261409994392617
 30
0.0
 40
0.125
  1
PVC SCH 40 STREET ELL
  7
ROMANS
100
AcDbText
  0
TEXT
  5
21A
330
17
100
AcDbEntity
  8
TEXT_BUBBLES
100
AcDbText
 10
5.14145639
 20
3.561409994392617
 30
0.0
 40
0.125
  1
PVC SCH 40 TEE OR ELL
  7
ROMANS
100
AcDbText
  0
TEXT
  5
21B
330
17
100
AcDbEntity
  8
TEXT_BUBBLES
100
AcDbText
 10
5.14145639
 20
3.911409994392617
 30
0.0
 40
0.125
  1
PVC LATERAL PIPE
  7
ROMANS
100
AcDbText
  0
TEXT
  5
224
330
17
100
AcDbEntity
  8
TEXT_LEADERS
100
AcDbText
 10
5.134884859999999
 20
1.980320086557046
 30
0.0
 40
0.125
  1
PVC SCH 40 TEE OR ELL
  7
ROMANS
100
AcDbText
  0
CIRCLE
  5
237
330
17
100
AcDbEntity
  8
TEXT_BUBBLES
100
AcDbCircle
 10
4.349790056392665
 20
2.106779890287688
 30
0.0
 40
0.1562500000000002
  0
TEXT
  5
238
330
17
100
AcDbEntity
  8
TEXT_BUBBLES
100
AcDbText
 10
4.290266246868855
 20
2.044279890287688
 30
0.0
 40
0.1250000000000002
  1
7
  7
ROMANS
 72
     4
 11
4.349790056392665
 21
2.106779890287688
 31
0.0
100
AcDbText
  0
CIRCLE
  5
239
330
17
100
AcDbEntity
  8
TEXT_BUBBLES
100
AcDbCircle
 10
4.913489363868904
 20
6.258844730642487
 30
0.0
 40
0.1562500000000002
  0
TEXT
  5
23A
330
17
100
AcDbEntity
  8
TEXT_BUBBLES
100
AcDbText
 10
4.862894125773665
 20
6.196344730642487
 30
0.0
 40
0.1250000000000002
  1
1
  7
ROMANS
 72
     4
 11
4.913489363868904
 21
6.258844730642487
 31
0.0
100
AcDbText
  0
TEXT
  5
23B
330
17
100
AcDbEntity
  8
TEXT_BUBBLES
100
AcDbText
 10
3.91550923491166
 20
4.31835743194993
 30
0.0
 40
0.1250000000000002
  1
3
  7
ROMANS
 72
     4
 11
3.97503304443547
 21
4.38085743194993
 31
0.0
100
AcDbText
  0
CIRCLE
  5
23C
330
17
100
AcDbEntity
  8
TEXT_BUBBLES
100
AcDbCircle
 10
3.97503304443547
 20
4.38085743194993
 30
0.0
 40
0.1562500000000002
  0
TEXT
  5
23D
330
17
100
AcDbEntity
  8
TEXT_BUBBLES
100
AcDbText
 10
3.912579289312737
 20
3.960471556071574
 30
0.0
 40
0.1250000000000002
  1
4
  7
ROMANS
 72
     4
 11
3.975079289312737
 21
4.022971556071574
 31
0.0
100
AcDbText
  0
CIRCLE
  5
23E
330
17
100
AcDbEntity
  8
TEXT_BUBBLES
100
AcDbCircle
 10
3.975079289312737
 20
4.022971556071574
 30
0.0
 40
0.1562500000000002
  0
CIRCLE
  5
23F
330
17
100
AcDbEntity
  8
TEXT_BUBBLES
100
AcDbCircle
 10
3.975061362771055
 20
3.678090886629403
 30
0.0
 40
0.1562500000000002
  0
TEXT
  5
240
330
17
100
AcDbEntity
  8
TEXT_BUBBLES
100
AcDbText
 10
3.915537553247245
 20
3.615590886629403
 30
0.0
 40
0.1250000000000002
  1
5
  7
ROMANS
 72
     4
 11
3.975061362771055
 21
3.678090886629403
 31
0.0
100
AcDbText
  0
TEXT
  5
241
330
17
100
AcDbEntity
  8
TEXT_BUBBLES
100
AcDbText
 10
3.915462554861903
 20
3.210394276055449
 30
0.0
 40
0.1250000000000002
  1
3
  7
ROMANS
 72
     4
 11
3.974986364385713
 21
3.272894276055449
 31
0.0
100
AcDbText
  0
CIRCLE
  5
242
330
17
100
AcDbEntity
  8
TEXT_BUBBLES
100
AcDbCircle
 10
3.974986364385713
 20
3.272894276055449
 30
0.0
 40
0.1562500000000002
  0
TEXT
  5
243
330
17
100
AcDbEntity
  8
TEXT_BUBBLES
100
AcDbText
 10
3.430831687579319
 20
2.04414653523381
 30
0.0
 40
0.1250000000000002
  1
6
  7
ROMANS
 72
     4
 11
3.493331687579319
 21
2.10664653523381
 31
0.0
100
AcDbText
  0
CIRCLE
  5
244
330
17
100
AcDbEntity
  8
TEXT_BUBBLES
100
AcDbCircle
 10
3.493331687579319
 20
2.10664653523381
 30
0.0
 40
0.1562500000000002
  0
TEXT
  5
245
330
17
100
AcDbEntity
  8
TEXT_BUBBLES
100
AcDbText
 10
4.979857572548691
 20
2.043653861241747
 30
0.0
 40
0.1250000000000002
  1
5
  7
ROMANS
 72
     4
 11
5.0393813820725
 21
2.106153861241747
 31
0.0
100
AcDbText
  0
CIRCLE
  5
246
330
17
100
AcDbEntity
  8
TEXT_BUBBLES
100
AcDbCircle
 10
5.0393813820725
 20
2.106153861241747
 30
0.0
 40
0.1562500000000002
  0
TEXT
  5
247
330
17
100
AcDbEntity
  8
TEXT_BUBBLES
100
AcDbText
 10
3.915556156800285
 20
5.34615019017899
 30
0.0
 40
0.1250000000000002
  1
2
  7
ROMANS
 72
     4
 11
3.975079966324094
 21
5.40865019017899
 31
0.0
100
AcDbText
  0
CIRCLE
  5
248
330
17
100
AcDbEntity
  8
TEXT_BUBBLES
100
AcDbCircle
 10
3.975079966324094
 20
5.40865019017899
 30
0.0
 40
0.1562500000000002
  0
TEXT
  5
249
330
17
100
AcDbEntity
  8
TEXT_BUBBLES
100
AcDbText
 10
5.14145639
 20
6.192244511481814
 30
0.0
 40
0.125
  1
FINISH GRADE
  7
ROMANS
100
AcDbText
  0
TEXT
  5
24A
330
17
100
AcDbEntity
  8
TEXT_BUBBLES
100
AcDbText
 10
5.14145639
 20
5.136409994392617
 30
0.0
 40
0.125
  1
PVC SCH 80 NIPPLE
  7
ROMANS
100
AcDbText
  0
TEXT
  5
24B
330
17
100
AcDbEntity
  8
TEXT_BUBBLES
100
AcDbText
 10
5.14145639
 20
4.961409994392617
 30
0.0
 40
0.125
  1
  (LENGTH AS REQUIRED)
  7
ROMANS
100
AcDbText
  0
TEXT
  5
24C
330
17
100
AcDbEntity
  8
TEXT_BUBBLES
100
AcDbText
 10
4.853965554345094
 20
5.843005965174424
 30
0.0
 40
0.1250000000000002
  1
2
  7
ROMANS
 72
     4
 11
4.913489363868904
 21
5.905505965174424
 31
0.0
100
AcDbText
  0
CIRCLE
  5
24D
330
17
100
AcDbEntity
  8
TEXT_BUBBLES
100
AcDbCircle
 10
4.913489363868904
 20
5.905505965174424
 30
0.0
 40
0.1562500000000002
  0
CIRCLE
  5
24E
330
17
100
AcDbEntity
  8
TEXT_BUBBLES
100
AcDbCircle
 10
4.913489363868904
 20
5.203331989937386
 30
0.0
 40
0.1562500000000002
  0
TEXT
  5
24F
330
17
100
AcDbEntity
  8
TEXT_BUBBLES
100
AcDbText
 10
4.853965554345094
 20
5.140831989937386
 30
0.0
 40
0.1250000000000002
  1
3
  7
ROMANS
 72
     4
 11
4.913489363868904
 21
5.203331989937386
 31
0.0
100
AcDbText
  0
TEXT
  5
250
330
17
100
AcDbEntity
  8
TEXT_BUBBLES
100
AcDbText
 10
4.850989363868904
 20
4.615550981056923
 30
0.0
 40
0.1250000000000002
  1
4
  7
ROMANS
 72
     4
 11
4.913489363868904
 21
4.678050981056923
 31
0.0
100
AcDbText
  0
CIRCLE
  5
251
330
17
100
AcDbEntity
  8
TEXT_BUBBLES
100
AcDbCircle
 10
4.913489363868904
 20
4.678050981056923
 30
0.0
 40
0.1562500000000002
  0
CIRCLE
  5
252
330
17
100
AcDbEntity
  8
TEXT_BUBBLES
100
AcDbCircle
 10
4.913489363868904
 20
4.318166718072644
 30
0.0
 40
0.1562500000000002
  0
TEXT
  5
253
330
17
100
AcDbEntity
  8
TEXT_BUBBLES
100
AcDbText
 10
4.853965554345094
 20
4.255666718072644
 30
0.0
 40
0.1250000000000002
  1
5
  7
ROMANS
 72
     4
 11
4.913489363868904
 21
4.318166718072644
 31
0.0
100
AcDbText
  0
TEXT
  5
254
330
17
100
AcDbEntity
  8
TEXT_BUBBLES
100
AcDbText
 10
4.850989363868904
 20
3.910804050969099
 30
0.0
 40
0.1250000000000002
  1
6
  7
ROMANS
 72
     4
 11
4.913489363868904
 21
3.973304050969099
 31
0.0
100
AcDbText
  0
CIRCLE
  5
255
330
17
100
AcDbEntity
  8
TEXT_BUBBLES
100
AcDbCircle
 10
4.913489363868904
 20
3.973304050969099
 30
0.0
 40
0.1562500000000002
  0
CIRCLE
  5
256
330
17
100
AcDbEntity
  8
TEXT_BUBBLES
100
AcDbCircle
 10
4.913489363868904
 20
3.621462436052219
 30
0.0
 40
0.1562500000000002
  0
TEXT
  5
257
330
17
100
AcDbEntity
  8
TEXT_BUBBLES
100
AcDbText
 10
4.853965554345094
 20
3.558962436052219
 30
0.0
 40
0.1250000000000002
  1
7
  7
ROMANS
 72
     4
 11
4.913489363868904
 21
3.621462436052219
 31
0.0
100
AcDbText
  0
TEXT
  5
258
330
17
100
AcDbEntity
  8
TEXT_BUBBLES
100
AcDbText
 10
3.924685352617413
 20
6.543045694908345
 30
0.0
 40
0.1250000000000002
  1
1
  7
ROMANS
 72
     4
 11
3.975280590712651
 21
6.605545694908345
 31
0.0
100
AcDbText
  0
CIRCLE
  5
259
330
17
100
AcDbEntity
  8
TEXT_BUBBLES
100
AcDbCircle
 10
3.975280590712651
 20
6.605545694908345
 30
0.0
 40
0.1562500000000002
  0
TEXT
  5
271
330
17
100
AcDbEntity
  8
INSTRUCT-OPTION
100
AcDbText
 10
9.593671289999999
 20
5.15496067
 30
0.0
 40
0.125
  1

  7
ROMANS
100
AcDbText
  0
TEXT
  5
278
330
17
100
AcDbEntity
  8
INSTRUCT-OPTION
100
AcDbText
 10
10.29226781609859
 20
7.681359452499545
 30
0.0
 40
0.1250000018625002
  1
CHOOSING A DIFFERENT SPRINKLER MODEL
  7
ROMANS
100
AcDbText
  0
TEXT
  5
27A
330
17
100
AcDbEntity
  8
INSTRUCT-OPTION
100
AcDbText
 10
9.703398082469908
 20
7.172043257608391
 30
0.0
 40
0.1250000018625002
  1
ON THE APPROPRIATE LAYER:
  7
ROMANS
100
AcDbText
  0
TEXT
  5
27B
330
17
100
AcDbEntity
  8
INSTRUCT-OPTION
100
AcDbText
 10
9.703398082469908
 20
7.349418013944642
 30
0.0
 40
0.1250000018625002
  1
CHOOSE A DIFFERENT SPRINKLER MODEL BY TURNING
  7
ROMANS
100
AcDbText
  0
TEXT
  5
2B3
330
17
100
AcDbEntity
  8
OPTION-3504-PC-SAM-N
100
AcDbText
 10
5.141459594312271
 20
5.494225120117109
 30
0.0
 40
0.125
  1
  3504-PC-SAM-N
  7
ROMANS
100
AcDbText
  0
LINE
  5
2B6
330
17
100
AcDbEntity
  8
INSTRUCT-OPTION
100
AcDbLine
 10
9.58108902788677
 20
7.626486598478264
 30
0.0
 11
9.58108902788677
 21
5.610542894579086
 31
0.0
  0
LINE
  5
2B7
330
17
100
AcDbEntity
  8
INSTRUCT-OPTION
100
AcDbLine
 10
9.58108902788677
 20
5.610542894579086
 30
0.0
 11
15.5615704489244
 21
5.610542894579086
 31
0.0
  0
LINE
  5
2B8
330
17
100
AcDbEntity
  8
INSTRUCT-OPTION
100
AcDbLine
 10
15.5615704489244
 20
5.610542894579086
 30
0.0
 11
15.5615704489244
 21
7.626486598478264
 31
0.0
  0
LINE
  5
2B9
330
17
100
AcDbEntity
  8
INSTRUCT-OPTION
100
AcDbLine
 10
15.5615704489244
 20
7.626486598478264
 30
0.0
 11
9.58108902788677
 21
7.626486598478264
 31
0.0
  0
TEXT
  5
2BF
330
17
100
AcDbEntity
  8
INSTRUCT-OPTION
100
AcDbText
 10
12.67503329599328
 20
6.092070459049097
 30
0.0
 40
0.1250000018625002
  1
%%U3504-PC W/ N COVER
  7
ROMANS
100
AcDbText
  0
TEXT
  5
2C5
330
17
100
AcDbEntity
  8
INSTRUCT-OPTION
100
AcDbText
 10
9.703392341505898
 20
6.755482702804908
 30
0.0
 40
0.1250000018625002
  1
%%U3504-PC
  7
ROMANS
100
AcDbText
  0
TEXT
  5
2CB
330
17
100
AcDbEntity
  8
INSTRUCT-OPTION
100
AcDbText
 10
12.67503329599328
 20
6.738609654676428
 30
0.0
 40
0.1250000018625002
  1
%%U3504-PC-SAM W/ N COVER
  7
ROMANS
100
AcDbText
  0
TEXT
  5
2D4
330
17
100
AcDbEntity
  8
INSTRUCT-OPTION
100
AcDbText
 10
12.68650681632346
 20
5.839744435749958
 30
0.0
 40
0.1250000018625002
  1
  OPTION-3504-PC-N
  7
ROMANS
100
AcDbText
  0
TEXT
  5
2D9
330
17
100
AcDbEntity
  8
INSTRUCT-OPTION
100
AcDbText
 10
9.703392341505898
 20
6.526095411275703
 30
0.0
 40
0.1250000018625002
  1
  OPTION-3504-PC
  7
ROMANS
100
AcDbText
  0
TEXT
  5
2DC
330
17
100
AcDbEntity
  8
INSTRUCT-OPTION
100
AcDbText
 10
12.68650681632347
 20
6.509222363147221
 30
0.0
 40
0.1250000018625002
  1
  OPTION-3504-PC-SAM-N
  7
ROMANS
100
AcDbText
  0
LEADER
  5
362
330
17
100
AcDbEntity
  8
TEXT_BUBBLES
100
AcDbLeader
  3
STANDARD
 76
     2
 10
3.381634427890176
 20
6.170913317678305
 30
0.0
 10
3.840754145136183
 20
6.526068038044535
 30
0.0
1001
ACAD
1000
DSTYLE
1002
{
1070
   340
1005
1F
1070
   287
1070
     5
1002
}
  0
LEADER
  5
363
330
17
100
AcDbEntity
  8
TEXT_LEADERS
100
AcDbLeader
  3
STANDARD
 76
     3
 10
3.58399489966912
 20
6.167691687918517
 30
0.0
 10
4.835901947439789
 20
6.539736521008858
 30
0.0
 10
5.076807442300457
 20
6.539736521008858
 30
0.0
1001
ACAD
1000
DSTYLE
1002
{
1070
   340
1005
1F
1070
   287
1070
     5
1002
}
  0
TEXT
  5
3E2
330
17
100
AcDbEntity
  8
OPTION-3504-PC--N
100
AcDbText
 10
5.141459594312271
 20
5.494225120117109
 30
0.0
 40
0.125
  1
  3504-PC-NP
  7
ROMANS
100
AcDbText
  0
TEXT
  5
3E4
330
17
100
AcDbEntity
  8
OPTION-3504-PC-SAM
100
AcDbText
 10
5.141459594312271
 20
5.494225120117109
 30
0.0
 40
0.125
  1
  3504-PC-SAM
  7
ROMANS
100
AcDbText
  0
SOLID
  5
554
330
17
100
AcDbEntity
  8
INSTRUCT-CALLOUT
100
AcDbTrace
 10
13.46400105244983
 20
8.727207757053118
 30
0.0
 11
13.47980334610417
 21
8.669326088838889
 31
0.0
 12
13.29825719463432
 22
8.650860041982987
 32
0.0
 13
13.29825719463432
 23
8.650860041982987
 33
0.0
  0
LINE
  5
555
330
17
100
AcDbEntity
  8
INSTRUCT-CALLOUT
100
AcDbLine
 10
13.39472664165803
 20
8.677197198073553
 30
0.0
 11
13.65060805858288
 21
8.747055469538171
 31
0.0
  0
TEXT
  5
556
330
17
100
AcDbEntity
  8
INSTRUCT-CALLOUT
100
AcDbText
 10
13.75074633146219
 20
8.725707275929678
 30
0.0
 40
0.125
  1
1
  7
ROMANS
 72
     4
 11
13.80134156955743
 21
8.788207275929678
 31
0.0
100
AcDbText
  0
CIRCLE
  5
557
330
17
100
AcDbEntity
  8
INSTRUCT-CALLOUT
100
AcDbCircle
 10
13.80134156955743
 20
8.788207275929678
 30
0.0
 40
0.15625
  0
LWPOLYLINE
  5
558
330
17
100
AcDbEntity
  8
INSTRUCT-CALLOUT
100
AcDbPolyline
 90
        4
 70
     1
 43
0.0
 10
10.68260510622349
 20
9.898879262867588
 10
10.68260510622349
 20
8.467393241525345
 10
15.5615704489244
 20
8.467393241525345
 10
15.5615704489244
 20
9.898879262867588
  0
TEXT
  5
559
330
17
100
AcDbEntity
  8
INSTRUCT-CALLOUT
100
AcDbText
 10
10.72163245201879
 20
9.955994750301037
 30
0.0
 40
0.125
  1
CHOOSING EQUIPMENT CALLOUT METHOD
  7
ROMANS
100
AcDbText
  0
TEXT
  5
55A
330
17
100
AcDbEntity
  8
INSTRUCT-CALLOUT
100
AcDbText
 10
10.72163245201879
 20
9.605994750301036
 30
0.0
 40
0.125
  1
CHOOSE EITHER LEADERS OR BUBBLE CALLOUTS
  7
ROMANS
100
AcDbText
  0
TEXT
  5
55B
330
17
100
AcDbEntity
  8
INSTRUCT-CALLOUT
100
AcDbText
 10
10.72163245201879
 20
9.430994750301039
 30
0.0
 40
0.125
  1
BY TURNING ON THE APPROPRIATE LAYER:
  7
ROMANS
100
AcDbText
  0
TEXT
  5
55C
330
17
100
AcDbEntity
  8
INSTRUCT-CALLOUT
100
AcDbText
 10
10.72163245201879
 20
9.080994750301034
 30
0.0
 40
0.125
  1
TEXT_LEADERS         TEXT_BUBBLES
  7
ROMANS
100
AcDbText
  0
LINE
  5
55D
330
17
100
AcDbEntity
  8
INSTRUCT-CALLOUT
100
AcDbLine
 10
11.5239161413384
 20
8.830495098446114
 30
0.0
 11
11.66018468719703
 21
8.830495098446114
 31
0.0
  0
LINE
  5
55E
330
17
100
AcDbEntity
  8
INSTRUCT-CALLOUT
100
AcDbLine
 10
11.23614572686008
 20
8.710743396639834
 30
0.0
 11
11.5239161413384
 21
8.830495098446114
 31
0.0
  0
SOLID
  5
55F
330
17
100
AcDbEntity
  8
INSTRUCT-CALLOUT
100
AcDbTrace
 10
11.32153172440041
 20
8.713781722501721
 30
0.0
 11
11.29847983950867
 21
8.769176763822567
 31
0.0
 12
11.143820657992
 22
8.672323588486946
 32
0.0
 13
11.143820657992
 23
8.672323588486946
 33
0.0
  0
TEXT
  5
560
330
17
100
AcDbEntity
  8
INSTRUCT-CALLOUT
100
AcDbText
 10
11.68615942421416
 20
8.765744489052213
 30
0.0
 40
0.125
  1
ITEM 1
  7
ROMANS
100
AcDbText
  0
TEXT
  5
561
330
17
100
AcDbEntity
  8
INSTRUCT-CALLOUT
100
AcDbText
 10
10.72163245201879
 20
8.086437134824214
 30
0.0
 40
0.125
  1
LAYER "INSTRUCT-CALLOUT".
  7
ROMANS
100
AcDbText
  0
TEXT
  5
562
330
17
100
AcDbEntity
  8
INSTRUCT-CALLOUT
100
AcDbText
 10
10.72163245201879
 20
8.261437134824214
 30
0.0
 40
0.125
  1
TO TURN OFF THIS INSTRUCTION BOX, TURN OFF
  7
ROMANS
100
AcDbText
  0
LEADER
  5
570
330
17
100
AcDbEntity
  8
TEXT_LEADERS
100
AcDbLeader
  3
STANDARD
 76
     3
 10
1.820050003645934
 20
5.036551697572573
 30
0.0
 10
4.835901947439789
 20
5.91917317658888
 30
0.0
 10
5.076807442300457
 20
5.91917317658888
 30
0.0
1001
ACAD
1000
DSTYLE
1002
{
1070
   340
1005
1F
1070
   287
1070
     5
1002
}
  0
LEADER
  5
572
330
17
100
AcDbEntity
  8
TEXT_LEADERS
100
AcDbLeader
  3
STANDARD
 76
     3
 10
1.666240777654552
 20
3.862752951348896
 30
0.0
 10
4.835901947439789
 20
5.014604099984556
 30
0.0
 10
5.07519778890059
 20
5.014604099984556
 30
0.0
1001
ACAD
1000
DSTYLE
1002
{
1070
   340
1005
1F
1002
}
  0
LEADER
  5
573
330
17
100
AcDbEntity
  8
TEXT_LEADERS
100
AcDbLeader
  3
STANDARD
 76
     3
 10
1.691120109631762
 20
3.370022330994119
 30
0.0
 10
4.835901947439789
 20
4.490838376571495
 30
0.0
 10
5.07519778890059
 20
4.490838376571495
 30
0.0
1001
ACAD
1000
DSTYLE
1002
{
1070
   340
1005
1F
1002
}
  0
LEADER
  5
574
330
17
100
AcDbEntity
  8
TEXT_LEADERS
100
AcDbLeader
  3
STANDARD
 76
     3
 10
1.911297842375001
 20
3.231589278672398
 30
0.0
 10
4.835901947439789
 20
4.141661234330292
 30
0.0
 10
5.07519778890059
 20
4.141661234330292
 30
0.0
1001
ACAD
1000
DSTYLE
1002
{
1070
   340
1005
1F
1002
}
  0
LEADER
  5
575
330
17
100
AcDbEntity
  8
TEXT_LEADERS
100
AcDbLeader
  3
STANDARD
 76
     3
 10
3.105200663121468
 20
2.96237195053781
 30
0.0
 10
4.835901947439789
 20
3.616195401533677
 30
0.0
 10
5.07519778890059
 20
3.616195401533677
 30
0.0
1001
ACAD
1000
DSTYLE
1002
{
1070
   340
1005
1F
1002
}
  0
LEADER
  5
576
330
17
100
AcDbEntity
  8
TEXT_LEADERS
100
AcDbLeader
  3
STANDARD
 76
     3
 10
3.996292772666898
 20
2.789290942264285
 30
0.0
 10
4.835901947439789
 20
3.091463853080026
 30
0.0
 10
5.07519778890059
 20
3.091463853080026
 30
0.0
1001
ACAD
1000
DSTYLE
1002
{
1070
   340
1005
1F
1002
}
  0
LEADER
  5
577
330
17
100
AcDbEntity
  8
TEXT_LEADERS
100
AcDbLeader
  3
STANDARD
 76
     3
 10
4.260316780796568
 20
2.417756592015983
 30
0.0
 10
4.835901947439789
 20
2.043066326368676
 30
0.0
 10
5.088550421370267
 20
2.043066326368676
 30
0.0
1001
ACAD
1000
DSTYLE
1002
{
1070
   340
1005
1F
1002
}
  0
LEADER
  5
578
330
17
100
AcDbEntity
  8
TEXT_LEADERS
100
AcDbLeader
  3
STANDARD
 76
     3
 10
3.31510018545003
 20
2.454192085077948
 30
0.0
 10
4.835901947439789
 20
1.53560292115573
 30
0.0
 10
5.127440264081077
 20
1.53560292115573
 30
0.0
1001
ACAD
1000
DSTYLE
1002
{
1070
   340
1005
1F
1002
}
  0
LINE
  5
57A
330
17
100
AcDbEntity
  8
IMAGE
100
AcDbLine
 10
1.820050003645934
 20
5.819563407128013
 30
0.0
 11
1.820050003645934
 21
4.065956173908828
 31
0.0
  0
LINE
  5
57B
330
17
100
AcDbEntity
  8
IMAGE
100
AcDbLine
 10
1.238917343474819
 20
5.819563407128013
 30
0.0
 11
1.238917343474819
 21
4.065956173908828
 31
0.0
  0
HATCH
  5
57C
330
17
100
AcDbEntity
  8
IMAGE
100
AcDbHatch
 10
0.0
 20
0.0
 30
0.0
210
0.0
220
0.0
230
1.0
  2
EARTH
 70
     0
 71
     0
 91
        2
 92
        7
 72
     1
 73
     1
 93
       15
 10
1.178518724299732
 20
6.044609985786134
 42
-0.215532805524378
 10
1.188490532884358
 20
6.066668285157153
 42
0.0
 10
1.300948357762751
 20
6.165631171050138
 42
0.0
 10
0.4423489585226191
 20
6.167324301089202
 42
0.0
 10
0.4573805176093682
 20
6.102109160713056
 42
0.0
 10
0.4831069988300301
 20
5.978197503695483
 42
0.0
 10
0.5836741252354815
 20
5.872989481163208
 42
0.0
 10
0.6164169195163242
 20
5.751415776211925
 42
0.0
 10
0.6702086529777047
 20
5.604124562621572
 42
0.0
 10
0.7731145778603478
 20
5.557365449476037
 42
0.0
 10
0.9812651986456987
 20
5.557365449476037
 42
0.0
 10
1.105220062708881
 20
5.477874953537669
 42
0.0
 10
1.238917343474819
 20
5.4544953969649
 42
0.0
 10
1.238917343474819
 20
5.819563407128013
 42
0.0
 10
1.178518724299731
 20
5.819563407128013
 42
0.0
 97
        0
 92
        7
 72
     1
 73
     1
 93
       15
 10
2.475293221885258
 20
5.872989481163208
 42
0.0
 10
2.575860348290708
 20
5.978197503695482
 42
0.0
 10
2.601586829511369
 20
6.10210916071306
 42
0.0
 10
2.616451412312717
 20
6.16659986646275
 42
0.0
 10
1.758018989358006
 20
6.165631171050137
 42
0.0
 10
1.870476814236395
 20
6.066668285157153
 42
-0.2155328055243939
 10
1.880448622821022
 20
6.044609985786133
 42
0.0
 10
1.880448622821022
 20
5.819563407128013
 42
0.0
 10
1.820050003645934
 20
5.819563407128013
 42
0.0
 10
1.820050003645934
 20
5.454495396964904
 42
0.0
 10
1.953747284411857
 20
5.477874953537668
 42
0.0
 10
2.077702148475039
 20
5.557365449476037
 42
0.0
 10
2.285852769260389
 20
5.557365449476038
 42
0.0
 10
2.388758694143033
 20
5.60412456262157
 42
0.0
 10
2.442550427604417
 20
5.751415776211933
 42
0.0
 97
        0
 75
     0
 76
     1
 52
45.0
 41
0.65
 77
     0
 78
     6
 53
45.0
 43
0.000000000000002
 44
0.0000000000000053
 45
0.0
 46
0.2298097038856279
 79
     2
 49
0.1625
 49
-0.1625
 53
45.0
 43
-0.0430893194785533
 44
0.0430893194785607
 45
0.0
 46
0.2298097038856279
 79
     2
 49
0.1625
 49
-0.1625
 53
45.0
 43
-0.0861786389571084
 44
0.086178638957116
 45
0.0
 46
0.2298097038856279
 79
     2
 49
0.1625
 49
-0.1625
 53
135.0
 43
-0.0861786389571084
 44
0.1149048519428195
 45
-0.2298097038856279
 46
0.0
 79
     2
 49
0.1625
 49
-0.1625
 53
135.0
 43
-0.0430893194785533
 44
0.1579941714213744
 45
-0.2298097038856279
 46
0.0
 79
     2
 49
0.1625
 49
-0.1625
 53
135.0
 43
0.000000000000002
 44
0.2010834908999297
 45
-0.2298097038856279
 46
0.0
 79
     2
 49
0.1625
 49
-0.1625
 47
0.0023379558272417
 98
        2
 10
0.8432777084621518
 20
6.027294568907326
 10
2.316703423642882
 20
5.83792014630406
  0
LINE
  5
57D
330
17
100
AcDbEntity
  8
IMAGE
100
AcDbLine
 10
1.758018989358006
 20
6.165631171050136
 30
0.0
 11
3.58399489966912
 21
6.167691687918517
 31
0.0
  0
LINE
  5
57E
330
17
100
AcDbEntity
  8
IMAGE
100
AcDbLine
 10
2.242620448902599
 20
6.548372744939716
 30
0.0
 11
2.333821521337645
 21
6.167324301089201
 31
0.0
  0
LINE
  5
57F
330
17
100
AcDbEntity
  8
IMAGE
100
AcDbLine
 10
1.333596260019552
 20
6.165631171050136
 30
0.0
 11
0.280315660562767
 21
6.167691687918517
 31
0.0
  0
LINE
  5
580
330
17
100
AcDbEntity
  8
IMAGE
100
AcDbLine
 10
1.870734035228036
 20
6.001085743675846
 30
0.0
 11
1.868356831083488
 21
5.817701423953582
 31
0.0
  0
LINE
  5
581
330
17
100
AcDbEntity
  8
IMAGE
100
AcDbLine
 10
1.834818325516449
 20
6.001085743675846
 30
0.0
 11
1.832447155576632
 21
5.818166919747191
 31
0.0
  0
LINE
  5
582
330
17
100
AcDbEntity
  8
IMAGE
100
AcDbLine
 10
1.7628213069878
 20
6.001085743675846
 30
0.0
 11
1.765192476927616
 21
5.818166919747191
 31
0.0
  0
LINE
  5
583
330
17
100
AcDbEntity
  8
IMAGE
100
AcDbLine
 10
1.655092280720707
 20
6.001085743675846
 30
0.0
 11
1.657457416455791
 21
5.818632415540799
 31
0.0
  0
LINE
  5
584
330
17
100
AcDbEntity
  8
IMAGE
100
AcDbLine
 10
1.727077230839892
 20
6.001085743675846
 30
0.0
 11
1.724712095104808
 21
5.818632415540799
 31
0.0
  0
LINE
  5
585
330
17
100
AcDbEntity
  8
IMAGE
100
AcDbLine
 10
1.547363254453614
 20
6.001085743675846
 30
0.0
 11
1.549722355983966
 21
5.819097911334407
 31
0.0
  0
LINE
  5
586
330
17
100
AcDbEntity
  8
IMAGE
100
AcDbLine
 10
1.619336136163335
 20
6.001085743675846
 30
0.0
 11
1.616977034632983
 21
5.819097911334407
 31
0.0
  0
LINE
  5
587
330
17
100
AcDbEntity
  8
IMAGE
100
AcDbLine
 10
1.511595041486778
 20
6.001085743675846
 30
0.0
 11
1.509241974161158
 21
5.819563407128013
 31
0.0
  0
LINE
  5
588
330
17
100
AcDbEntity
  8
IMAGE
100
AcDbLine
 10
1.1884079626855
 20
6.001085743675846
 30
0.0
 11
1.186036792745684
 21
5.818166919747191
 31
0.0
  0
LINE
  5
589
330
17
100
AcDbEntity
  8
IMAGE
100
AcDbLine
 10
1.296136988952593
 20
6.001085743675846
 30
0.0
 11
1.293771853217508
 21
5.818632415540799
 31
0.0
  0
LINE
  5
58A
330
17
100
AcDbEntity
  8
IMAGE
100
AcDbLine
 10
1.224152038833408
 20
6.001085743675846
 30
0.0
 11
1.226517174568492
 21
5.818632415540799
 31
0.0
  0
LINE
  5
58B
330
17
100
AcDbEntity
  8
IMAGE
100
AcDbLine
 10
1.403866015219686
 20
6.001085743675846
 30
0.0
 11
1.401506913689333
 21
5.819097911334407
 31
0.0
  0
LINE
  5
58C
330
17
100
AcDbEntity
  8
IMAGE
100
AcDbLine
 10
1.331893133509965
 20
6.001085743675846
 30
0.0
 11
1.334252235040317
 21
5.819097911334407
 31
0.0
  0
LINE
  5
58D
330
17
100
AcDbEntity
  8
IMAGE
100
AcDbLine
 10
1.439634228186521
 20
6.001085743675846
 30
0.0
 11
1.441987295512141
 21
5.819563407128013
 31
0.0
  0
LINE
  5
58E
330
17
100
AcDbEntity
  8
IMAGE
100
AcDbLine
 10
1.880448622821022
 20
5.819563407128013
 30
0.0
 11
1.880448622821022
 21
6.044609985786134
 31
0.0
  0
LINE
  5
58F
330
17
100
AcDbEntity
  8
IMAGE
100
AcDbLine
 10
1.178518724299731
 20
5.819563407128013
 30
0.0
 11
1.178518724299732
 21
6.044609985786134
 31
0.0
  0
LINE
  5
590
330
17
100
AcDbEntity
  8
IMAGE
100
AcDbLine
 10
1.880448622821022
 20
5.819563407128013
 30
0.0
 11
1.178518724299731
 21
5.819563407128013
 31
0.0
  0
LINE
  5
591
330
17
100
AcDbEntity
  8
IMAGE
100
AcDbLine
 10
1.30358459352752
 20
6.057893093602682
 30
0.0
 11
1.344326310179641
 21
6.067687464279724
 31
0.0
  0
LINE
  5
592
330
17
100
AcDbEntity
  8
IMAGE
100
AcDbLine
 10
1.421271067470108
 20
6.057893093602682
 30
0.0
 11
1.30358459352752
 21
6.057893093602682
 31
0.0
  0
LINE
  5
593
330
17
100
AcDbEntity
  8
IMAGE
100
AcDbLine
 10
1.331893133509965
 20
6.001085743675846
 30
0.0
 11
1.296136988952593
 21
6.001085743675846
 31
0.0
  0
LINE
  5
594
330
17
100
AcDbEntity
  8
IMAGE
100
AcDbLine
 10
1.344326310179641
 20
6.165631171050138
 30
0.0
 11
1.281009167950615
 21
6.044833932699961
 31
0.0
  0
LINE
  5
595
330
17
100
AcDbEntity
  8
IMAGE
100
AcDbLine
 10
1.333596260019551
 20
6.165631171050138
 30
0.0
 11
1.270279117790525
 21
6.044833932699961
 31
0.0
  0
LINE
  5
596
330
17
100
AcDbEntity
  8
IMAGE
100
AcDbLine
 10
1.418482997021622
 20
6.019695047962223
 30
0.0
 11
1.296121353827313
 21
6.019695047962223
 31
0.0
  0
LINE
  5
597
330
17
100
AcDbEntity
  8
IMAGE
100
AcDbLine
 10
1.758018989358006
 20
6.165631171050136
 30
0.0
 11
1.300948357762747
 21
6.165631171050138
 31
0.0
  0
LINE
  5
598
330
17
100
AcDbEntity
  8
IMAGE
100
AcDbLine
 10
0.8278508806576251
 20
6.621651291834048
 30
0.0
 11
0.8278508806576251
 21
6.167324301089184
 31
0.0
  0
LINE
  5
599
330
17
100
AcDbEntity
  8
IMAGE
100
AcDbLine
 10
0.6301963814098497
 20
6.621651291834048
 30
0.0
 11
0.6301963814098497
 21
6.167324301089184
 31
0.0
  0
LINE
  5
59A
330
17
100
AcDbEntity
  8
IMAGE
100
AcDbLine
 10
0.6371577292025319
 20
6.489749907424254
 30
0.0
 11
0.8978093149192613
 21
6.167324301089184
 31
0.0
  0
LINE
  5
59B
330
17
100
AcDbEntity
  8
IMAGE
100
AcDbLine
 10
0.9459744610835267
 20
6.592339873076324
 30
0.0
 11
0.7434066445194924
 21
6.167324301089184
 31
0.0
  0
LINE
  5
59C
330
17
100
AcDbEntity
  8
IMAGE
100
AcDbLine
 10
0.6872995503895292
 20
6.569810797185395
 30
0.0
 11
0.7363832694256556
 21
6.167324301089184
 31
0.0
  0
LINE
  5
59D
330
17
100
AcDbEntity
  8
IMAGE
100
AcDbLine
 10
0.4354365064097903
 20
6.551353376547844
 30
0.0
 11
0.5338760831433726
 21
6.176052490251128
 31
0.0
  0
LINE
  5
59E
330
17
100
AcDbEntity
  8
IMAGE
100
AcDbLine
 10
0.6384681334227802
 20
6.545200903002009
 30
0.0
 11
0.6738940648521032
 21
6.167324301089184
 31
0.0
  0
LINE
  5
59F
330
17
100
AcDbEntity
  8
IMAGE
100
AcDbLine
 10
0.5499194542152464
 20
6.548372744939716
 30
0.0
 11
0.6411205266502873
 21
6.167324301089201
 31
0.0
  0
LINE
  5
5A0
330
17
100
AcDbEntity
  8
IMAGE
100
AcDbLine
 10
0.550261723974256
 20
6.539048429456157
 30
0.0
 11
0.5150986307503623
 21
6.167324301089184
 31
0.0
  0
LINE
  5
5A1
330
17
100
AcDbEntity
  8
IMAGE
100
AcDbLine
 10
0.6793463188054117
 20
6.592339873076324
 30
0.0
 11
0.4767785022413769
 21
6.167324301089184
 31
0.0
  0
LINE
  5
5A2
330
17
100
AcDbEntity
  8
IMAGE
100
AcDbLine
 10
0.7357439929756749
 20
6.551353376547844
 30
0.0
 11
0.83418356970925
 21
6.176052490251128
 31
0.0
  0
LINE
  5
5A3
330
17
100
AcDbEntity
  8
IMAGE
100
AcDbLine
 10
0.9333984922234503
 20
6.551353376547844
 30
0.0
 11
1.031838068957025
 21
6.176052490251128
 31
0.0
  0
LINE
  5
5A4
330
17
100
AcDbEntity
  8
IMAGE
100
AcDbLine
 10
1.136430119236433
 20
6.545200903002009
 30
0.0
 11
1.171856050665756
 21
6.167324301089184
 31
0.0
  0
LINE
  5
5A5
330
17
100
AcDbEntity
  8
IMAGE
100
AcDbLine
 10
1.267911999400159
 20
6.606995582455191
 30
0.0
 11
1.161971359702892
 21
6.167324301089184
 31
0.0
  0
LINE
  5
5A6
330
17
100
AcDbEntity
  8
IMAGE
100
AcDbLine
 10
1.047881440028899
 20
6.548372744939716
 30
0.0
 11
1.139082512463947
 21
6.167324301089201
 31
0.0
  0
LINE
  5
5A7
330
17
100
AcDbEntity
  8
IMAGE
100
AcDbLine
 10
1.20378880781195
 20
6.545200903002009
 30
0.0
 11
1.23921473924128
 21
6.167324301089184
 31
0.0
  0
LINE
  5
5A8
330
17
100
AcDbEntity
  8
IMAGE
100
AcDbLine
 10
1.117197352818255
 20
6.539048429456157
 30
0.0
 11
1.082034259594355
 21
6.167324301089184
 31
0.0
  0
LINE
  5
5A9
330
17
100
AcDbEntity
  8
IMAGE
100
AcDbLine
 10
1.070257500152383
 20
6.606995582455191
 30
0.0
 11
0.9643168604551101
 21
6.167324301089184
 31
0.0
  0
LINE
  5
5AA
330
17
100
AcDbEntity
  8
IMAGE
100
AcDbLine
 10
0.8502269407811235
 20
6.548372744939716
 30
0.0
 11
0.9414280132161717
 21
6.167324301089201
 31
0.0
  0
LINE
  5
5AB
330
17
100
AcDbEntity
  8
IMAGE
100
AcDbLine
 10
1.246281947649404
 20
6.592339873076324
 30
0.0
 11
1.04371413108537
 21
6.167324301089184
 31
0.0
  0
LINE
  5
5AC
330
17
100
AcDbEntity
  8
IMAGE
100
AcDbLine
 10
1.188490532884358
 20
6.066668285157153
 30
0.0
 11
1.300948357762747
 21
6.165631171050136
 31
0.0
  0
LINE
  5
5AD
330
17
100
AcDbEntity
  8
IMAGE
100
AcDbLine
 10
1.270279117790525
 20
6.019695047962223
 30
0.0
 11
1.178518724299731
 21
6.019695047962223
 31
0.0
  0
LINE
  5
5AE
330
17
100
AcDbEntity
  8
IMAGE
100
AcDbLine
 10
1.192905196771828
 20
6.057893093602682
 30
0.0
 11
1.281504341276819
 21
6.066249554903866
 31
0.0
  0
LINE
  5
5AF
330
17
100
AcDbEntity
  8
IMAGE
100
AcDbLine
 10
1.277124214247717
 20
6.057893093602682
 30
0.0
 11
1.192905196771828
 21
6.057893093602682
 31
0.0
  0
LINE
  5
5B0
330
17
100
AcDbEntity
  8
IMAGE
100
AcDbLine
 10
1.224152038833408
 20
6.001085743675846
 30
0.0
 11
1.1884079626855
 21
6.001085743675846
 31
0.0
  0
LINE
  5
5B1
330
17
100
AcDbEntity
  8
IMAGE
100
AcDbLine
 10
1.178518724299731
 20
6.019695047962223
 30
0.0
 11
1.192905196771828
 21
6.057893093602682
 31
0.0
  0
ARC
  5
5B2
330
17
100
AcDbEntity
  8
IMAGE
100
AcDbCircle
 10
1.207901836330856
 20
6.044609985786134
 30
0.0
 40
0.0293831120311238
100
AcDbArc
 50
131.3477772196934
 51
180.0
  0
LINE
  5
5B3
330
17
100
AcDbEntity
  8
IMAGE
100
AcDbLine
 10
1.296121353827313
 20
6.019695047962223
 30
0.0
 11
1.30358459352752
 21
6.057893093602682
 31
0.0
  0
LINE
  5
5B4
330
17
100
AcDbEntity
  8
IMAGE
100
AcDbLine
 10
1.281009167950615
 20
6.044833932699961
 30
0.0
 11
1.270279117790525
 21
6.044833932699961
 31
0.0
  0
LINE
  5
5B5
330
17
100
AcDbEntity
  8
IMAGE
100
AcDbLine
 10
1.296121353827313
 20
6.019695047962223
 30
0.0
 11
1.281009167950615
 21
6.01969504796222
 31
0.0
  0
LINE
  5
5B6
330
17
100
AcDbEntity
  8
IMAGE
100
AcDbLine
 10
1.270279117790525
 20
6.044833932699961
 30
0.0
 11
1.270279117790525
 21
6.019695047962223
 31
0.0
  0
LINE
  5
5B7
330
17
100
AcDbEntity
  8
IMAGE
100
AcDbLine
 10
1.281009167950615
 20
6.044833932699961
 30
0.0
 11
1.281009167950615
 21
6.019695047962223
 31
0.0
  0
LINE
  5
5B8
330
17
100
AcDbEntity
  8
IMAGE
100
AcDbLine
 10
2.21905273120994
 20
6.621651291834048
 30
0.0
 11
2.21905273120994
 21
6.167324301089184
 31
0.0
  0
LINE
  5
5B9
330
17
100
AcDbEntity
  8
IMAGE
100
AcDbLine
 10
2.022589889531328
 20
6.621651291834048
 30
0.0
 11
2.022589889531328
 21
6.167324301089184
 31
0.0
  0
LINE
  5
5BA
330
17
100
AcDbEntity
  8
IMAGE
100
AcDbLine
 10
1.944004752859882
 20
6.621651291834048
 30
0.0
 11
1.944004752859882
 21
6.167324301089184
 31
0.0
  0
LINE
  5
5BB
330
17
100
AcDbEntity
  8
IMAGE
100
AcDbLine
 10
1.866062150348925
 20
6.057893093602682
 30
0.0
 11
1.777463005843935
 21
6.066249554903866
 31
0.0
  0
LINE
  5
5BC
330
17
100
AcDbEntity
  8
IMAGE
100
AcDbLine
 10
1.777958179170138
 20
6.044833932699961
 30
0.0
 11
1.788688229330228
 21
6.044833932699961
 31
0.0
  0
LINE
  5
5BD
330
17
100
AcDbEntity
  8
IMAGE
100
AcDbLine
 10
1.870476814236396
 20
6.066668285157153
 30
0.0
 11
1.758018989358006
 21
6.165631171050136
 31
0.0
  0
LINE
  5
5BE
330
17
100
AcDbEntity
  8
IMAGE
100
AcDbLine
 10
1.725371087101202
 20
6.165631171050138
 30
0.0
 11
1.788688229330228
 21
6.044833932699961
 31
0.0
  0
LINE
  5
5BF
330
17
100
AcDbEntity
  8
IMAGE
100
AcDbLine
 10
1.616985187819022
 20
6.019695047962223
 30
0.0
 11
1.44198215930173
 21
6.019695047962223
 31
0.0
  0
LINE
  5
5C0
330
17
100
AcDbEntity
  8
IMAGE
100
AcDbLine
 10
1.529483673560377
 20
6.057893093602685
 30
0.0
 11
1.602598715346926
 21
6.057893093602685
 31
0.0
  0
LINE
  5
5C1
330
17
100
AcDbEntity
  8
IMAGE
100
AcDbLine
 10
1.591195536170528
 20
6.067687464279722
 30
0.0
 11
1.529483673560377
 21
6.067687464279724
 31
0.0
  0
LINE
  5
5C2
330
17
100
AcDbEntity
  8
IMAGE
100
AcDbLine
 10
1.547363254453615
 20
6.001085743675846
 30
0.0
 11
1.511595041486778
 21
6.001085743675846
 31
0.0
  0
LINE
  5
5C3
330
17
100
AcDbEntity
  8
IMAGE
100
AcDbLine
 10
1.741695038229597
 20
6.165631171050138
 30
0.0
 11
1.317272308891142
 21
6.165631171050138
 31
0.0
  0
LINE
  5
5C4
330
17
100
AcDbEntity
  8
IMAGE
100
AcDbLine
 10
1.741695038229597
 20
6.214603024435344
 30
0.0
 11
1.317272308891142
 21
6.214603024435344
 31
0.0
  0
LINE
  5
5C5
330
17
100
AcDbEntity
  8
IMAGE
100
AcDbLine
 10
1.344326310179641
 20
6.165631171050138
 30
0.0
 11
1.344326310179641
 21
6.067687464279724
 31
0.0
  0
LINE
  5
5C6
330
17
100
AcDbEntity
  8
IMAGE
100
AcDbLine
 10
1.467771810950226
 20
6.165631171050136
 30
0.0
 11
1.467771810950226
 21
6.067687464279724
 31
0.0
  0
LINE
  5
5C7
330
17
100
AcDbEntity
  8
IMAGE
100
AcDbLine
 10
1.467771810950226
 20
6.165631171050136
 30
0.0
 11
1.441982159301731
 21
6.044833932699964
 31
0.0
  0
LINE
  5
5C8
330
17
100
AcDbEntity
  8
IMAGE
100
AcDbLine
 10
1.444272648670118
 20
6.165631171050136
 30
0.0
 11
1.418482997021622
 21
6.044833932699964
 31
0.0
  0
LINE
  5
5C9
330
17
100
AcDbEntity
  8
IMAGE
100
AcDbLine
 10
1.439634228186521
 20
6.001085743675846
 30
0.0
 11
1.403866015219686
 21
6.001085743675846
 31
0.0
  0
LINE
  5
5CA
330
17
100
AcDbEntity
  8
IMAGE
100
AcDbLine
 10
1.441982159301731
 20
6.044833932699964
 30
0.0
 11
1.418482997021622
 21
6.044833932699964
 31
0.0
  0
LINE
  5
5CB
330
17
100
AcDbEntity
  8
IMAGE
100
AcDbLine
 10
1.418482997021622
 20
6.044833932699961
 30
0.0
 11
1.418482997021622
 21
6.019695047962223
 31
0.0
  0
LINE
  5
5CC
330
17
100
AcDbEntity
  8
IMAGE
100
AcDbLine
 10
1.344326310179641
 20
6.067687464279724
 30
0.0
 11
1.423362120306473
 21
6.067687464279722
 31
0.0
  0
LINE
  5
5CD
330
17
100
AcDbEntity
  8
IMAGE
100
AcDbLine
 10
1.456368631773827
 20
6.057893093602685
 30
0.0
 11
1.467771810950226
 21
6.067687464279724
 31
0.0
  0
LINE
  5
5CE
330
17
100
AcDbEntity
  8
IMAGE
100
AcDbLine
 10
1.441982159301731
 20
6.019695047962223
 30
0.0
 11
1.456368631773827
 21
6.057893093602685
 31
0.0
  0
LINE
  5
5CF
330
17
100
AcDbEntity
  8
IMAGE
100
AcDbLine
 10
1.441982159301731
 20
6.044833932699964
 30
0.0
 11
1.441982159301731
 21
6.019695047962223
 31
0.0
  0
LINE
  5
5D0
330
17
100
AcDbEntity
  8
IMAGE
100
AcDbLine
 10
1.529483673560377
 20
6.057893093602685
 30
0.0
 11
1.456368631773827
 21
6.057893093602685
 31
0.0
  0
LINE
  5
5D1
330
17
100
AcDbEntity
  8
IMAGE
100
AcDbLine
 10
1.467771810950226
 20
6.067687464279722
 30
0.0
 11
1.529483673560377
 21
6.067687464279724
 31
0.0
  0
LINE
  5
5D2
330
17
100
AcDbEntity
  8
IMAGE
100
AcDbLine
 10
1.318696779404219
 20
6.165631171050136
 30
0.0
 11
1.318696779404219
 21
6.137205754996551
 31
0.0
  0
LINE
  5
5D3
330
17
100
AcDbEntity
  8
IMAGE
100
AcDbLine
 10
1.371603688668729
 20
6.165631171050138
 30
0.0
 11
1.371603688668729
 21
6.165631171050138
 31
0.0
  0
LINE
  5
5D4
330
17
100
AcDbEntity
  8
IMAGE
100
AcDbLine
 10
1.317272308891142
 20
6.165631171050138
 30
0.0
 11
1.317272308891142
 21
6.214603024435344
 31
0.0
  0
LINE
  5
5D5
330
17
100
AcDbEntity
  8
IMAGE
100
AcDbLine
 10
1.714641036941112
 20
6.165631171050138
 30
0.0
 11
1.714641036941112
 21
6.067687464279724
 31
0.0
  0
LINE
  5
5D6
330
17
100
AcDbEntity
  8
IMAGE
100
AcDbLine
 10
1.714641036941112
 20
6.165631171050138
 30
0.0
 11
1.777958179170139
 21
6.044833932699961
 31
0.0
  0
LINE
  5
5D7
330
17
100
AcDbEntity
  8
IMAGE
100
AcDbLine
 10
1.591195536170528
 20
6.165631171050136
 30
0.0
 11
1.591195536170528
 21
6.067687464279724
 31
0.0
  0
LINE
  5
5D8
330
17
100
AcDbEntity
  8
IMAGE
100
AcDbLine
 10
1.591195536170528
 20
6.165631171050136
 30
0.0
 11
1.616985187819023
 21
6.044833932699964
 31
0.0
  0
LINE
  5
5D9
330
17
100
AcDbEntity
  8
IMAGE
100
AcDbLine
 10
1.614694698450636
 20
6.165631171050136
 30
0.0
 11
1.640484350099131
 21
6.044833932699964
 31
0.0
  0
LINE
  5
5DA
330
17
100
AcDbEntity
  8
IMAGE
100
AcDbLine
 10
1.777958179170138
 20
6.019695047962223
 30
0.0
 11
1.640484350099131
 21
6.019695047962223
 31
0.0
  0
LINE
  5
5DB
330
17
100
AcDbEntity
  8
IMAGE
100
AcDbLine
 10
1.637696279650645
 20
6.057893093602682
 30
0.0
 11
1.755382753593233
 21
6.057893093602682
 31
0.0
  0
LINE
  5
5DC
330
17
100
AcDbEntity
  8
IMAGE
100
AcDbLine
 10
1.714641036941112
 20
6.067687464279724
 30
0.0
 11
1.635605226814281
 21
6.067687464279722
 31
0.0
  0
LINE
  5
5DD
330
17
100
AcDbEntity
  8
IMAGE
100
AcDbLine
 10
1.640484350099131
 20
6.019695047962223
 30
0.0
 11
1.76284599329344
 21
6.019695047962223
 31
0.0
  0
LINE
  5
5DE
330
17
100
AcDbEntity
  8
IMAGE
100
AcDbLine
 10
1.602598715346926
 20
6.057893093602685
 30
0.0
 11
1.591195536170528
 21
6.067687464279724
 31
0.0
  0
LINE
  5
5DF
330
17
100
AcDbEntity
  8
IMAGE
100
AcDbLine
 10
1.616985187819023
 20
6.019695047962223
 30
0.0
 11
1.602598715346926
 21
6.057893093602685
 31
0.0
  0
LINE
  5
5E0
330
17
100
AcDbEntity
  8
IMAGE
100
AcDbLine
 10
1.616985187819023
 20
6.044833932699964
 30
0.0
 11
1.640484350099131
 21
6.044833932699964
 31
0.0
  0
LINE
  5
5E1
330
17
100
AcDbEntity
  8
IMAGE
100
AcDbLine
 10
1.616985187819023
 20
6.044833932699964
 30
0.0
 11
1.616985187819023
 21
6.019695047962223
 31
0.0
  0
LINE
  5
5E2
330
17
100
AcDbEntity
  8
IMAGE
100
AcDbLine
 10
1.640484350099131
 20
6.044833932699961
 30
0.0
 11
1.640484350099131
 21
6.019695047962223
 31
0.0
  0
LINE
  5
5E3
330
17
100
AcDbEntity
  8
IMAGE
100
AcDbLine
 10
1.655092280720707
 20
6.001085743675846
 30
0.0
 11
1.619336136163336
 21
6.001085743675846
 31
0.0
  0
LINE
  5
5E4
330
17
100
AcDbEntity
  8
IMAGE
100
AcDbLine
 10
1.755382753593233
 20
6.057893093602682
 30
0.0
 11
1.714641036941112
 21
6.067687464279724
 31
0.0
  0
LINE
  5
5E5
330
17
100
AcDbEntity
  8
IMAGE
100
AcDbLine
 10
1.76284599329344
 20
6.019695047962223
 30
0.0
 11
1.755382753593233
 21
6.057893093602682
 31
0.0
  0
LINE
  5
5E6
330
17
100
AcDbEntity
  8
IMAGE
100
AcDbLine
 10
1.76284599329344
 20
6.019695047962223
 30
0.0
 11
1.777958179170139
 21
6.01969504796222
 31
0.0
  0
LINE
  5
5E7
330
17
100
AcDbEntity
  8
IMAGE
100
AcDbLine
 10
1.777958179170139
 20
6.044833932699961
 30
0.0
 11
1.777958179170139
 21
6.019695047962223
 31
0.0
  0
LINE
  5
5E8
330
17
100
AcDbEntity
  8
IMAGE
100
AcDbLine
 10
1.7628213069878
 20
6.001085743675846
 30
0.0
 11
1.727077230839892
 21
6.001085743675846
 31
0.0
  0
LINE
  5
5E9
330
17
100
AcDbEntity
  8
IMAGE
100
AcDbLine
 10
1.740270567716535
 20
6.165631171050136
 30
0.0
 11
1.740270567716535
 21
6.137205754996551
 31
0.0
  0
LINE
  5
5EA
330
17
100
AcDbEntity
  8
IMAGE
100
AcDbLine
 10
1.741695038229597
 20
6.165631171050138
 30
0.0
 11
1.741695038229596
 21
6.214603024435344
 31
0.0
  0
LINE
  5
5EB
330
17
100
AcDbEntity
  8
IMAGE
100
AcDbLine
 10
1.882038559263227
 20
6.569810797185395
 30
0.0
 11
1.931122278299353
 21
6.167324301089184
 31
0.0
  0
LINE
  5
5EC
330
17
100
AcDbEntity
  8
IMAGE
100
AcDbLine
 10
2.128137501097148
 20
6.551353376547844
 30
0.0
 11
2.226577077830724
 21
6.176052490251128
 31
0.0
  0
LINE
  5
5ED
330
17
100
AcDbEntity
  8
IMAGE
100
AcDbLine
 10
2.169276929112166
 20
6.577684163697447
 30
0.0
 11
2.135049953209972
 21
6.167324301089201
 31
0.0
  0
LINE
  5
5EE
330
17
100
AcDbEntity
  8
IMAGE
100
AcDbLine
 10
1.831896738076229
 20
6.489749907424254
 30
0.0
 11
2.092548323792963
 21
6.167324301089184
 31
0.0
  0
LINE
  5
5EF
330
17
100
AcDbEntity
  8
IMAGE
100
AcDbLine
 10
1.981875155421379
 20
6.514438535272764
 30
0.0
 11
2.077051638987843
 21
6.167324301089184
 31
0.0
  0
LINE
  5
5F0
330
17
100
AcDbEntity
  8
IMAGE
100
AcDbLine
 10
1.803453422591785
 20
6.569810797185395
 30
0.0
 11
1.852537141627909
 21
6.167324301089184
 31
0.0
  0
LINE
  5
5F1
330
17
100
AcDbEntity
  8
IMAGE
100
AcDbLine
 10
2.090691792440722
 20
6.577684163697447
 30
0.0
 11
2.056464816538528
 21
6.167324301089201
 31
0.0
  0
LINE
  5
5F2
330
17
100
AcDbEntity
  8
IMAGE
100
AcDbLine
 10
1.788688229330228
 20
6.019695047962223
 30
0.0
 11
1.880448622821022
 21
6.019695047962223
 31
0.0
  0
LINE
  5
5F3
330
17
100
AcDbEntity
  8
IMAGE
100
AcDbLine
 10
1.880448622821022
 20
6.019695047962223
 30
0.0
 11
1.866062150348925
 21
6.057893093602682
 31
0.0
  0
LINE
  5
5F4
330
17
100
AcDbEntity
  8
IMAGE
100
AcDbLine
 10
1.781843132873036
 20
6.057893093602682
 30
0.0
 11
1.866062150348925
 21
6.057893093602682
 31
0.0
  0
ARC
  5
5F5
330
17
100
AcDbEntity
  8
IMAGE
100
AcDbCircle
 10
1.851065510789898
 20
6.044609985786134
 30
0.0
 40
0.0293831120311238
100
AcDbArc
 50
0.0
 51
48.6522227803065
  0
LINE
  5
5F6
330
17
100
AcDbEntity
  8
IMAGE
100
AcDbLine
 10
1.788688229330228
 20
6.044833932699961
 30
0.0
 11
1.788688229330228
 21
6.019695047962223
 31
0.0
  0
LINE
  5
5F7
330
17
100
AcDbEntity
  8
IMAGE
100
AcDbLine
 10
1.870734035228036
 20
6.001085743675846
 30
0.0
 11
1.834818325516448
 21
6.001085743675846
 31
0.0
  0
LINE
  5
5F8
330
17
100
AcDbEntity
  8
IMAGE
100
AcDbLine
 10
1.880448622821021
 20
6.019695047962223
 30
0.0
 11
1.788688229330228
 21
6.019695047962223
 31
0.0
  0
LINE
  5
5F9
330
17
100
AcDbEntity
  8
IMAGE
100
AcDbLine
 10
2.485680873488055
 20
6.621651291834048
 30
0.0
 11
2.485680873488055
 21
6.167324301089184
 31
0.0
  0
LINE
  5
5FA
330
17
100
AcDbEntity
  8
IMAGE
100
AcDbLine
 10
2.705711432859326
 20
6.548372744939716
 30
0.0
 11
2.796912505294372
 21
6.167324301089201
 31
0.0
  0
LINE
  5
5FB
330
17
100
AcDbEntity
  8
IMAGE
100
AcDbLine
 10
2.835138297449494
 20
6.592339873076324
 30
0.0
 11
2.632570480885457
 21
6.167324301089184
 31
0.0
  0
LINE
  5
5FC
330
17
100
AcDbEntity
  8
IMAGE
100
AcDbLine
 10
2.591228485053875
 20
6.551353376547844
 30
0.0
 11
2.689668061787452
 21
6.176052490251128
 31
0.0
  0
LINE
  5
5FD
330
17
100
AcDbEntity
  8
IMAGE
100
AcDbLine
 10
2.632367913068893
 20
6.577684163697447
 30
0.0
 11
2.5981409371667
 21
6.167324301089201
 31
0.0
  0
LINE
  5
5FE
330
17
100
AcDbEntity
  8
IMAGE
100
AcDbLine
 10
2.706053702618339
 20
6.539048429456157
 30
0.0
 11
2.670890609394442
 21
6.167324301089184
 31
0.0
  0
LINE
  5
5FF
330
17
100
AcDbEntity
  8
IMAGE
100
AcDbLine
 10
2.324600342775759
 20
6.551353376547844
 30
0.0
 11
2.423039919509337
 21
6.176052490251128
 31
0.0
  0
LINE
  5
600
330
17
100
AcDbEntity
  8
IMAGE
100
AcDbLine
 10
2.252583991438687
 20
6.545200903002009
 30
0.0
 11
2.288009922868011
 21
6.167324301089184
 31
0.0
  0
LINE
  5
601
330
17
100
AcDbEntity
  8
IMAGE
100
AcDbLine
 10
2.384065871602414
 20
6.606995582455191
 30
0.0
 11
2.278125231905145
 21
6.167324301089184
 31
0.0
  0
LINE
  5
602
330
17
100
AcDbEntity
  8
IMAGE
100
AcDbLine
 10
2.43908329058121
 20
6.548372744939716
 30
0.0
 11
2.530284363016256
 21
6.167324301089201
 31
0.0
  0
LINE
  5
603
330
17
100
AcDbEntity
  8
IMAGE
100
AcDbLine
 10
2.462651008273857
 20
6.606995582455191
 30
0.0
 11
2.356710368576588
 21
6.167324301089184
 31
0.0
  0
LINE
  5
604
330
17
100
AcDbEntity
  8
IMAGE
100
AcDbLine
 10
2.638675455770881
 20
6.592339873076324
 30
0.0
 11
2.436107639206845
 21
6.167324301089184
 31
0.0
  0
LINE
  5
605
330
17
100
AcDbEntity
  8
IMAGE
100
AcDbLine
 10
2.560090319099437
 20
6.592339873076324
 30
0.0
 11
2.357522502535398
 21
6.167324301089184
 31
0.0
  0
LINE
  5
606
330
17
100
AcDbEntity
  8
IMAGE
100
AcDbLine
 10
0.4828834771268016
 20
6.592339873076324
 30
0.0
 11
0.280315660562767
 21
6.167324301089184
 31
0.0
  0
LINE
  5
607
330
17
100
AcDbEntity
  8
IMAGE
100
AcDbLine
 10
0.329888894843972
 20
6.621651291834048
 30
0.0
 11
0.329888894843972
 21
6.167324301089184
 31
0.0
  0
LINE
  5
608
330
17
100
AcDbEntity
  8
IMAGE
100
AcDbLine
 10
0.2832913119371307
 20
6.548372744939716
 30
0.0
 11
0.3744923843721788
 21
6.167324301089201
 31
0.0
  0
LINE
  5
609
330
17
100
AcDbEntity
  8
IMAGE
100
AcDbLine
 10
0.4765759344248119
 20
6.577684163697447
 30
0.0
 11
0.4423489585226191
 21
6.167324301089201
 31
0.0
  0
LINE
  5
60A
330
17
100
AcDbEntity
  8
IMAGE
100
AcDbLine
 10
3.08919047086753
 20
6.551353376547844
 30
0.0
 11
3.187630047601107
 21
6.176052490251128
 31
0.0
  0
LINE
  5
60B
330
17
100
AcDbEntity
  8
IMAGE
100
AcDbLine
 10
3.226049478796462
 20
6.606995582455191
 30
0.0
 11
3.120108839099193
 21
6.167324301089184
 31
0.0
  0
LINE
  5
60C
330
17
100
AcDbEntity
  8
IMAGE
100
AcDbLine
 10
2.983642859301708
 20
6.621651291834048
 30
0.0
 11
2.983642859301708
 21
6.167324301089184
 31
0.0
  0
LINE
  5
60D
330
17
100
AcDbEntity
  8
IMAGE
100
AcDbLine
 10
2.785988360053933
 20
6.621651291834048
 30
0.0
 11
2.785988360053933
 21
6.167324301089184
 31
0.0
  0
LINE
  5
60E
330
17
100
AcDbEntity
  8
IMAGE
100
AcDbLine
 10
2.843091529033609
 20
6.569810797185395
 30
0.0
 11
2.892175248069735
 21
6.167324301089184
 31
0.0
  0
LINE
  5
60F
330
17
100
AcDbEntity
  8
IMAGE
100
AcDbLine
 10
2.792949707846611
 20
6.489749907424254
 30
0.0
 11
3.053601293563346
 21
6.167324301089184
 31
0.0
  0
LINE
  5
610
330
17
100
AcDbEntity
  8
IMAGE
100
AcDbLine
 10
2.794260112066858
 20
6.545200903002009
 30
0.0
 11
2.829686043496182
 21
6.167324301089184
 31
0.0
  0
LINE
  5
611
330
17
100
AcDbEntity
  8
IMAGE
100
AcDbLine
 10
3.101766439727608
 20
6.592339873076324
 30
0.0
 11
2.899198623163571
 21
6.167324301089184
 31
0.0
  0
LINE
  5
612
330
17
100
AcDbEntity
  8
IMAGE
100
AcDbLine
 10
2.891535971619752
 20
6.551353376547844
 30
0.0
 11
2.98997554835333
 21
6.176052490251128
 31
0.0
  0
LINE
  5
613
330
17
100
AcDbEntity
  8
IMAGE
100
AcDbLine
 10
3.006018919425205
 20
6.548372744939716
 30
0.0
 11
3.097219991860249
 21
6.167324301089201
 31
0.0
  0
LINE
  5
614
330
17
100
AcDbEntity
  8
IMAGE
100
AcDbLine
 10
3.292222097880513
 20
6.545200903002009
 30
0.0
 11
3.327648029309839
 21
6.167324301089184
 31
0.0
  0
LINE
  5
615
330
17
100
AcDbEntity
  8
IMAGE
100
AcDbLine
 10
3.42370397804424
 20
6.606995582455191
 30
0.0
 11
3.317763338346972
 21
6.167324301089184
 31
0.0
  0
LINE
  5
616
330
17
100
AcDbEntity
  8
IMAGE
100
AcDbLine
 10
3.20367341867298
 20
6.548372744939716
 30
0.0
 11
3.294874491108026
 21
6.167324301089201
 31
0.0
  0
LINE
  5
617
330
17
100
AcDbEntity
  8
IMAGE
100
AcDbLine
 10
3.272989331462333
 20
6.539048429456157
 30
0.0
 11
3.237826238238436
 21
6.167324301089184
 31
0.0
  0
LINE
  5
618
330
17
100
AcDbEntity
  8
IMAGE
100
AcDbLine
 10
3.402073926293487
 20
6.592339873076324
 30
0.0
 11
3.199506109729449
 21
6.167324301089184
 31
0.0
  0
LINE
  5
619
330
17
100
AcDbEntity
  8
IMAGE
100
AcDbLine
 10
1.778022612740889
 20
4.023928783003783
 30
0.0
 11
1.280944734379865
 21
4.023928783003783
 31
0.0
  0
ARC
  5
61A
330
17
100
AcDbEntity
  8
IMAGE
100
AcDbCircle
 10
1.280944734379865
 20
4.065956173908828
 30
0.0
 40
0.0420273909050456
100
AcDbArc
 50
180.0
 51
270.0
  0
ARC
  5
61B
330
17
100
AcDbEntity
  8
IMAGE
100
AcDbCircle
 10
1.778022612740889
 20
4.065956173908828
 30
0.0
 40
0.0420273909050456
100
AcDbArc
 50
270.0
 51
0.0
  0
LEADER
  5
626
330
17
100
AcDbEntity
  8
TEXT_BUBBLES
100
AcDbLeader
  3
STANDARD
 76
     2
 10
2.72797724606669
 20
2.454192085077948
 30
0.0
 10
3.337136887257119
 20
2.102493602257198
 30
0.0
  0
LEADER
  5
627
330
17
100
AcDbEntity
  8
TEXT_BUBBLES
100
AcDbLeader
  3
STANDARD
 76
     2
 10
3.646638981840056
 20
2.417756592015983
 30
0.0
 10
4.19361440876339
 20
2.101960182041685
 30
0.0
  0
LEADER
  5
628
330
17
100
AcDbEntity
  8
TEXT_BUBBLES
100
AcDbLeader
  3
STANDARD
 76
     2
 10
4.132061364679536
 20
2.538100049077596
 30
0.0
 10
4.883140517133733
 20
2.104464298225448
 30
0.0
  0
LEADER
  5
629
330
17
100
AcDbEntity
  8
TEXT_BUBBLES
100
AcDbLeader
  3
STANDARD
 76
     2
 10
2.882036500094806
 20
3.009696448407627
 30
0.0
 10
3.819204374077623
 20
3.260809823413715
 30
0.0
  0
LEADER
  5
62A
330
17
100
AcDbEntity
  8
TEXT_BUBBLES
100
AcDbLeader
  3
STANDARD
 76
     2
 10
1.915365718404954
 20
3.230804235408338
 30
0.0
 10
3.818904380536255
 20
3.683481563703813
 30
0.0
  0
LEADER
  5
62B
330
17
100
AcDbEntity
  8
TEXT_BUBBLES
100
AcDbLeader
  3
STANDARD
 76
     2
 10
1.691417214913468
 20
3.397416950320837
 30
0.0
 10
3.823511351634028
 20
3.985008116187612
 30
0.0
  0
LEADER
  5
62C
330
17
100
AcDbEntity
  8
TEXT_BUBBLES
100
AcDbLeader
  3
STANDARD
 76
     2
 10
1.666604863038954
 20
3.795560933380545
 30
0.0
 10
3.819017653878593
 20
4.372298202464445
 30
0.0
  0
LEADER
  5
62D
330
17
100
AcDbEntity
  8
TEXT_BUBBLES
100
AcDbLeader
  3
STANDARD
 76
     2
 10
1.789550330903771
 20
4.88821866911631
 30
0.0
 10
3.818829966324094
 20
5.40865019017899
 30
0.0
  0
INSERT
  5
643
330
17
100
AcDbEntity
  8
IMAGE
100
AcDbBlockReference
 66
     1
  2
titleblock
 10
-0.8280366420207695
 20
-0.251424769891445
 30
0.0
  0
ATTRIB
  5
644
330
643
100
AcDbEntity
  8
TITLE
100
AcDbText
 10
-0.3224810382184275
 20
0.5328023265869222
 30
0.0
 40
0.2
  1
D
  7
L200
 72
     4
 11
-0.2215942715062856
 21
0.6328023265869223
 31
0.0
100
AcDbAttribute
  2
D
 70
     0
  0
ATTRIB
  5
645
330
643
100
AcDbEntity
  8
TITLE
100
AcDbText
 10
0.4034057284937146
 20
1.092287532855305
 30
0.0
 40
0.2
  1

  7
L200
100
AcDbAttribute
  2
TITLE1
 70
     0
  0
ATTRIB
  5
646
330
643
100
AcDbEntity
  8
TITLE
100
AcDbText
 10
0.4034057284937146
 20
0.7328023265869225
 30
0.0
 40
0.2
  1
ROTOR POP-UP SPRINKLER
  7
L200
100
AcDbAttribute
  2
TITLE2
 70
     0
  0
ATTRIB
  5
647
330
643
100
AcDbEntity
  8
TITLE
100
AcDbText
 10
1.885609109147543
 20
0.3413679965668739
 30
0.0
 40
0.2
  1
3504 WITH SWING JOINT
  7
L200
100
AcDbAttribute
  2
TITLE3
 70
     0
  0
ATTRIB
  5
648
330
643
100
AcDbEntity
  8
TITLE
100
AcDbText
 10
1.885609109147543
 20
0.0178313109253292
 30
0.0
 40
0.2
  1

  7
L200
100
AcDbAttribute
  2
TITLE4
 70
     0
  0
ATTRIB
  5
649
330
643
100
AcDbEntity
  8
TITLE
 62
     7
100
AcDbText
 10
6.861559140326562
 20
0.7181780216531949
 30
0.0
 40
0.08
  1
1-30-04
  7
L80
 72
     2
 11
7.432987711755133
 21
0.7181780216531949
 31
0.0
100
AcDbAttribute
  2
REVISED
 70
     0
  0
ATTRIB
  5
64A
330
643
100
AcDbEntity
  8
TITLE
 62
     7
100
AcDbText
 10
-0.5640942715062858
 20
-0.1667131218707237
 30
0.0
 40
0.08
  1
R-3504-SJ.DWG
  7
L80
100
AcDbAttribute
  2
DWG-NAME
 70
     0
  0
ATTRIB
  5
64B
330
643
100
AcDbEntity
  8
TITLE
 62
     7
100
AcDbText
 10
0.4034057284937146
 20
0.4491390095040444
 30
0.0
 40
0.1
  1
N.T.S.
  7
L100
100
AcDbAttribute
  2
SCALE
 70
     0
  0
SEQEND
  5
64C
330
643
100
AcDbEntity
  8
IMAGE
  0
TEXT
  5
687
330
17
100
AcDbEntity
  8
INSTRUCT-OPTION
100
AcDbText
 10
9.703392341505898
 20
5.862683167519891
 30
0.0
 40
0.1250000018625002
  1
  OPTION-3504-PC-SAM
  7
ROMANS
100
AcDbText
  0
TEXT
  5
688
330
17
100
AcDbEntity
  8
INSTRUCT-OPTION
100
AcDbText
 10
9.703392341505898
 20
6.092070459049097
 30
0.0
 40
0.1250000018625002
  1
%%U3504-PC-SAM
  7
ROMANS
100
AcDbText
  0
TEXT
  5
68B
330
17
100
AcDbEntity
  8
OPTION-3504-PC
100
AcDbText
 10
5.141459594312271
 20
5.494225120117109
 30
0.0
 40
0.125
  1
  3504-PC
  7
ROMANS
100
AcDbText
  0
TEXT
  5
68F
330
17
100
AcDbEntity
  8
INSTRUCT-OPTION
100
AcDbText
 10
9.593671289999999
 20
5.430973540097558
 30
0.0
 40
0.125
  1
TO TURN OFF THIS INSTRUCTION BOX, TURN OFF
  7
ROMANS
100
AcDbText
  0
TEXT
  5
690
330
17
100
AcDbEntity
  8
INSTRUCT-OPTION
100
AcDbText
 10
9.593671289999999
 20
5.247332486249465
 30
0.0
 40
0.125
  1
LAYER "INSTRUCT-OPTION".
  7
ROMANS
100
AcDbText
  0
ENDSEC
  0
SECTION
  2
OBJECTS
  0
DICTIONARY
  5
C
330
0
100
AcDbDictionary
281
     1
  3
ACAD_GROUP
350
D
  3
ACAD_LAYOUT
350
52E
  3
ACAD_MLINESTYLE
350
1A
  3
ACAD_PLOTSETTINGS
350
52F
  3
ACAD_PLOTSTYLENAME
350
52C
  3
AcadDim
350
571
  3
ACDBVARIABLEDICTIONARY
350
30
  0
DICTIONARY
  5
53F
330
2
100
AcDbDictionary
280
     1
281
     1
  3
ACAD_LAYERFILTERS
360
563
  3
ACAD_LAYERSTATES
360
540
  0
DICTIONARY
  5
D
102
{ACAD_REACTORS
330
C
102
}
330
C
100
AcDbDictionary
281
     1
  0
DICTIONARY
  5
52E
102
{ACAD_REACTORS
330
C
102
}
330
C
100
AcDbDictionary
281
     1
  3
Layout1
350
531
  3
Model
350
530
  0
DICTIONARY
  5
1A
102
{ACAD_REACTORS
330
C
102
}
330
C
100
AcDbDictionary
281
     1
  3
STANDARD
350
1B
  0
DICTIONARY
  5
52F
102
{ACAD_REACTORS
330
C
102
}
330
C
100
AcDbDictionary
281
     1
  3
1055 B&W Full Shaded Draft
350
64E
  3
1055 B&W Full Shaded Final
350
64F
  3
1055 Color Full Shaded Draft
350
650
  3
1055 Color Full Shaded Final
350
651
  3
1055 PLUS B&W Full Shaded Draft
350
652
  3
1055 PLUS B&W Full Shaded Final
350
653
  3
1055 PLUS Color Full Shaded Draft
350
654
  3
1055 PLUS Color Full Shaded Final
350
655
  3
1055-B&W-Shaded-Draft
350
656
  3
1055-B&W-Shaded-Final
350
657
  3
1055-Color-Shaded-Draft
350
658
  3
1055-Color-Shaded-Final
350
659
  3
1055-PLUS-B&W-Shaded-Draft
350
65A
  3
1055-PLUS-B&W-Shaded-Final
350
65B
  3
1055-PLUS-Color-Shaded-Draft
350
65C
  3
1055-PLUS-Color-Shaded-Final
350
65D
  3
2200 Color Inkjet
350
65E
  3
2200-Color-Inkjet
350
65F
  3
24x36 PDF
350
660
  3
8500 B&W Shaded 11x17
350
661
  3
8500 B&W Shaded 8.5x11
350
662
  3
8500 Color Shaded 11x17
350
663
  3
8500 Color Shaded 8.5x11
350
664
  3
8500-B&W-Shaded-11x17
350
665
  3
8500-B&W-Shaded-8.5x11
350
666
  3
8500-Color-Shaded-11x17
350
667
  3
8500-Color-Shaded-8.5x11
350
668
  3
Laser Jet 5 Shaded 11x17
350
669
  3
Laser Jet 5 Shaded 8.5x11
350
66A
  3
LaserJet5-Shaded-11x17
350
66B
  3
LaserJet5-Shaded-8.5x11
350
66C
  3
Oki Doki B&W Shaded 11x17
350
66D
  3
Oki Doki B&W Shaded 8.5x11
350
66E
  3
Oki Doki Color Laser
350
66F
  3
Oki Doki Color Shaded 11x17
350
670
  3
Oki Doki Color Shaded 8.5x11
350
671
  3
Oki-Doki-B&W-Shaded-11x17
350
672
  3
Oki-Doki-B&W-Shaded-8.5x11
350
673
  3
Oki-Doki-Color-Laser
350
674
  3
Oki-Doki-Color-Shaded-11x17
350
675
  3
Oki-Doki-Color-Shaded-8.5x11
350
676
  0
ACDBDICTIONARYWDFLT
  5
52C
102
{ACAD_REACTORS
330
C
102
}
330
C
100
AcDbDictionary
281
     1
  3
Normal
350
52D
100
AcDbDictionaryWithDefault
340
52D
  0
XRECORD
  5
571
102
{ACAD_REACTORS
330
C
102
}
330
C
100
AcDbXrecord
280
     1
 90
   990106
  3

 60
     4
 61
     0
 62
     1
 63
     3
 64
     0
 65
     0
 66
     0
 67
     3
 68
     1
 69
     0
 70
     0
 71
     0
 72
     0
 40
0.0
170
     0
  0
DICTIONARY
  5
30
102
{ACAD_REACTORS
330
C
102
}
330
C
100
AcDbDictionary
281
     1
  3
DIMADEC
350
31
  3
DIMASSOC
350
537
  3
SORTENTS
350
365
  0
DICTIONARY
  5
563
102
{ACAD_REACTORS
330
53F
102
}
330
53F
100
AcDbDictionary
280
     1
281
     1
  0
DICTIONARY
  5
540
102
{ACAD_REACTORS
330
53F
102
}
330
53F
100
AcDbDictionary
281
     1
  0
LAYOUT
  5
531
102
{ACAD_REACTORS
330
52E
102
}
330
52E
100
AcDbPlotSettings
  1

  2
S:\AutoCAD 2002\Plotters\1055B&WDraftShaded.pc3
  4

  6

 40
0.0
 41
0.0
 42
0.0
 43
0.0
 44
0.0
 45
0.0
 46
0.0
 47
0.0
 48
0.0
 49
0.0
140
0.0
141
0.0
142
1.0
143
1.0
 70
   688
 72
     0
 73
     0
 74
     5
  7
TRexLJ5Shaded2.ctb
 75
    16
147
1.0
148
0.0
149
0.0
100
AcDbLayout
  1
Layout1
 70
     1
 71
     1
 10
0.0
 20
0.0
 11
12.0
 21
9.0
 12
0.0
 22
0.0
 32
0.0
 14
1.000000000000000E+20
 24
1.000000000000000E+20
 34
1.000000000000000E+20
 15
-1.000000000000000E+20
 25
-1.000000000000000E+20
 35
-1.000000000000000E+20
146
0.0
 13
0.0
 23
0.0
 33
0.0
 16
1.0
 26
0.0
 36
0.0
 17
0.0
 27
1.0
 37
0.0
 76
     0
330
14
  0
LAYOUT
  5
530
102
{ACAD_REACTORS
330
52E
102
}
330
52E
100
AcDbPlotSettings
  1

  2
8500ColorShaded.pc3
  4
11x17
  6

 40
3.174999952316284
 41
3.174999952316284
 42
3.17498779296875
 43
3.17498779296875
 44
279.3999938964843
 45
431.8000183105469
 46
1.778
 47
0.0
 48
180360.0524337165
 49
80033.77936194791
140
180369.1574725906
141
80037.61796031875
142
1.0
143
0.9845977203619804
 70
 28340
 72
     0
 73
     1
 74
     1
  7
8500ColorShaded.ctb
 75
     0
147
1.015643220900772
148
21.05769386811017
149
6.402373472924489
100
AcDbLayout
  1
Model
 70
     1
 71
     0
 10
0.0
 20
0.0
 11
12.0
 21
9.0
 12
0.0
 22
0.0
 32
0.0
 14
0.0
 24
0.0
 34
0.0
 15
0.0
 25
0.0
 35
0.0
146
0.0
 13
0.0
 23
0.0
 33
0.0
 16
1.0
 26
0.0
 36
0.0
 17
0.0
 27
1.0
 37
0.0
 76
     0
330
17
  0
MLINESTYLE
  5
1B
102
{ACAD_REACTORS
330
1A
102
}
330
1A
100
AcDbMlineStyle
  2
STANDARD
 70
     0
  3

 62
   256
 51
90.0
 52
90.0
 71
     2
 49
0.5
 62
   256
  6
BYLAYER
 49
-0.5
 62
   256
  6
BYLAYER
  0
PLOTSETTINGS
  5
64E
102
{ACAD_REACTORS
330
52F
102
}
330
52F
100
AcDbPlotSettings
  1
1055 B&W Full Shaded Draft
  2
1055B&WDraftShaded.pc3
  4
User607
  6
ps1
 40
0.0
 41
0.0
 42
0.0
 43
0.0
 44
901.7000122070312
 45
1155.700073242187
 46
0.0
 47
0.0
 48
180377.877572
 49
80019.819395
140
180380.8390819999
141
80022.26069
142
1.0
143
1.0
 70
   688
 72
     0
 73
     2
 74
     3
  7
1055B&WFullDraftShaded.ctb
 75
    16
147
1.0
148
-4581603.303200401
149
-2032962.095032944
  0
PLOTSETTINGS
  5
64F
102
{ACAD_REACTORS
330
52F
102
}
330
52F
100
AcDbPlotSettings
  1
1055 B&W Full Shaded Final
  2
1055B&WFinalShaded.pc3
  4
User257
  6
PS1
 40
4.995333194732666
 41
8.297271728515625
 42
4.99530029296875
 43
8.29736328125
 44
911.6906738281249
 45
1172.294677734375
 46
0.0
 47
0.0
 48
180377.877572
 49
80019.819395
140
180380.8390819999
141
80022.26069
142
1.0
143
1.0
 70
   688
 72
     0
 73
     3
 74
     3
  7
1055B&WFullFinalShaded.ctb
 75
    16
147
1.0
148
-4581603.303200401
149
-2032962.095032944
  0
PLOTSETTINGS
  5
650
102
{ACAD_REACTORS
330
52F
102
}
330
52F
100
AcDbPlotSettings
  1
1055 Color Full Shaded Draft
  2
1055ColorDraftShaded.pc3
  4
User607
  6
PS1
 40
0.0
 41
0.0
 42
0.0
 43
0.0
 44
901.7000122070312
 45
1155.700073242187
 46
0.0
 47
0.0
 48
180377.877572
 49
80019.819395
140
180380.8390819999
141
80022.26069
142
1.0
143
1.0
 70
   688
 72
     0
 73
     2
 74
     3
  7
1055ColorFullDraftShaded.ctb
 75
    16
147
1.0
148
-4581603.303200401
149
-2032962.095032944
  0
PLOTSETTINGS
  5
651
102
{ACAD_REACTORS
330
52F
102
}
330
52F
100
AcDbPlotSettings
  1
1055 Color Full Shaded Final
  2
1055ColorFinalShaded.pc3
  4
User607
  6
PS1
 40
0.0
 41
0.0
 42
0.0
 43
0.0
 44
901.7000122070312
 45
1155.700073242187
 46
0.0
 47
0.0
 48
180377.877572
 49
80019.819395
140
180380.8390819999
141
80022.26069
142
1.0
143
1.0
 70
   688
 72
     0
 73
     2
 74
     3
  7
1055ColorFullFinalShaded.ctb
 75
    16
147
1.0
148
-4581603.303200401
149
-2032962.095032944
  0
PLOTSETTINGS
  5
652
102
{ACAD_REACTORS
330
52F
102
}
330
52F
100
AcDbPlotSettings
  1
1055 PLUS B&W Full Shaded Draft
  2
1055_PLUS_B&WDraftShaded.pc3
  4
User257
  6
ps1
 40
4.995333194732666
 41
8.297393798828125
 42
4.99530029296875
 43
8.29736328125
 44
901.6152954101562
 45
1155.615356445312
 46
0.0
 47
0.0
 48
180377.877572
 49
80019.819395
140
180380.8390819999
141
80022.26069
142
1.0
143
1.0
 70
   688
 72
     0
 73
     3
 74
     5
  7
1055B&WFullDraftShaded.ctb
 75
    16
147
1.0
148
-4581603.303200401
149
-2032962.095032944
  0
PLOTSETTINGS
  5
653
102
{ACAD_REACTORS
330
52F
102
}
330
52F
100
AcDbPlotSettings
  1
1055 PLUS B&W Full Shaded Final
  2
1055_PLUS_B&WFinalShaded.pc3
  4
User257
  6
PS1
 40
4.995333194732666
 41
8.297271728515625
 42
4.99530029296875
 43
8.29736328125
 44
901.6576538085937
 45
1155.657592773437
 46
0.0
 47
0.0
 48
180377.877572
 49
80019.819395
140
180380.8390819999
141
80022.26069
142
1.0
143
1.0
 70
   688
 72
     0
 73
     3
 74
     5
  7
1055B&WFullFinalShaded.ctb
 75
    16
147
1.0
148
-4581603.303200401
149
-2032962.095032944
  0
PLOTSETTINGS
  5
654
102
{ACAD_REACTORS
330
52F
102
}
330
52F
100
AcDbPlotSettings
  1
1055 PLUS Color Full Shaded Draft
  2
1055_PLUS_ColorDraftShaded.pc3
  4
User257
  6
PS1
 40
4.995333194732666
 41
8.297393798828125
 42
4.99530029296875
 43
8.29736328125
 44
901.6152954101562
 45
1155.615356445312
 46
0.0
 47
0.0
 48
180377.877572
 49
80019.819395
140
180380.8390819999
141
80022.26069
142
1.0
143
1.0
 70
   688
 72
     0
 73
     3
 74
     5
  7
1055ColorFullDraftShaded.ctb
 75
    16
147
1.0
148
-4581603.303200401
149
-2032962.095032944
  0
PLOTSETTINGS
  5
655
102
{ACAD_REACTORS
330
52F
102
}
330
52F
100
AcDbPlotSettings
  1
1055 PLUS Color Full Shaded Final
  2
1055_PLUS_ColorFinalShaded.pc3
  4
User257
  6
PS1
 40
4.995333194732666
 41
8.297271728515625
 42
4.99530029296875
 43
8.29736328125
 44
901.6576538085937
 45
1155.657592773437
 46
0.0
 47
0.0
 48
180377.877572
 49
80019.819395
140
180380.8390819999
141
80022.26069
142
1.0
143
1.0
 70
   688
 72
     0
 73
     3
 74
     5
  7
1055ColorFullFinalShaded.ctb
 75
    16
147
1.0
148
-4581603.303200401
149
-2032962.095032944
  0
PLOTSETTINGS
  5
656
102
{ACAD_REACTORS
330
52F
102
}
330
52F
100
AcDbPlotSettings
  1
1055-B&W-Shaded-Draft
  2
1055B&WDraftShaded.pc3
  4
User257
  6

 40
4.995333194732666
 41
8.297393798828125
 42
4.99530029296875
 43
8.29736328125
 44
901.6152954101562
 45
1155.615356445312
 46
0.0
 47
0.0
 48
180360.0524337165
 49
80033.77936194791
140
180369.1574725906
141
80037.61796031875
142
1.0
143
30.0
 70
  1696
 72
     0
 73
     1
 74
     1
  7
1055B&WFullDraftShaded.ctb
 75
     0
147
0.0333333333333333
148
-190.0773302744904
149
-129.2444057835751
  0
PLOTSETTINGS
  5
657
102
{ACAD_REACTORS
330
52F
102
}
330
52F
100
AcDbPlotSettings
  1
1055-B&W-Shaded-Final
  2
1055B&WFinalShaded.pc3
  4
User607
  6

 40
0.0
 41
0.0
 42
0.0
 43
0.0
 44
901.7000122070312
 45
1155.700073242187
 46
0.0
 47
0.0
 48
180360.0524337165
 49
80033.77936194791
140
180369.1574725906
141
80037.61796031875
142
1.0
143
30.0
 70
  1696
 72
     0
 73
     1
 74
     1
  7
1055B&WFullFinalShaded.ctb
 75
     0
147
0.0333333333333333
148
-190.0773302744904
149
-129.2444057835751
  0
PLOTSETTINGS
  5
658
102
{ACAD_REACTORS
330
52F
102
}
330
52F
100
AcDbPlotSettings
  1
1055-Color-Shaded-Draft
  2
1055ColorDraftShaded.pc3
  4
User257
  6

 40
4.995333194732666
 41
8.297393798828125
 42
4.99530029296875
 43
8.29736328125
 44
901.6152954101562
 45
1155.615356445312
 46
0.0
 47
0.0
 48
180360.0524337165
 49
80033.77936194791
140
180369.1574725906
141
80037.61796031875
142
1.0
143
30.0
 70
  1696
 72
     0
 73
     1
 74
     1
  7
1055ColorFullDraftShaded.ctb
 75
     0
147
0.0333333333333333
148
-190.0773302744904
149
-129.2444057835751
  0
PLOTSETTINGS
  5
659
102
{ACAD_REACTORS
330
52F
102
}
330
52F
100
AcDbPlotSettings
  1
1055-Color-Shaded-Final
  2
1055ColorDraftShaded.pc3
  4
User257
  6

 40
4.995333194732666
 41
8.297393798828125
 42
4.99530029296875
 43
8.29736328125
 44
901.6152954101562
 45
1155.615356445312
 46
0.0
 47
0.0
 48
180360.0524337165
 49
80033.77936194791
140
180369.1574725906
141
80037.61796031875
142
1.0
143
30.0
 70
  1696
 72
     0
 73
     1
 74
     1
  7
1055ColorFullFinalShaded.ctb
 75
     0
147
0.0333333333333333
148
-190.0773302744904
149
-129.2444057835751
  0
PLOTSETTINGS
  5
65A
102
{ACAD_REACTORS
330
52F
102
}
330
52F
100
AcDbPlotSettings
  1
1055-PLUS-B&W-Shaded-Draft
  2
1055_PLUS_B&WDraftShaded.pc3
  4
User257
  6

 40
4.995333194732666
 41
8.297393798828125
 42
4.99530029296875
 43
8.29736328125
 44
901.6152954101562
 45
1155.615356445312
 46
0.0
 47
0.0
 48
180360.0524337165
 49
80033.77936194791
140
180369.1574725906
141
80037.61796031875
142
1.0
143
30.0
 70
  1696
 72
     0
 73
     1
 74
     0
  7
1055B&WFullDraftShaded.ctb
 75
     0
147
0.0333333333333333
148
0.9506237099442845
149
8.593888772447144
  0
PLOTSETTINGS
  5
65B
102
{ACAD_REACTORS
330
52F
102
}
330
52F
100
AcDbPlotSettings
  1
1055-PLUS-B&W-Shaded-Final
  2
1055_PLUS_B&WFinalShaded.pc3
  4
User257
  6

 40
4.995333194732666
 41
8.297271728515625
 42
4.99530029296875
 43
8.29736328125
 44
901.6576538085937
 45
1155.657592773437
 46
0.0
 47
0.0
 48
180360.0524337165
 49
80033.77936194791
140
180369.1574725906
141
80037.61796031875
142
1.0
143
30.0
 70
  1696
 72
     0
 73
     1
 74
     0
  7
1055B&WFullFinalShaded.ctb
 75
     0
147
0.0333333333333333
148
0.9506237099442845
149
8.593888772447144
  0
PLOTSETTINGS
  5
65C
102
{ACAD_REACTORS
330
52F
102
}
330
52F
100
AcDbPlotSettings
  1
1055-PLUS-Color-Shaded-Draft
  2
1055_PLUS_ColorDraftShaded.pc3
  4
User257
  6

 40
4.995333194732666
 41
8.297393798828125
 42
4.99530029296875
 43
8.29736328125
 44
901.6152954101562
 45
1155.615356445312
 46
0.0
 47
0.0
 48
180360.0524337165
 49
80033.77936194791
140
180369.1574725906
141
80037.61796031875
142
1.0
143
30.0
 70
  1696
 72
     0
 73
     1
 74
     0
  7
1055ColorFullDraftShaded.ctb
 75
     0
147
0.0333333333333333
148
0.9506237099442845
149
8.593888772447144
  0
PLOTSETTINGS
  5
65D
102
{ACAD_REACTORS
330
52F
102
}
330
52F
100
AcDbPlotSettings
  1
1055-PLUS-Color-Shaded-Final
  2
1055_PLUS_ColorFinalShaded.pc3
  4
User257
  6

 40
4.995333194732666
 41
8.297271728515625
 42
4.99530029296875
 43
8.29736328125
 44
901.6576538085937
 45
1155.657592773437
 46
0.0
 47
0.0
 48
180360.0524337165
 49
80033.77936194791
140
180369.1574725906
141
80037.61796031875
142
1.0
143
30.0
 70
  1696
 72
     0
 73
     1
 74
     0
  7
1055ColorFullFinalShaded.ctb
 75
     0
147
0.0333333333333333
148
0.9506237099442845
149
8.593888772447144
  0
PLOTSETTINGS
  5
65E
102
{ACAD_REACTORS
330
52F
102
}
330
52F
100
AcDbPlotSettings
  1
2200 Color Inkjet
  2
HP  2200 Color Inkjet.pc3
  4
Letter
  6
PS1
 40
7.143749713897705
 41
12.47775650024414
 42
7.14373779296875
 43
3.17498779296875
 44
215.8999938964843
 45
279.3999938964843
 46
0.0
 47
0.0
 48
180377.877572
 49
80019.819395
140
180380.8390819999
141
80022.26069
142
1.0
143
0.3486331030131726
 70
   688
 72
     0
 73
     1
 74
     3
  7
Color.ctb
 75
     0
147
2.868344948764708
148
-4581603.303200401
149
-2032962.095032944
  0
PLOTSETTINGS
  5
65F
102
{ACAD_REACTORS
330
52F
102
}
330
52F
100
AcDbPlotSettings
  1
2200-Color-Inkjet
  2
HP  2200 Color Inkjet.pc3
  4
Letter
  6

 40
7.143749713897705
 41
12.47775650024414
 42
7.14373779296875
 43
3.17498779296875
 44
215.8999938964843
 45
279.3999938964843
 46
0.0
 47
0.0
 48
180360.0524337165
 49
80033.77936194791
140
180369.1574725906
141
80037.61796031875
142
1.0
143
0.069393053089765
 70
  1712
 72
     0
 73
     1
 74
     1
  7
Color.ctb
 75
     0
147
14.41066440334347
148
-190.0773302744904
149
-129.2444057835751
  0
PLOTSETTINGS
  5
660
102
{ACAD_REACTORS
330
52F
102
}
330
52F
100
AcDbPlotSettings
  1
24x36 PDF
  2
Bluebeam PDF Printer.pc3
  4
User128
  6
PS1
 40
3.174999952316284
 41
3.174999952316284
 42
3.17498779296875
 43
3.17498779296875
 44
609.5999755859375
 45
914.3999633789062
 46
270.5099999999999
 47
416.3059999999999
 48
180377.877572
 49
80019.819395
140
180380.8390819999
141
80022.26069
142
1.0
143
1.0
 70
   692
 72
     0
 73
     1
 74
     4
  7
1055B&WFullDraftShaded.ctb
 75
    16
147
1.0
148
-4581598.0903288
149
-2032503.412632999
  0
PLOTSETTINGS
  5
661
102
{ACAD_REACTORS
330
52F
102
}
330
52F
100
AcDbPlotSettings
  1
8500 B&W Shaded 11x17
  2
8500B&WShaded.pc3
  4
11x17
  6
PS1
 40
5.027083396911621
 41
5.027085304260253
 42
5.027099609375
 43
5.027069091796875
 44
279.3999938964843
 45
431.7999877929687
 46
0.0
 47
92.964
 48
180377.877572
 49
80019.819395
140
180380.8390819999
141
80022.26069
142
1.0
143
0.0116192543742624
 70
   692
 72
     0
 73
     1
 74
     3
  7
8500B&WShaded.ctb
 75
     0
147
86.06404230335863
148
-4581651.879813895
149
-2032998.63613423
  0
PLOTSETTINGS
  5
662
102
{ACAD_REACTORS
330
52F
102
}
330
52F
100
AcDbPlotSettings
  1
8500 B&W Shaded 8.5x11
  2
8500B&WShaded.pc3
  4
Letter
  6
PS1
 40
5.027083396911621
 41
5.027085304260253
 42
5.027084350585937
 43
5.027069091796875
 44
215.8999938964843
 45
279.3999938964843
 46
0.0
 47
44.44999999999999
 48
180377.877572
 49
80019.819395
140
180380.8390819999
141
80022.26069
142
1.0
143
0.0152035994604527
 70
   692
 72
     0
 73
     1
 74
     3
  7
8500B&WShaded.ctb
 75
     0
147
65.77389799048455
148
-4581651.879813895
149
-2032998.63613423
  0
PLOTSETTINGS
  5
663
102
{ACAD_REACTORS
330
52F
102
}
330
52F
100
AcDbPlotSettings
  1
8500 Color Shaded 11x17
  2
8500ColorShaded.pc3
  4
11x17
  6
PS1
 40
5.027083396911621
 41
5.027085304260253
 42
5.027099609375
 43
5.027069091796875
 44
279.3999938964843
 45
431.7999877929687
 46
0.0
 47
92.964
 48
180377.877572
 49
80019.819395
140
180380.8390819999
141
80022.26069
142
1.0
143
0.0116192543742624
 70
   692
 72
     0
 73
     1
 74
     3
  7
8500ColorShaded.ctb
 75
     0
147
86.06404230335863
148
-4581651.879813895
149
-2032998.63613423
  0
PLOTSETTINGS
  5
664
102
{ACAD_REACTORS
330
52F
102
}
330
52F
100
AcDbPlotSettings
  1
8500 Color Shaded 8.5x11
  2
8500ColorShaded.pc3
  4
Letter
  6
PS1
 40
5.027083396911621
 41
5.027085304260253
 42
5.027084350585937
 43
5.027069091796875
 44
215.8999938964843
 45
279.3999938964843
 46
0.0
 47
44.44999999999999
 48
180377.877572
 49
80019.819395
140
180380.8390819999
141
80022.26069
142
1.0
143
0.0152035994604527
 70
   692
 72
     0
 73
     1
 74
     3
  7
8500ColorShaded.ctb
 75
     0
147
65.77389799048455
148
-4581651.879813895
149
-2032998.63613423
  0
PLOTSETTINGS
  5
665
102
{ACAD_REACTORS
330
52F
102
}
330
52F
100
AcDbPlotSettings
  1
8500-B&W-Shaded-11x17
  2
8500B&WShaded.pc3
  4
11x17
  6

 40
5.027083396911621
 41
5.027085304260253
 42
5.027099609375
 43
5.027069091796875
 44
279.3999938964843
 45
431.7999877929687
 46
0.0
 47
0.0
 48
180360.0524337165
 49
80033.77936194791
140
180369.1574725906
141
80037.61796031875
142
1.0
143
0.0519425466957002
 70
  1712
 72
     0
 73
     1
 74
     1
  7
8500B&WShaded.ctb
 75
     0
147
19.252040256293
148
-190.0773302744904
149
-129.2444057835751
  0
PLOTSETTINGS
  5
666
102
{ACAD_REACTORS
330
52F
102
}
330
52F
100
AcDbPlotSettings
  1
8500-B&W-Shaded-8.5x11
  2
8500B&WShaded.pc3
  4
Letter
  6

 40
5.027083396911621
 41
5.027085304260253
 42
5.027084350585937
 43
5.027069091796875
 44
215.8999938964843
 45
279.3999938964843
 46
0.0
 47
0.0
 48
180360.0524337165
 49
80033.77936194791
140
180369.1574725906
141
80037.61796031875
142
1.0
143
0.0679659511256221
 70
  1712
 72
     0
 73
     1
 74
     1
  7
8500B&WShaded.ctb
 75
     0
147
14.71324955273106
148
-190.0773302744904
149
-129.2444057835751
  0
PLOTSETTINGS
  5
667
102
{ACAD_REACTORS
330
52F
102
}
330
52F
100
AcDbPlotSettings
  1
8500-Color-Shaded-11x17
  2
8500ColorShaded.pc3
  4
11x17
  6

 40
5.027083396911621
 41
5.027085304260253
 42
5.027099609375
 43
5.027069091796875
 44
279.3999938964843
 45
431.7999877929687
 46
0.0
 47
0.0
 48
180360.0524337165
 49
80033.77936194791
140
180369.1574725906
141
80037.61796031875
142
1.0
143
0.0519425466957002
 70
  1712
 72
     0
 73
     1
 74
     1
  7
8500ColorShaded.ctb
 75
     0
147
19.252040256293
148
-190.0773302744904
149
-129.2444057835751
  0
PLOTSETTINGS
  5
668
102
{ACAD_REACTORS
330
52F
102
}
330
52F
100
AcDbPlotSettings
  1
8500-Color-Shaded-8.5x11
  2
8500ColorShaded.pc3
  4
Letter
  6

 40
5.027083396911621
 41
5.027085304260253
 42
5.027084350585937
 43
5.027069091796875
 44
215.8999938964843
 45
279.3999938964843
 46
0.0
 47
0.0
 48
180360.0524337165
 49
80033.77936194791
140
180369.1574725906
141
80037.61796031875
142
1.0
143
0.0679659511256221
 70
  1712
 72
     0
 73
     1
 74
     1
  7
8500ColorShaded.ctb
 75
     0
147
14.71324955273106
148
-190.0773302744904
149
-129.2444057835751
  0
PLOTSETTINGS
  5
669
102
{ACAD_REACTORS
330
52F
102
}
330
52F
100
AcDbPlotSettings
  1
Laser Jet 5 Shaded 11x17
  2
LaserJet5Shaded.pc3
  4
11x17
  6
PS1
 40
7.143749713897705
 41
5.873736858367919
 42
7.143768310546875
 43
7.14373779296875
 44
279.3999938964843
 45
431.7999877929687
 46
0.0
 47
29.71799999999999
 48
180377.877572
 49
80019.819395
140
180380.8390819999
141
80022.26069
142
1.0
143
0.2557442899420743
 70
   692
 72
     0
 73
     1
 74
     3
  7
LaserJet5Shaded.ctb
 75
     0
147
3.910155727138614
148
-4581603.303200401
149
-2032962.095032944
  0
PLOTSETTINGS
  5
66A
102
{ACAD_REACTORS
330
52F
102
}
330
52F
100
AcDbPlotSettings
  1
Laser Jet 5 Shaded 8.5x11
  2
LaserJet5Shaded.pc3
  4
Letter
  6
PS1
 40
7.143749713897705
 41
6.974400997161865
 42
7.14373779296875
 43
6.297088623046875
 44
215.8999938964843
 45
279.3999938964843
 46
2.794
 47
0.0
 48
180377.877572
 49
80019.819395
140
180380.8390819999
141
80022.26069
142
1.0
143
0.345513616778612
 70
   692
 72
     0
 73
     1
 74
     3
  7
LaserJet5Shaded.ctb
 75
     0
147
2.894241938489939
148
-4581603.303200401
149
-2032962.095032944
  0
PLOTSETTINGS
  5
66B
102
{ACAD_REACTORS
330
52F
102
}
330
52F
100
AcDbPlotSettings
  1
LaserJet5-Shaded-11x17
  2
LaserJet5Shaded.pc3
  4
11x17
  6

 40
7.143749713897705
 41
5.873736858367919
 42
7.143768310546875
 43
7.14373779296875
 44
279.3999938964843
 45
431.7999877929687
 46
0.0
 47
0.0
 48
180360.0524337165
 49
80033.77936194791
140
180369.1574725906
141
80037.61796031875
142
1.0
143
0.0527719690046124
 70
  1712
 72
     0
 73
     1
 74
     1
  7
LaserJet5Shaded.ctb
 75
     0
147
18.9494540162524
148
-190.0773302744904
149
-129.2444057835751
  0
PLOTSETTINGS
  5
66C
102
{ACAD_REACTORS
330
52F
102
}
330
52F
100
AcDbPlotSettings
  1
LaserJet5-Shaded-8.5x11
  2
LaserJet5Shaded.pc3
  4
Letter
  6

 40
7.143749713897705
 41
6.974400997161865
 42
7.14373779296875
 43
6.297088623046875
 44
215.8999938964843
 45
279.3999938964843
 46
0.0
 47
0.0
 48
180360.0524337165
 49
80033.77936194791
140
180369.1574725906
141
80037.61796031875
142
1.0
143
0.069393053089765
 70
  1712
 72
     0
 73
     1
 74
     1
  7
LaserJet5Shaded.ctb
 75
     0
147
14.41066440334347
148
-190.0773302744904
149
-129.2444057835751
  0
PLOTSETTINGS
  5
66D
102
{ACAD_REACTORS
330
52F
102
}
330
52F
100
AcDbPlotSettings
  1
Oki Doki B&W Shaded 11x17
  2
OKI DOKI Color Laser.pc3
  4
Tabloid
  6
PS1
 40
5.027083396911621
 41
5.027085304260253
 42
5.027099609375
 43
5.027069091796875
 44
279.3999938964843
 45
431.7999877929687
 46
0.0
 47
47.49799999999999
 48
180377.877572
 49
80019.819395
140
180380.8390819999
141
80022.26069
142
1.0
143
0.2302203728173071
 70
   692
 72
     0
 73
     1
 74
     4
  7
OKIB&WShaded.ctb
 75
     0
147
4.343664236846477
148
-4581598.0903288
149
-2032503.412632999
  0
PLOTSETTINGS
  5
66E
102
{ACAD_REACTORS
330
52F
102
}
330
52F
100
AcDbPlotSettings
  1
Oki Doki B&W Shaded 8.5x11
  2
OKI DOKI Color Laser.pc3
  4
Letter
  6
PS1
 40
5.027083396911621
 41
5.027085304260253
 42
5.027084350585937
 43
5.027069091796875
 44
215.8999938964843
 45
279.3999938964843
 46
0.0
 47
9.906
 48
180377.877572
 49
80019.819395
140
180380.8390819999
141
80022.26069
142
1.0
143
0.3012394963745367
 70
   692
 72
     0
 73
     1
 74
     4
  7
OKIB&WShaded.ctb
 75
     0
147
3.319617819161008
148
-4581598.0903288
149
-2032503.412632999
  0
PLOTSETTINGS
  5
66F
102
{ACAD_REACTORS
330
52F
102
}
330
52F
100
AcDbPlotSettings
  1
Oki Doki Color Laser
  2
OKI DOKI Color Laser.pc3
  4
Letter
  6
PS1
 40
5.027083396911621
 41
5.027085304260253
 42
5.027084350585937
 43
5.027069091796875
 44
215.8999938964843
 45
279.3999938964843
 46
71.88199999999999
 47
97.02799999999999
 48
180377.877572
 49
80019.819395
140
180380.8390819999
141
80022.26069
142
1.0
143
1.0
 70
   692
 72
     0
 73
     1
 74
     4
  7
Color.ctb
 75
    16
147
1.0
148
-4581598.0903288
149
-2032503.412632999
  0
PLOTSETTINGS
  5
670
102
{ACAD_REACTORS
330
52F
102
}
330
52F
100
AcDbPlotSettings
  1
Oki Doki Color Shaded 11x17
  2
OKI DOKI Color Laser.pc3
  4
Tabloid
  6
PS1
 40
5.027083396911621
 41
5.027085304260253
 42
5.027099609375
 43
5.027069091796875
 44
279.3999938964843
 45
431.7999877929687
 46
0.0
 47
47.49799999999999
 48
180377.877572
 49
80019.819395
140
180380.8390819999
141
80022.26069
142
1.0
143
0.2302203728173071
 70
   692
 72
     0
 73
     1
 74
     4
  7
OKIColorShaded.ctb
 75
     0
147
4.343664236846477
148
-4581598.0903288
149
-2032503.412632999
  0
PLOTSETTINGS
  5
671
102
{ACAD_REACTORS
330
52F
102
}
330
52F
100
AcDbPlotSettings
  1
Oki Doki Color Shaded 8.5x11
  2
OKI DOKI Color Laser.pc3
  4
Letter
  6
PS1
 40
5.027083396911621
 41
5.027085304260253
 42
5.027084350585937
 43
5.027069091796875
 44
215.8999938964843
 45
279.3999938964843
 46
0.0
 47
9.906
 48
180377.877572
 49
80019.819395
140
180380.8390819999
141
80022.26069
142
1.0
143
0.3012394963745367
 70
   692
 72
     0
 73
     1
 74
     4
  7
OKIColorShaded.ctb
 75
     0
147
3.319617819161008
148
-4581598.0903288
149
-2032503.412632999
  0
PLOTSETTINGS
  5
672
102
{ACAD_REACTORS
330
52F
102
}
330
52F
100
AcDbPlotSettings
  1
Oki-Doki-B&W-Shaded-11x17
  2
OKI DOKI Color Laser.pc3
  4
Tabloid
  6

 40
5.027083396911621
 41
5.027085304260253
 42
5.027099609375
 43
5.027069091796875
 44
279.3999938964843
 45
431.7999877929687
 46
45.72
 47
0.0
 48
180360.0524337165
 49
80033.77936194791
140
180369.1574725906
141
80037.61796031875
142
1.0
143
0.5483586774064594
 70
  1716
 72
     0
 73
     1
 74
     4
  7
OKIB&WShaded.ctb
 75
     0
147
1.823623918435361
148
-4581145.331816398
149
-2032857.995793476
  0
PLOTSETTINGS
  5
673
102
{ACAD_REACTORS
330
52F
102
}
330
52F
100
AcDbPlotSettings
  1
Oki-Doki-B&W-Shaded-8.5x11
  2
OKI DOKI Color Laser.pc3
  4
Letter
  6

 40
5.027083396911621
 41
5.027085304260253
 42
5.027084350585937
 43
5.027069091796875
 44
215.8999938964843
 45
279.3999938964843
 46
46.228
 47
0.0
 48
180360.0524337165
 49
80033.77936194791
140
180369.1574725906
141
80037.61796031875
142
1.0
143
0.8586284006917006
 70
  1716
 72
     0
 73
     1
 74
     4
  7
OKIB&WShaded.ctb
 75
     0
147
1.16464817515285
148
-4581145.331816398
149
-2032857.995793476
  0
PLOTSETTINGS
  5
674
102
{ACAD_REACTORS
330
52F
102
}
330
52F
100
AcDbPlotSettings
  1
Oki-Doki-Color-Laser
  2
OKI DOKI Color Laser.pc3
  4
Letter
  6

 40
5.027083396911621
 41
5.027085304260253
 42
5.027084350585937
 43
5.027069091796875
 44
215.8999938964843
 45
279.3999938964843
 46
17.018
 47
0.0
 48
180360.0524337165
 49
80033.77936194791
140
180369.1574725906
141
80037.61796031875
142
1.0
143
1.429088128819241
 70
  1716
 72
     0
 73
     1
 74
     0
  7
Color.ctb
 75
     0
147
0.6997469084193093
148
0.9506237099442977
149
8.593888772447144
  0
PLOTSETTINGS
  5
675
102
{ACAD_REACTORS
330
52F
102
}
330
52F
100
AcDbPlotSettings
  1
Oki-Doki-Color-Shaded-11x17
  2
OKI DOKI Color Laser.pc3
  4
Tabloid
  6

 40
5.027083396911621
 41
5.027085304260253
 42
5.027099609375
 43
5.027069091796875
 44
279.3999938964843
 45
431.7999877929687
 46
45.72
 47
0.0
 48
180360.0524337165
 49
80033.77936194791
140
180369.1574725906
141
80037.61796031875
142
1.0
143
0.5483586774064594
 70
  1716
 72
     0
 73
     1
 74
     4
  7
OKIColorShaded.ctb
 75
     0
147
1.823623918435361
148
-4581145.331816398
149
-2032857.995793476
  0
PLOTSETTINGS
  5
676
102
{ACAD_REACTORS
330
52F
102
}
330
52F
100
AcDbPlotSettings
  1
Oki-Doki-Color-Shaded-8.5x11
  2
OKI DOKI Color Laser.pc3
  4
Letter
  6

 40
5.027083396911621
 41
5.027085304260253
 42
5.027084350585937
 43
5.027069091796875
 44
215.8999938964843
 45
279.3999938964843
 46
46.228
 47
0.0
 48
180360.0524337165
 49
80033.77936194791
140
180369.1574725906
141
80037.61796031875
142
1.0
143
0.8586284006917006
 70
  1716
 72
     0
 73
     1
 74
     4
  7
OKIColorShaded.ctb
 75
     0
147
1.16464817515285
148
-4581145.331816398
149
-2032857.995793476
  0
ACDBPLACEHOLDER
  5
52D
102
{ACAD_REACTORS
330
52C
102
}
330
52C
  0
DICTIONARYVAR
  5
31
102
{ACAD_REACTORS
330
30
102
}
330
30
100
DictionaryVariables
280
     0
  1
0
  0
DICTIONARYVAR
  5
537
102
{ACAD_REACTORS
330
30
102
}
330
30
100
DictionaryVariables
280
     0
  1
1
  0
DICTIONARYVAR
  5
365
102
{ACAD_REACTORS
330
30
102
}
330
30
100
DictionaryVariables
280
     0
  1
1
  0
ENDSEC
  0
EOF
