  0
SECTION
  2
HEADER
  9
$ACADVER
  1
AC1018
  9
$ACADMAINTVER
 70
   104
  9
$DWGCODEPAGE
  3
ANSI_1252
  9
$TITLE
  1
O:\RAINBIRD\Details 2008\Rotary Nozzles\S-1812Rotary-SP.DWG
  9
$AUTHOR
  1
dweyer
  9
$COMMENTS
  1
This drawing was opened and saved by 'dweyer' with AutoCAD version 17.1 using profile WatermarkID on 07-01-2008-09:11
  9
$LASTSAVEDBY
  1
dweyer
  9
$INSBASE
 10
0.0
 20
0.0
 30
0.0
  9
$EXTMIN
 10
-0.0916749879134358
 20
-0.097854729324645
 30
0.0
  9
$EXTMAX
 10
16.39832501208656
 20
10.34214527067535
 30
0.03
  9
$LIMMIN
 10
0.0
 20
0.0
  9
$LIMMAX
 10
12.0
 20
9.0
  9
$ORTHOMODE
 70
     1
  9
$REGENMODE
 70
     1
  9
$FILLMODE
 70
     1
  9
$QTEXTMODE
 70
     0
  9
$MIRRTEXT
 70
     0
  9
$LTSCALE
 40
1.0
  9
$ATTMODE
 70
     1
  9
$TEXTSIZE
 40
0.1
  9
$TRACEWID
 40
0.05
  9
$TEXTSTYLE
  7
SIMPLEX
  9
$CLAYER
  8
0
  9
$CELTYPE
  6
ByLayer
  9
$CECOLOR
 62
   256
  9
$CELTSCALE
 40
1.0
  9
$DISPSILH
 70
     0
  9
$DIMSCALE
 40
1.0
  9
$DIMASZ
 40
0.18
  9
$DIMEXO
 40
0.0625
  9
$DIMDLI
 40
0.38
  9
$DIMRND
 40
0.0
  9
$DIMDLE
 40
0.0
  9
$DIMEXE
 40
0.125
  9
$DIMTP
 40
0.0
  9
$DIMTM
 40
0.0
  9
$DIMTXT
 40
0.125
  9
$DIMCEN
 40
0.09
  9
$DIMTSZ
 40
0.0
  9
$DIMTOL
 70
     0
  9
$DIMLIM
 70
     0
  9
$DIMTIH
 70
     1
  9
$DIMTOH
 70
     1
  9
$DIMSE1
 70
     0
  9
$DIMSE2
 70
     0
  9
$DIMTAD
 70
     0
  9
$DIMZIN
 70
     0
  9
$DIMBLK
  1

  9
$DIMASO
 70
     1
  9
$DIMSHO
 70
     1
  9
$DIMPOST
  1

  9
$DIMAPOST
  1

  9
$DIMALT
 70
     0
  9
$DIMALTD
 70
     2
  9
$DIMALTF
 40
25.4
  9
$DIMLFAC
 40
1.0
  9
$DIMTOFL
 70
     0
  9
$DIMTVP
 40
0.0
  9
$DIMTIX
 70
     0
  9
$DIMSOXD
 70
     0
  9
$DIMSAH
 70
     0
  9
$DIMBLK1
  1

  9
$DIMBLK2
  1

  9
$DIMSTYLE
  2
STANDARD
  9
$DIMCLRD
 70
   256
  9
$DIMCLRE
 70
   256
  9
$DIMCLRT
 70
   256
  9
$DIMTFAC
 40
1.0
  9
$DIMGAP
 40
0.09
  9
$DIMJUST
 70
     0
  9
$DIMSD1
 70
     0
  9
$DIMSD2
 70
     0
  9
$DIMTOLJ
 70
     1
  9
$DIMTZIN
 70
     0
  9
$DIMALTZ
 70
     0
  9
$DIMALTTZ
 70
     0
  9
$DIMUPT
 70
     0
  9
$DIMDEC
 70
     4
  9
$DIMTDEC
 70
     4
  9
$DIMALTU
 70
     2
  9
$DIMALTTD
 70
     2
  9
$DIMTXSTY
  7
STANDARD
  9
$DIMAUNIT
 70
     0
  9
$DIMADEC
 70
     0
  9
$DIMALTRND
 40
0.0
  9
$DIMAZIN
 70
     0
  9
$DIMDSEP
 70
    46
  9
$DIMATFIT
 70
     3
  9
$DIMFRAC
 70
     0
  9
$DIMLDRBLK
  1

  9
$DIMLUNIT
 70
     2
  9
$DIMLWD
 70
    -1
  9
$DIMLWE
 70
    -1
  9
$DIMTMOVE
 70
     2
  9
$LUNITS
 70
     2
  9
$LUPREC
 70
     3
  9
$SKETCHINC
 40
0.1
  9
$FILLETRAD
 40
0.0
  9
$AUNITS
 70
     0
  9
$AUPREC
 70
     0
  9
$MENU
  1
ACAD
  9
$ELEVATION
 40
0.0
  9
$PELEVATION
 40
0.0
  9
$THICKNESS
 40
0.0
  9
$LIMCHECK
 70
     0
  9
$CHAMFERA
 40
0.0
  9
$CHAMFERB
 40
0.0
  9
$CHAMFERC
 40
0.0
  9
$CHAMFERD
 40
0.0
  9
$SKPOLY
 70
     0
  9
$TDCREATE
 40
2451471.427491794
  9
$TDUCREATE
 40
2451471.677491794
  9
$TDUPDATE
 40
2454649.383267500
  9
$TDUUPDATE
 40
2454649.633267500
  9
$TDINDWG
 40
0.3419324421
  9
$TDUSRTIMER
 40
0.3419324421
  9
$USRTIMER
 70
     1
  9
$ANGBASE
 50
0.0
  9
$ANGDIR
 70
     0
  9
$PDMODE
 70
     0
  9
$PDSIZE
 40
0.0
  9
$PLINEWID
 40
0.0
  9
$SPLFRAME
 70
     0
  9
$SPLINETYPE
 70
     6
  9
$SPLINESEGS
 70
     8
  9
$HANDSEED
  5
C46
  9
$SURFTAB1
 70
     6
  9
$SURFTAB2
 70
     6
  9
$SURFTYPE
 70
     6
  9
$SURFU
 70
     6
  9
$SURFV
 70
     6
  9
$UCSBASE
  2

  9
$UCSNAME
  2

  9
$UCSORG
 10
0.0
 20
0.0
 30
0.0
  9
$UCSXDIR
 10
1.0
 20
0.0
 30
0.0
  9
$UCSYDIR
 10
0.0
 20
1.0
 30
0.0
  9
$UCSORTHOREF
  2

  9
$UCSORTHOVIEW
 70
     0
  9
$UCSORGTOP
 10
0.0
 20
0.0
 30
0.0
  9
$UCSORGBOTTOM
 10
0.0
 20
0.0
 30
0.0
  9
$UCSORGLEFT
 10
0.0
 20
0.0
 30
0.0
  9
$UCSORGRIGHT
 10
0.0
 20
0.0
 30
0.0
  9
$UCSORGFRONT
 10
0.0
 20
0.0
 30
0.0
  9
$UCSORGBACK
 10
0.0
 20
0.0
 30
0.0
  9
$PUCSBASE
  2

  9
$PUCSNAME
  2

  9
$PUCSORG
 10
0.0
 20
0.0
 30
0.0
  9
$PUCSXDIR
 10
1.0
 20
0.0
 30
0.0
  9
$PUCSYDIR
 10
0.0
 20
1.0
 30
0.0
  9
$PUCSORTHOREF
  2

  9
$PUCSORTHOVIEW
 70
     0
  9
$PUCSORGTOP
 10
0.0
 20
0.0
 30
0.0
  9
$PUCSORGBOTTOM
 10
0.0
 20
0.0
 30
0.0
  9
$PUCSORGLEFT
 10
0.0
 20
0.0
 30
0.0
  9
$PUCSORGRIGHT
 10
0.0
 20
0.0
 30
0.0
  9
$PUCSORGFRONT
 10
0.0
 20
0.0
 30
0.0
  9
$PUCSORGBACK
 10
0.0
 20
0.0
 30
0.0
  9
$USERI1
 70
     0
  9
$USERI2
 70
     0
  9
$USERI3
 70
     0
  9
$USERI4
 70
     0
  9
$USERI5
 70
     0
  9
$USERR1
 40
0.0
  9
$USERR2
 40
0.0
  9
$USERR3
 40
0.0
  9
$USERR4
 40
0.0
  9
$USERR5
 40
0.0
  9
$WORLDVIEW
 70
     1
  9
$SHADEDGE
 70
     3
  9
$SHADEDIF
 70
    70
  9
$TILEMODE
 70
     1
  9
$MAXACTVP
 70
    16
  9
$PINSBASE
 10
0.0
 20
0.0
 30
0.0
  9
$PLIMCHECK
 70
     0
  9
$PEXTMIN
 10
1.000000000000000E+20
 20
1.000000000000000E+20
 30
1.000000000000000E+20
  9
$PEXTMAX
 10
-1.000000000000000E+20
 20
-1.000000000000000E+20
 30
-1.000000000000000E+20
  9
$PLIMMIN
 10
0.0
 20
0.0
  9
$PLIMMAX
 10
12.0
 20
9.0
  9
$UNITMODE
 70
     0
  9
$VISRETAIN
 70
     0
  9
$PLINEGEN
 70
     1
  9
$PSLTSCALE
 70
     1
  9
$TREEDEPTH
 70
  3020
  9
$CMLSTYLE
  2
Standard
  9
$CMLJUST
 70
     0
  9
$CMLSCALE
 40
1.0
  9
$PROXYGRAPHICS
 70
     1
  9
$MEASUREMENT
 70
     0
  9
$CELWEIGHT
370
    -1
  9
$ENDCAPS
280
     0
  9
$JOINSTYLE
280
     0
  9
$LWDISPLAY
290
     0
  9
$INSUNITS
 70
     0
  9
$HYPERLINKBASE
  1

  9
$STYLESHEET
  1
8500ColorShaded.ctb
  9
$XEDIT
290
     1
  9
$CEPSNTYPE
380
     0
  9
$PSTYLEMODE
290
     1
  9
$FINGERPRINTGUID
  2
{DFE79B52-4250-426E-9501-C259CDBF9C92}
  9
$VERSIONGUID
  2
{5D07C024-CC91-4E16-AA62-B2797BD5311A}
  9
$EXTNAMES
290
     1
  9
$PSVPSCALE
 40
0.0
  9
$OLESTARTUP
290
     1
  9
$SORTENTS
280
   112
  9
$INDEXCTL
280
     0
  9
$HIDETEXT
280
     1
  9
$XCLIPFRAME
290
     0
  9
$HALOGAP
280
     0
  9
$OBSCOLOR
 70
   257
  9
$OBSLTYPE
280
     0
  9
$INTERSECTIONDISPLAY
280
     0
  9
$INTERSECTIONCOLOR
 70
   257
  9
$DIMASSOC
280
     1
  9
$PROJECTNAME
  1

  0
ENDSEC
  0
SECTION
  2
CLASSES
  0
CLASS
  1
ACDBDICTIONARYWDFLT
  2
AcDbDictionaryWithDefault
  3
ObjectDBX Classes
 90
        0
 91
        1
280
     0
281
     0
  0
CLASS
  1
DICTIONARYVAR
  2
AcDbDictionaryVar
  3
ObjectDBX Classes
 90
        0
 91
        9
280
     0
281
     0
  0
CLASS
  1
MATERIAL
  2
AcDbMaterial
  3
ObjectDBX Classes
 90
     1153
 91
        3
280
     0
281
     0
  0
CLASS
  1
VISUALSTYLE
  2
AcDbVisualStyle
  3
ObjectDBX Classes
 90
     4095
 91
       16
280
     0
281
     0
  0
CLASS
  1
TABLESTYLE
  2
AcDbTableStyle
  3
ObjectDBX Classes
 90
     4095
 91
        1
280
     0
281
     0
  0
CLASS
  1
SCALE
  2
AcDbScale
  3
ObjectDBX Classes
 90
     1153
 91
       65
280
     0
281
     0
  0
CLASS
  1
MLEADERSTYLE
  2
AcDbMLeaderStyle
  3
ACDB_MLEADERSTYLE_CLASS
 90
     4095
 91
        1
280
     0
281
     0
  0
CLASS
  1
EXACXREFPANELOBJECT
  2
ExAcXREFPanelObject
  3
EXAC_ESW
 90
     1025
 91
        1
280
     0
281
     0
  0
CLASS
  1
NPOCOLLECTION
  2
AcDbImpNonPersistentObjectsCollection
  3
ObjectDBX Classes
 90
     1153
 91
        1
280
     0
281
     0
  0
CLASS
  1
CELLSTYLEMAP
  2
AcDbCellStyleMap
  3
ObjectDBX Classes
 90
     1152
 91
        2
280
     0
281
     0
  0
ENDSEC
  0
SECTION
  2
TABLES
  0
TABLE
  2
VPORT
  5
4CA
330
0
100
AcDbSymbolTable
 70
     1
  0
VPORT
  5
AA9
330
4CA
100
AcDbSymbolTableRecord
100
AcDbViewportTableRecord
  2
*Active
 70
     0
 10
0.0
 20
0.0
 11
1.0
 21
1.0
 12
7.818219045417858
 22
5.146713167520536
 13
0.0
 23
0.0
 14
0.14
 24
0.14
 15
0.0
 25
0.0
 16
0.0
 26
0.0
 36
1.0
 17
0.0
 27
0.0
 37
0.0
 40
10.59238266129296
 41
2.15519568151147
 42
50.0
 43
0.0
 44
0.0
 50
0.0
 51
0.0
 71
     0
 72
  4000
 73
     1
 74
     1
 75
     0
 76
     0
 77
     0
 78
     0
281
     0
 65
     1
110
0.0
120
0.0
130
0.0
111
1.0
121
0.0
131
0.0
112
0.0
122
1.0
132
0.0
 79
     0
146
0.0
  0
ENDTAB
  0
TABLE
  2
LTYPE
  5
4C7
330
0
100
AcDbSymbolTable
 70
     1
  0
LTYPE
  5
4D5
330
4C7
100
AcDbSymbolTableRecord
100
AcDbLinetypeTableRecord
  2
ByBlock
 70
     0
  3

 72
    65
 73
     0
 40
0.0
  0
LTYPE
  5
4D6
330
4C7
100
AcDbSymbolTableRecord
100
AcDbLinetypeTableRecord
  2
ByLayer
 70
     0
  3

 72
    65
 73
     0
 40
0.0
  0
LTYPE
  5
4D7
330
4C7
100
AcDbSymbolTableRecord
100
AcDbLinetypeTableRecord
  2
CONTINUOUS
 70
     0
  3
Solid line
 72
    65
 73
     0
 40
0.0
  0
ENDTAB
  0
TABLE
  2
LAYER
  5
4C4
102
{ACAD_XDICTIONARY
360
51F
102
}
330
0
100
AcDbSymbolTable
 70
    15
  0
LAYER
  5
4D2
330
4C4
100
AcDbSymbolTableRecord
100
AcDbLayerTableRecord
  2
0
 70
     0
 62
     7
  6
CONTINUOUS
370
    -3
390
4D1
  0
LAYER
  5
4EB
330
4C4
100
AcDbSymbolTableRecord
100
AcDbLayerTableRecord
  2
text_bubbles
 70
     0
 62
     6
  6
CONTINUOUS
370
    -3
390
4D1
  0
LAYER
  5
4EC
330
4C4
100
AcDbSymbolTableRecord
100
AcDbLayerTableRecord
  2
image
 70
     0
 62
     7
  6
CONTINUOUS
370
    -3
390
4D1
  0
LAYER
  5
4EF
330
4C4
100
AcDbSymbolTableRecord
100
AcDbLayerTableRecord
  2
text_leaders
 70
     1
 62
    -5
  6
CONTINUOUS
370
    -3
390
4D1
  0
LAYER
  5
4F0
330
4C4
100
AcDbSymbolTableRecord
100
AcDbLayerTableRecord
  2
instruct-option
 70
     0
 62
     7
  6
CONTINUOUS
370
    -3
390
4D1
  0
LAYER
  5
4F1
330
4C4
100
AcDbSymbolTableRecord
100
AcDbLayerTableRecord
  2
instruct-callout
 70
     0
 62
     4
  6
CONTINUOUS
370
    -3
390
4D1
  0
LAYER
  5
4F7
330
4C4
100
AcDbSymbolTableRecord
100
AcDbLayerTableRecord
  2
option-sam
 70
     0
 62
     1
  6
CONTINUOUS
370
    -3
390
4D1
  0
LAYER
  5
503
330
4C4
100
AcDbSymbolTableRecord
100
AcDbLayerTableRecord
  2
text-sa-leaders
 70
     1
 62
    -1
  6
CONTINUOUS
370
    -3
390
4D1
  0
LAYER
  5
504
330
4C4
100
AcDbSymbolTableRecord
100
AcDbLayerTableRecord
  2
text-sa-bubbles
 70
     0
 62
     1
  6
CONTINUOUS
370
    -3
390
4D1
  0
LAYER
  5
505
330
4C4
100
AcDbSymbolTableRecord
100
AcDbLayerTableRecord
  2
option_sa
 70
     0
 62
     1
  6
CONTINUOUS
370
    -3
390
4D1
  0
LAYER
  5
506
330
4C4
100
AcDbSymbolTableRecord
100
AcDbLayerTableRecord
  2
text-rb-sa-bubbles
 70
     1
 62
    -1
  6
CONTINUOUS
370
    -3
390
4D1
  0
LAYER
  5
507
330
4C4
100
AcDbSymbolTableRecord
100
AcDbLayerTableRecord
  2
option_rb_sa
 70
     1
 62
    -1
  6
CONTINUOUS
370
    -3
390
4D1
  0
LAYER
  5
508
330
4C4
100
AcDbSymbolTableRecord
100
AcDbLayerTableRecord
  2
text-rb-sa-leaders
 70
     1
 62
    -1
  6
CONTINUOUS
370
    -3
390
4D1
  0
LAYER
  5
51E
330
4C4
100
AcDbSymbolTableRecord
100
AcDbLayerTableRecord
  2
title
 70
     0
 62
     4
  6
CONTINUOUS
370
    -3
390
4D1
  0
ENDTAB
  0
TABLE
  2
STYLE
  5
4C5
330
0
100
AcDbSymbolTable
 70
     6
  0
STYLE
  5
4D3
330
4C5
100
AcDbSymbolTableRecord
100
AcDbTextStyleTableRecord
  2
STANDARD
 70
     0
 40
0.0
 41
1.0
 50
0.0
 71
     0
 42
0.2
  3
txt
  4

  0
STYLE
  5
4E6
330
4C5
100
AcDbSymbolTableRecord
100
AcDbTextStyleTableRecord
  2
ROMANS
 70
     0
 40
0.0
 41
1.0
 50
0.0
 71
     0
 42
0.1
  3
ROMANS.SHX
  4

  0
STYLE
  5
4E7
330
4C5
100
AcDbSymbolTableRecord
100
AcDbTextStyleTableRecord
  2
SIMPLEX
 70
     0
 40
0.0
 41
1.0
 50
0.0
 71
     0
 42
0.1
  3
SIMPLEX
  4

  0
STYLE
  5
594
330
4C5
100
AcDbSymbolTableRecord
100
AcDbTextStyleTableRecord
  2
L100
 70
     0
 40
0.1
 41
1.0
 50
0.0
 71
     0
 42
0.1
  3
romans.shx
  4

  0
STYLE
  5
595
330
4C5
100
AcDbSymbolTableRecord
100
AcDbTextStyleTableRecord
  2
L200
 70
     0
 40
0.2
 41
1.0
 50
0.0
 71
     0
 42
0.081
  3
ARIAL.TTF
  4

1001
ACAD
1000
Arial
1071
       34
  0
STYLE
  5
596
330
4C5
100
AcDbSymbolTableRecord
100
AcDbTextStyleTableRecord
  2
L80
 70
     0
 40
0.08
 41
1.0
 50
0.0
 71
     0
 42
0.08
  3
ROMANS
  4

  0
ENDTAB
  0
TABLE
  2
VIEW
  5
4C8
330
0
100
AcDbSymbolTable
 70
     0
  0
ENDTAB
  0
TABLE
  2
UCS
  5
4C9
330
0
100
AcDbSymbolTable
 70
     0
  0
ENDTAB
  0
TABLE
  2
APPID
  5
4CB
330
0
100
AcDbSymbolTable
 70
     9
  0
APPID
  5
4D4
330
4CB
100
AcDbSymbolTableRecord
100
AcDbRegAppTableRecord
  2
ACAD
 70
     0
  0
APPID
  5
AFC
330
4CB
100
AcDbSymbolTableRecord
100
AcDbRegAppTableRecord
  2
ACAD_MLEADERVER
 70
     0
  0
APPID
  5
BED
330
4CB
100
AcDbSymbolTableRecord
100
AcDbRegAppTableRecord
  2
BBSI_PltSel
 70
     0
  0
APPID
  5
BEE
330
4CB
100
AcDbSymbolTableRecord
100
AcDbRegAppTableRecord
  2
BBSI_Plots
 70
     0
  0
APPID
  5
BEF
330
4CB
100
AcDbSymbolTableRecord
100
AcDbRegAppTableRecord
  2
BBSI_Bookmarks
 70
     0
  0
APPID
  5
BF0
330
4CB
100
AcDbSymbolTableRecord
100
AcDbRegAppTableRecord
  2
ACAD_PSEXT
 70
     0
  0
ENDTAB
  0
TABLE
  2
DIMSTYLE
  5
4CC
330
0
100
AcDbSymbolTable
 70
     1
100
AcDbDimStyleTable
 71
     0
  0
DIMSTYLE
105
4EA
330
4CC
100
AcDbSymbolTableRecord
100
AcDbDimStyleTableRecord
  2
STANDARD
 70
     0
279
     2
340
4D3
  0
ENDTAB
  0
TABLE
  2
BLOCK_RECORD
  5
4C3
330
0
100
AcDbSymbolTable
 70
     2
  0
BLOCK_RECORD
  5
4E0
330
4C3
100
AcDbSymbolTableRecord
100
AcDbBlockTableRecord
  2
*Model_Space
340
4E3
  0
BLOCK_RECORD
  5
4DC
330
4C3
100
AcDbSymbolTableRecord
100
AcDbBlockTableRecord
  2
*Paper_Space
340
4DF
  0
BLOCK_RECORD
  5
598
330
4C3
100
AcDbSymbolTableRecord
100
AcDbBlockTableRecord
  2
titleblock
340
0
102
{BLKREFS
331
5B3
102
}
  0
BLOCK_RECORD
  5
8A4
330
4C3
100
AcDbSymbolTableRecord
100
AcDbBlockTableRecord
  2
*X1
340
0
102
{BLKREFS
331
9D7
102
}
  0
ENDTAB
  0
ENDSEC
  0
SECTION
  2
BLOCKS
  0
BLOCK
  5
50C
330
4E0
100
AcDbEntity
  8
0
100
AcDbBlockBegin
  2
*Model_Space
 70
     0
 10
0.0
 20
0.0
 30
0.0
  3
*Model_Space
  1

  0
ENDBLK
  5
50D
330
4E0
100
AcDbEntity
  8
0
100
AcDbBlockEnd
  0
BLOCK
  5
50A
330
4DC
100
AcDbEntity
 67
     1
  8
0
100
AcDbBlockBegin
  2
*Paper_Space
 70
     0
 10
0.0
 20
0.0
 30
0.0
  3
*Paper_Space
  1

  0
ENDBLK
  5
50B
330
4DC
100
AcDbEntity
 67
     1
  8
0
100
AcDbBlockEnd
  0
BLOCK
  5
5A4
330
598
100
AcDbEntity
  8
0
100
AcDbBlockBegin
  2
titleblock
 70
     2
 10
0.0
 20
0.0
 30
0.0
  3
titleblock
  1

  0
LWPOLYLINE
  5
599
330
598
100
AcDbEntity
  8
image
100
AcDbPolyline
 90
        4
 70
     1
 43
0.0
 10
0.0
 20
0.0
 10
16.48999999999999
 20
0.0000000000000001
 10
16.48999999999999
 20
10.44
 10
0.0
 20
10.44
  0
ATTDEF
  5
59A
330
598
100
AcDbEntity
  8
title
100
AcDbText
 10
0.5055556038023421
 20
0.7842270964783673
 30
0.0
 40
0.2
  1
D
  7
L200
 72
     4
 11
0.6064423705144839
 21
0.8842270964783672
 31
0.0
100
AcDbAttributeDefinition
  3
#
  2
D
 70
     0
  0
ATTDEF
  5
59B
330
598
100
AcDbEntity
  8
title
100
AcDbText
 10
1.231442370514484
 20
1.34371230274675
 30
0.0
 40
0.2
  1

  7
L200
100
AcDbAttributeDefinition
  3
DETAIL TITLE TOP LINE
  2
TITLE1
 70
     0
  0
ATTDEF
  5
59C
330
598
100
AcDbEntity
  8
title
100
AcDbText
 10
1.231442370514484
 20
0.9842270964783674
 30
0.0
 40
0.2
  1
TITLE
  7
L200
100
AcDbAttributeDefinition
  3
DETAIL TITLE TOP 2ND LINE
  2
TITLE2
 70
     0
  0
ATTDEF
  5
59D
330
598
100
AcDbEntity
  8
title
100
AcDbText
 10
2.713645751168312
 20
0.5927927664583189
 30
0.0
 40
0.2
  1
TITLE2
  7
L200
100
AcDbAttributeDefinition
  3
DETAIL TITLE BOTTOM 1
  2
TITLE3
 70
     0
  0
ATTDEF
  5
59E
330
598
100
AcDbEntity
  8
title
100
AcDbText
 10
2.713645751168312
 20
0.2692560808167741
 30
0.0
 40
0.2
  1

  7
L200
100
AcDbAttributeDefinition
  3
DETAIL TITLE BOTTOM 2
  2
TITLE4
 70
     0
  0
ATTDEF
  5
59F
330
598
100
AcDbEntity
  8
title
 62
     7
100
AcDbText
 10
8.177214829966379
 20
0.9696027915446398
 30
0.0
 40
0.08
  1
-
  7
L80
 72
     2
 11
8.261024353775903
 21
0.9696027915446398
 31
0.0
100
AcDbAttributeDefinition
  3
REVISION DATE
  2
REVISED
 70
     0
  0
ATTDEF
  5
5A0
330
598
100
AcDbEntity
  8
title
 62
     7
100
AcDbText
 10
0.2639423705144838
 20
0.0847116480207214
 30
0.0
 40
0.08
  1
-
  7
L80
100
AcDbAttributeDefinition
  3
DWG-NAME
  2
DWG-NAME
 70
     0
  0
LWPOLYLINE
  5
5A1
330
598
100
AcDbEntity
  8
title
 62
     3
100
AcDbPolyline
 90
        2
 70
     1
 43
0.03
 10
0.6064423705144839
 20
0.5417270964783675
 42
0.9999999999999998
 10
0.6064423705144839
 20
1.226727096478367
 42
0.9999999999999998
  0
ATTDEF
  5
5A2
330
598
100
AcDbEntity
  8
title
 62
     7
100
AcDbText
 10
1.231442370514484
 20
0.7005637793954894
 30
0.0
 40
0.1
  1
N.T.S.
  7
L100
100
AcDbAttributeDefinition
  3
SCALE
  2
SCALE
 70
     0
  0
LWPOLYLINE
  5
5A3
330
598
100
AcDbEntity
  8
title
 62
     3
100
AcDbPolyline
 90
        2
 70
     0
 43
0.04
 39
0.03
 10
0.9489423705144833
 20
0.8842270964783672
 10
8.261024353775903
 20
0.8842270964783672
  0
ENDBLK
  5
5A5
330
598
100
AcDbEntity
  8
0
100
AcDbBlockEnd
  0
BLOCK
  5
914
330
8A4
100
AcDbEntity
  8
0
100
AcDbBlockBegin
  2
*X1
 70
     1
 10
0.0
 20
0.0
 30
0.0
  3
*X1
  1

  0
LINE
  5
8A5
330
8A4
100
AcDbEntity
  8
0
 62
     0
100
AcDbLine
 10
2.911631938146288
 20
6.022220300407497
 30
0.0
 11
2.872621298570349
 21
6.061230939983436
 31
0.0
  0
LINE
  5
8A6
330
8A4
100
AcDbEntity
  8
0
 62
     0
100
AcDbLine
 10
2.757716446627535
 20
5.946326088040622
 30
0.0
 11
2.642811594684721
 21
6.061230939983436
 31
0.0
  0
LINE
  5
8A7
330
8A4
100
AcDbEntity
  8
0
 62
     0
100
AcDbLine
 10
2.527906742741907
 20
5.946326088040621
 30
0.0
 11
2.413001890799093
 21
6.061230939983436
 31
0.0
  0
LINE
  5
8A8
330
8A4
100
AcDbEntity
  8
0
 62
     0
100
AcDbLine
 10
2.687352761876125
 20
5.786880068906404
 30
0.0
 11
2.642811594684721
 21
5.831421236097807
 31
0.0
  0
LINE
  5
8A9
330
8A4
100
AcDbEntity
  8
0
 62
     0
100
AcDbLine
 10
2.298097038856278
 20
5.946326088040622
 30
0.0
 11
2.250118920714847
 21
5.994304206182053
 31
0.0
  0
LINE
  5
8AA
330
8A4
100
AcDbEntity
  8
0
 62
     0
100
AcDbLine
 10
2.515047740144416
 20
5.729375386752485
 30
0.0
 11
2.413001890799092
 21
5.831421236097808
 31
0.0
  0
LINE
  5
8AB
330
8A4
100
AcDbEntity
  8
0
 62
     0
100
AcDbLine
 10
2.298097038856279
 20
5.716516384154993
 30
0.0
 11
2.183192186913465
 21
5.831421236097807
 31
0.0
  0
LINE
  5
8AC
330
8A4
100
AcDbEntity
  8
0
 62
     0
100
AcDbLine
 10
2.247357190806722
 20
5.537446528318922
 30
0.0
 11
2.183192186913465
 21
5.60161153221218
 31
0.0
  0
LINE
  5
8AD
330
8A4
100
AcDbEntity
  8
0
 62
     0
100
AcDbLine
 10
1.608667927199394
 20
5.946326088040622
 30
0.0
 11
1.49376307525658
 21
6.061230939983436
 31
0.0
  0
LINE
  5
8AE
330
8A4
100
AcDbEntity
  8
0
 62
     0
100
AcDbLine
 10
1.737275681255467
 20
5.81771833398455
 30
0.0
 11
1.723572779142208
 21
5.831421236097808
 31
0.0
  0
LINE
  5
8AF
330
8A4
100
AcDbEntity
  8
0
 62
     0
100
AcDbLine
 10
1.378858223313766
 20
5.946326088040623
 30
0.0
 11
1.263953371370952
 21
6.061230939983437
 31
0.0
  0
LINE
  5
8B0
330
8A4
100
AcDbEntity
  8
0
 62
     0
100
AcDbLine
 10
1.608667927199394
 20
5.716516384154995
 30
0.0
 11
1.49376307525658
 21
5.831421236097809
 31
0.0
  0
LINE
  5
8B1
330
8A4
100
AcDbEntity
  8
0
 62
     0
100
AcDbLine
 10
1.737275681255466
 20
5.587908630098922
 30
0.0
 11
1.723572779142208
 21
5.601611532212181
 31
0.0
  0
LINE
  5
8B2
330
8A4
100
AcDbEntity
  8
0
 62
     0
100
AcDbLine
 10
1.149048519428139
 20
5.946326088040623
 30
0.0
 11
1.034143667485325
 21
6.061230939983437
 31
0.0
  0
LINE
  5
8B3
330
8A4
100
AcDbEntity
  8
0
 62
     0
100
AcDbLine
 10
1.378858223313766
 20
5.716516384154995
 30
0.0
 11
1.263953371370952
 21
5.831421236097809
 31
0.0
  0
LINE
  5
8B4
330
8A4
100
AcDbEntity
  8
0
 62
     0
100
AcDbLine
 10
1.608667927199394
 20
5.486706680269366
 30
0.0
 11
1.49376307525658
 21
5.601611532212181
 31
0.0
  0
LINE
  5
8B5
330
8A4
100
AcDbEntity
  8
0
 62
     0
100
AcDbLine
 10
1.149048519428139
 20
5.716516384154996
 30
0.0
 11
1.034143667485325
 21
5.83142123609781
 31
0.0
  0
LINE
  5
8B6
330
8A4
100
AcDbEntity
  8
0
 62
     0
100
AcDbLine
 10
1.360810645862294
 20
5.50475425772084
 30
0.0
 11
1.263953371370953
 21
5.601611532212181
 31
0.0
  0
LINE
  5
8B7
330
8A4
100
AcDbEntity
  8
0
 62
     0
100
AcDbLine
 10
2.883116481993454
 20
5.96455711760322
 30
0.0
 11
2.829531979091794
 21
6.018141620504881
 31
0.0
  0
LINE
  5
8B8
330
8A4
100
AcDbEntity
  8
0
 62
     0
100
AcDbLine
 10
2.714627127148979
 20
5.903236768562067
 30
0.0
 11
2.599722275206166
 21
6.018141620504881
 31
0.0
  0
LINE
  5
8B9
330
8A4
100
AcDbEntity
  8
0
 62
     0
100
AcDbLine
 10
2.484817423263351
 20
5.903236768562067
 30
0.0
 11
2.369912571320537
 21
6.018141620504881
 31
0.0
  0
LINE
  5
8BA
330
8A4
100
AcDbEntity
  8
0
 62
     0
100
AcDbLine
 10
2.627968962813698
 20
5.76008522901172
 30
0.0
 11
2.599722275206166
 21
5.788331916619252
 31
0.0
  0
LINE
  5
8BB
330
8A4
100
AcDbEntity
  8
0
 62
     0
100
AcDbLine
 10
2.255007719377723
 20
5.903236768562067
 30
0.0
 11
2.214743844148475
 21
5.943500643791315
 31
0.0
  0
LINE
  5
8BC
330
8A4
100
AcDbEntity
  8
0
 62
     0
100
AcDbLine
 10
2.442817069387465
 20
5.715427418552325
 30
0.0
 11
2.369912571320537
 21
5.788331916619252
 31
0.0
  0
LINE
  5
8BD
330
8A4
100
AcDbEntity
  8
0
 62
     0
100
AcDbLine
 10
2.255007719377724
 20
5.673427064676439
 30
0.0
 11
2.149253466314404
 21
5.779181317739759
 31
0.0
  0
LINE
  5
8BE
330
8A4
100
AcDbEntity
  8
0
 62
     0
100
AcDbLine
 10
2.203522493766507
 20
5.495102586402027
 30
0.0
 11
2.149253466314406
 21
5.549371613854129
 31
0.0
  0
LINE
  5
8BF
330
8A4
100
AcDbEntity
  8
0
 62
     0
100
AcDbLine
 10
1.56557860772084
 20
5.903236768562067
 30
0.0
 11
1.450673755778026
 21
6.018141620504881
 31
0.0
  0
LINE
  5
8C0
330
8A4
100
AcDbEntity
  8
0
 62
     0
100
AcDbLine
 10
1.737275681255467
 20
5.731539695027439
 30
0.0
 11
1.680483459663654
 21
5.788331916619252
 31
0.0
  0
LINE
  5
8C1
330
8A4
100
AcDbEntity
  8
0
 62
     0
100
AcDbLine
 10
1.335768903835212
 20
5.903236768562067
 30
0.0
 11
1.220864051892398
 21
6.018141620504882
 31
0.0
  0
LINE
  5
8C2
330
8A4
100
AcDbEntity
  8
0
 62
     0
100
AcDbLine
 10
1.56557860772084
 20
5.673427064676439
 30
0.0
 11
1.450673755778026
 21
5.788331916619253
 31
0.0
  0
LINE
  5
8C3
330
8A4
100
AcDbEntity
  8
0
 62
     0
100
AcDbLine
 10
1.737275681255466
 20
5.501729991141813
 30
0.0
 11
1.680483459663653
 21
5.558522212733625
 31
0.0
  0
LINE
  5
8C4
330
8A4
100
AcDbEntity
  8
0
 62
     0
100
AcDbLine
 10
1.105959199949583
 20
5.903236768562067
 30
0.0
 11
0.9910543480067699
 21
6.018141620504882
 31
0.0
  0
LINE
  5
8C5
330
8A4
100
AcDbEntity
  8
0
 62
     0
100
AcDbLine
 10
1.335768903835211
 20
5.673427064676439
 30
0.0
 11
1.220864051892397
 21
5.788331916619253
 31
0.0
  0
LINE
  5
8C6
330
8A4
100
AcDbEntity
  8
0
 62
     0
100
AcDbLine
 10
1.544993509524944
 20
5.464202458986706
 30
0.0
 11
1.450673755778025
 21
5.558522212733625
 31
0.0
  0
LINE
  5
8C7
330
8A4
100
AcDbEntity
  8
0
 62
     0
100
AcDbLine
 10
2.901347511556054
 20
6.089957152969137
 30
0.0
 11
2.865354750069766
 21
6.125949914455425
 31
0.0
  0
LINE
  5
8C8
330
8A4
100
AcDbEntity
  8
0
 62
     0
100
AcDbLine
 10
2.671537807670424
 20
6.089957152969138
 30
0.0
 11
2.635545046184135
 21
6.125949914455427
 31
0.0
  0
LINE
  5
8C9
330
8A4
100
AcDbEntity
  8
0
 62
     0
100
AcDbLine
 10
2.840343354309294
 20
5.921151606330268
 30
0.0
 11
2.786442659613238
 21
5.975052301026324
 31
0.0
  0
LINE
  5
8CA
330
8A4
100
AcDbEntity
  8
0
 62
     0
100
AcDbLine
 10
2.441728103784797
 20
6.08995715296914
 30
0.0
 11
2.405735342298509
 21
6.125949914455429
 31
0.0
  0
LINE
  5
8CB
330
8A4
100
AcDbEntity
  8
0
 62
     0
100
AcDbLine
 10
2.671537807670425
 20
5.860147449083512
 30
0.0
 11
2.556632955727611
 21
5.975052301026326
 31
0.0
  0
LINE
  5
8CC
330
8A4
100
AcDbEntity
  8
0
 62
     0
100
AcDbLine
 10
2.441728103784797
 20
5.860147449083511
 30
0.0
 11
2.326823251841982
 21
5.975052301026325
 31
0.0
  0
LINE
  5
8CD
330
8A4
100
AcDbEntity
  8
0
 62
     0
100
AcDbLine
 10
2.561218151505263
 20
5.740657401363044
 30
0.0
 11
2.55663295572761
 21
5.745242597140697
 31
0.0
  0
LINE
  5
8CE
330
8A4
100
AcDbEntity
  8
0
 62
     0
100
AcDbLine
 10
2.211918399899167
 20
5.860147449083512
 30
0.0
 11
2.149253466314402
 21
5.922812382668277
 31
0.0
  0
LINE
  5
8CF
330
8A4
100
AcDbEntity
  8
0
 62
     0
100
AcDbLine
 10
2.394248420068437
 20
5.677817428914242
 30
0.0
 11
2.326823251841982
 21
5.745242597140697
 31
0.0
  0
LINE
  5
8D0
330
8A4
100
AcDbEntity
  8
0
 62
     0
100
AcDbLine
 10
2.211918399899167
 20
5.630337745197883
 30
0.0
 11
2.149253466314404
 21
5.693002678782646
 31
0.0
  0
LINE
  5
8D1
330
8A4
100
AcDbEntity
  8
0
 62
     0
100
AcDbLine
 10
1.737275681255467
 20
5.875170759955957
 30
0.0
 11
1.668945797420107
 21
5.943500643791317
 31
0.0
  0
LINE
  5
8D2
330
8A4
100
AcDbEntity
  8
0
 62
     0
100
AcDbLine
 10
1.522489288242285
 20
6.089957152969138
 30
0.0
 11
1.486496526755997
 21
6.125949914455426
 31
0.0
  0
LINE
  5
8D3
330
8A4
100
AcDbEntity
  8
0
 62
     0
100
AcDbLine
 10
1.658468783917106
 20
5.953977657294317
 30
0.0
 11
1.637394140185099
 21
5.975052301026324
 31
0.0
  0
LINE
  5
8D4
330
8A4
100
AcDbEntity
  8
0
 62
     0
100
AcDbLine
 10
2.159687796726292
 20
5.452758644485131
 30
0.0
 11
2.149253466314406
 21
5.463192974897017
 31
0.0
  0
LINE
  5
8D5
330
8A4
100
AcDbEntity
  8
0
 62
     0
100
AcDbLine
 10
1.292679584356656
 20
6.08995715296914
 30
0.0
 11
1.256686822870368
 21
6.125949914455429
 31
0.0
  0
LINE
  5
8D6
330
8A4
100
AcDbEntity
  8
0
 62
     0
100
AcDbLine
 10
1.522489288242284
 20
5.860147449083512
 30
0.0
 11
1.40758443629947
 21
5.975052301026326
 31
0.0
  0
LINE
  5
8D7
330
8A4
100
AcDbEntity
  8
0
 62
     0
100
AcDbLine
 10
1.737275681255466
 20
5.64536105607033
 30
0.0
 11
1.637394140185098
 21
5.745242597140697
 31
0.0
  0
LINE
  5
8D8
330
8A4
100
AcDbEntity
  8
0
 62
     0
100
AcDbLine
 10
1.062869880471029
 20
6.089957152969141
 30
0.0
 11
1.02687711898474
 21
6.125949914455429
 31
0.0
  0
LINE
  5
8D9
330
8A4
100
AcDbEntity
  8
0
 62
     0
100
AcDbLine
 10
1.292679584356656
 20
5.860147449083513
 30
0.0
 11
1.177774732413843
 21
5.975052301026327
 31
0.0
  0
LINE
  5
8DA
330
8A4
100
AcDbEntity
  8
0
 62
     0
100
AcDbLine
 10
1.522489288242284
 20
5.630337745197884
 30
0.0
 11
1.40758443629947
 21
5.745242597140698
 31
0.0
  0
LINE
  5
8DB
330
8A4
100
AcDbEntity
  8
0
 62
     0
100
AcDbLine
 10
1.710255304717658
 20
5.442571728722509
 30
0.0
 11
1.637394140185098
 21
5.51543289325507
 31
0.0
  0
LINE
  5
8DC
330
8A4
100
AcDbEntity
  8
0
 62
     0
100
AcDbLine
 10
1.062869880471029
 20
5.860147449083512
 30
0.0
 11
0.9685649612897186
 21
5.954452368264822
 31
0.0
  0
LINE
  5
8DD
330
8A4
100
AcDbEntity
  8
0
 62
     0
100
AcDbLine
 10
1.292679584356657
 20
5.630337745197883
 30
0.0
 11
1.177774732413843
 21
5.745242597140697
 31
0.0
  0
LINE
  5
8DE
330
8A4
100
AcDbEntity
  8
0
 62
     0
100
AcDbLine
 10
1.436250672845016
 20
5.486766656709524
 30
0.0
 11
1.407584436299471
 21
5.515432893255069
 31
0.0
  0
LINE
  5
8DF
330
8A4
100
AcDbEntity
  8
0
 62
     0
100
AcDbLine
 10
2.901347511556053
 20
6.061230939983436
 30
0.0
 11
2.942312494845705
 21
6.102195923273088
 31
0.0
  0
LINE
  5
8E0
330
8A4
100
AcDbEntity
  8
0
 62
     0
100
AcDbLine
 10
2.671537807670425
 20
5.831421236097808
 30
0.0
 11
2.786442659613239
 21
5.946326088040622
 31
0.0
  0
LINE
  5
8E1
330
8A4
100
AcDbEntity
  8
0
 62
     0
100
AcDbLine
 10
2.671537807670426
 20
6.061230939983438
 30
0.0
 11
2.736256782142417
 21
6.125949914455429
 31
0.0
  0
LINE
  5
8E2
330
8A4
100
AcDbEntity
  8
0
 62
     0
100
AcDbLine
 10
2.441728103784798
 20
5.83142123609781
 30
0.0
 11
2.556632955727612
 21
5.946326088040624
 31
0.0
  0
LINE
  5
8E3
330
8A4
100
AcDbEntity
  8
0
 62
     0
100
AcDbLine
 10
2.21191839989917
 20
5.601611532212181
 30
0.0
 11
2.326823251841984
 21
5.716516384154996
 31
0.0
  0
LINE
  5
8E4
330
8A4
100
AcDbEntity
  8
0
 62
     0
100
AcDbLine
 10
2.441728103784798
 20
6.061230939983437
 30
0.0
 11
2.506447078256789
 21
6.125949914455429
 31
0.0
  0
LINE
  5
8E5
330
8A4
100
AcDbEntity
  8
0
 62
     0
100
AcDbLine
 10
2.21191839989917
 20
5.831421236097809
 30
0.0
 11
2.326823251841984
 21
5.946326088040623
 31
0.0
  0
LINE
  5
8E6
330
8A4
100
AcDbEntity
  8
0
 62
     0
100
AcDbLine
 10
1.605012405989032
 20
5.454324946073299
 30
0.0
 11
1.637394140185099
 21
5.486706680269366
 31
0.0
  0
LINE
  5
8E7
330
8A4
100
AcDbEntity
  8
0
 62
     0
100
AcDbLine
 10
1.522489288242285
 20
5.601611532212181
 30
0.0
 11
1.637394140185099
 21
5.716516384154995
 31
0.0
  0
LINE
  5
8E8
330
8A4
100
AcDbEntity
  8
0
 62
     0
100
AcDbLine
 10
1.522489288242285
 20
5.831421236097809
 30
0.0
 11
1.637394140185099
 21
5.946326088040623
 31
0.0
  0
LINE
  5
8E9
330
8A4
100
AcDbEntity
  8
0
 62
     0
100
AcDbLine
 10
1.292679584356657
 20
5.601611532212181
 30
0.0
 11
1.407584436299471
 21
5.716516384154995
 31
0.0
  0
LINE
  5
8EA
330
8A4
100
AcDbEntity
  8
0
 62
     0
100
AcDbLine
 10
1.522489288242285
 20
6.061230939983437
 30
0.0
 11
1.587208262714275
 21
6.125949914455428
 31
0.0
  0
LINE
  5
8EB
330
8A4
100
AcDbEntity
  8
0
 62
     0
100
AcDbLine
 10
1.292679584356657
 20
5.831421236097809
 30
0.0
 11
1.407584436299471
 21
5.946326088040623
 31
0.0
  0
LINE
  5
8EC
330
8A4
100
AcDbEntity
  8
0
 62
     0
100
AcDbLine
 10
1.150689416504746
 20
5.689431068245898
 30
0.0
 11
1.177774732413843
 21
5.716516384154995
 31
0.0
  0
LINE
  5
8ED
330
8A4
100
AcDbEntity
  8
0
 62
     0
100
AcDbLine
 10
1.292679584356657
 20
6.061230939983437
 30
0.0
 11
1.357398558828647
 21
6.125949914455428
 31
0.0
  0
LINE
  5
8EE
330
8A4
100
AcDbEntity
  8
0
 62
     0
100
AcDbLine
 10
1.062869880471029
 20
5.831421236097809
 30
0.0
 11
1.177774732413843
 21
5.946326088040623
 31
0.0
  0
LINE
  5
8EF
330
8A4
100
AcDbEntity
  8
0
 62
     0
100
AcDbLine
 10
1.062869880471029
 20
6.061230939983437
 30
0.0
 11
1.12758885494302
 21
6.125949914455429
 31
0.0
  0
LINE
  5
8F0
330
8A4
100
AcDbEntity
  8
0
 62
     0
100
AcDbLine
 10
2.745182316108656
 20
5.818887105578928
 30
0.0
 11
2.825235946453545
 21
5.898940735923818
 31
0.0
  0
LINE
  5
8F1
330
8A4
100
AcDbEntity
  8
0
 62
     0
100
AcDbLine
 10
2.714627127148981
 20
6.018141620504882
 30
0.0
 11
2.822435421099526
 21
6.125949914455429
 31
0.0
  0
LINE
  5
8F2
330
8A4
100
AcDbEntity
  8
0
 62
     0
100
AcDbLine
 10
2.484817423263352
 20
5.788331916619254
 30
0.0
 11
2.599722275206167
 21
5.903236768562068
 31
0.0
  0
LINE
  5
8F3
330
8A4
100
AcDbEntity
  8
0
 62
     0
100
AcDbLine
 10
2.255007719377724
 20
5.558522212733626
 30
0.0
 11
2.369912571320538
 21
5.67342706467644
 31
0.0
  0
LINE
  5
8F4
330
8A4
100
AcDbEntity
  8
0
 62
     0
100
AcDbLine
 10
2.484817423263352
 20
6.018141620504882
 30
0.0
 11
2.592625717213898
 21
6.125949914455428
 31
0.0
  0
LINE
  5
8F5
330
8A4
100
AcDbEntity
  8
0
 62
     0
100
AcDbLine
 10
2.255007719377724
 20
5.788331916619253
 30
0.0
 11
2.369912571320538
 21
5.903236768562067
 31
0.0
  0
LINE
  5
8F6
330
8A4
100
AcDbEntity
  8
0
 62
     0
100
AcDbLine
 10
2.272999329452245
 20
6.036133230579403
 30
0.0
 11
2.36281601332827
 21
6.125949914455429
 31
0.0
  0
LINE
  5
8F7
330
8A4
100
AcDbEntity
  8
0
 62
     0
100
AcDbLine
 10
1.56557860772084
 20
5.558522212733626
 30
0.0
 11
1.680483459663654
 21
5.67342706467644
 31
0.0
  0
LINE
  5
8F8
330
8A4
100
AcDbEntity
  8
0
 62
     0
100
AcDbLine
 10
1.56557860772084
 20
5.788331916619253
 30
0.0
 11
1.680483459663653
 21
5.903236768562067
 31
0.0
  0
LINE
  5
8F9
330
8A4
100
AcDbEntity
  8
0
 62
     0
100
AcDbLine
 10
1.335768903835212
 20
5.558522212733625
 30
0.0
 11
1.450673755778026
 21
5.673427064676439
 31
0.0
  0
LINE
  5
8FA
330
8A4
100
AcDbEntity
  8
0
 62
     0
100
AcDbLine
 10
1.56557860772084
 20
6.018141620504882
 30
0.0
 11
1.602936495509545
 21
6.055499508293587
 31
0.0
  0
LINE
  5
8FB
330
8A4
100
AcDbEntity
  8
0
 62
     0
100
AcDbLine
 10
1.335768903835212
 20
5.788331916619253
 30
0.0
 11
1.450673755778026
 21
5.903236768562067
 31
0.0
  0
LINE
  5
8FC
330
8A4
100
AcDbEntity
  8
0
 62
     0
100
AcDbLine
 10
1.191886020347534
 20
5.644449033131575
 30
0.0
 11
1.220864051892398
 21
5.673427064676439
 31
0.0
  0
LINE
  5
8FD
330
8A4
100
AcDbEntity
  8
0
 62
     0
100
AcDbLine
 10
1.335768903835212
 20
6.018141620504882
 30
0.0
 11
1.443577197785758
 21
6.125949914455429
 31
0.0
  0
LINE
  5
8FE
330
8A4
100
AcDbEntity
  8
0
 62
     0
100
AcDbLine
 10
1.105959199949584
 20
5.788331916619253
 30
0.0
 11
1.220864051892398
 21
5.903236768562067
 31
0.0
  0
LINE
  5
8FF
330
8A4
100
AcDbEntity
  8
0
 62
     0
100
AcDbLine
 10
1.105959199949584
 20
6.018141620504881
 30
0.0
 11
1.213767493900131
 21
6.125949914455429
 31
0.0
  0
LINE
  5
900
330
8A4
100
AcDbEntity
  8
0
 62
     0
100
AcDbLine
 10
0.9893676392768684
 20
5.901550059832165
 30
0.0
 11
0.9910543480067705
 21
5.903236768562067
 31
0.0
  0
LINE
  5
901
330
8A4
100
AcDbEntity
  8
0
 62
     0
100
AcDbLine
 10
0.9247548706551116
 20
6.066746995096036
 30
0.0
 11
0.9839577900145048
 21
6.125949914455429
 31
0.0
  0
LINE
  5
902
330
8A4
100
AcDbEntity
  8
0
 62
     0
100
AcDbLine
 10
2.757716446627536
 20
5.975052301026326
 30
0.0
 11
2.87262129857035
 21
6.08995715296914
 31
0.0
  0
LINE
  5
903
330
8A4
100
AcDbEntity
  8
0
 62
     0
100
AcDbLine
 10
2.527906742741907
 20
5.745242597140697
 30
0.0
 11
2.642811594684721
 21
5.860147449083512
 31
0.0
  0
LINE
  5
904
330
8A4
100
AcDbEntity
  8
0
 62
     0
100
AcDbLine
 10
2.527906742741908
 20
5.975052301026326
 30
0.0
 11
2.642811594684722
 21
6.08995715296914
 31
0.0
  0
LINE
  5
905
330
8A4
100
AcDbEntity
  8
0
 62
     0
100
AcDbLine
 10
2.298097038856279
 20
5.745242597140697
 30
0.0
 11
2.413001890799093
 21
5.860147449083512
 31
0.0
  0
LINE
  5
906
330
8A4
100
AcDbEntity
  8
0
 62
     0
100
AcDbLine
 10
2.149253466314404
 20
5.596399024598823
 30
0.0
 11
2.183192186913465
 21
5.630337745197883
 31
0.0
  0
LINE
  5
907
330
8A4
100
AcDbEntity
  8
0
 62
     0
100
AcDbLine
 10
2.29809703885628
 20
5.975052301026327
 30
0.0
 11
2.413001890799094
 21
6.089957152969141
 31
0.0
  0
LINE
  5
908
330
8A4
100
AcDbEntity
  8
0
 62
     0
100
AcDbLine
 10
2.149253466314402
 20
5.826208728484449
 30
0.0
 11
2.183192186913466
 21
5.860147449083513
 31
0.0
  0
LINE
  5
909
330
8A4
100
AcDbEntity
  8
0
 62
     0
100
AcDbLine
 10
1.608667927199395
 20
5.51543289325507
 30
0.0
 11
1.723572779142209
 21
5.630337745197884
 31
0.0
  0
LINE
  5
90A
330
8A4
100
AcDbEntity
  8
0
 62
     0
100
AcDbLine
 10
1.608667927199395
 20
5.745242597140698
 30
0.0
 11
1.723572779142209
 21
5.860147449083513
 31
0.0
  0
LINE
  5
90B
330
8A4
100
AcDbEntity
  8
0
 62
     0
100
AcDbLine
 10
1.378858223313768
 20
5.51543289325507
 30
0.0
 11
1.493763075256582
 21
5.630337745197884
 31
0.0
  0
LINE
  5
90C
330
8A4
100
AcDbEntity
  8
0
 62
     0
100
AcDbLine
 10
1.608667927199395
 20
5.975052301026327
 30
0.0
 11
1.633408134469285
 21
5.999792508296216
 31
0.0
  0
LINE
  5
90D
330
8A4
100
AcDbEntity
  8
0
 62
     0
100
AcDbLine
 10
1.378858223313767
 20
5.745242597140698
 30
0.0
 11
1.493763075256581
 21
5.860147449083513
 31
0.0
  0
LINE
  5
90E
330
8A4
100
AcDbEntity
  8
0
 62
     0
100
AcDbLine
 10
1.233082624190322
 20
5.599466998017253
 30
0.0
 11
1.263953371370953
 21
5.630337745197884
 31
0.0
  0
LINE
  5
90F
330
8A4
100
AcDbEntity
  8
0
 62
     0
100
AcDbLine
 10
1.378858223313767
 20
5.975052301026327
 30
0.0
 11
1.493763075256581
 21
6.089957152969141
 31
0.0
  0
LINE
  5
910
330
8A4
100
AcDbEntity
  8
0
 62
     0
100
AcDbLine
 10
1.149048519428139
 20
5.745242597140698
 30
0.0
 11
1.263953371370953
 21
5.860147449083513
 31
0.0
  0
LINE
  5
911
330
8A4
100
AcDbEntity
  8
0
 62
     0
100
AcDbLine
 10
1.14904851942814
 20
5.975052301026327
 30
0.0
 11
1.263953371370954
 21
6.089957152969141
 31
0.0
  0
LINE
  5
912
330
8A4
100
AcDbEntity
  8
0
 62
     0
100
AcDbLine
 10
1.013893591024431
 20
5.839897372622617
 30
0.0
 11
1.034143667485326
 21
5.860147449083513
 31
0.0
  0
LINE
  5
913
330
8A4
100
AcDbEntity
  8
0
 62
     0
100
AcDbLine
 10
0.9488976127294218
 20
6.004711098213237
 30
0.0
 11
1.034143667485325
 21
6.08995715296914
 31
0.0
  0
ENDBLK
  5
915
330
8A4
100
AcDbEntity
  8
0
100
AcDbBlockEnd
  0
ENDSEC
  0
SECTION
  2
ENTITIES
  0
TEXT
  5
101
330
4E0
100
AcDbEntity
  8
text_bubbles
100
AcDbText
 10
4.598981182500883
 20
5.183016180372299
 30
0.0
 40
0.125
  1
POP-UP SPRAY SPRINKLER:
  7
ROMANS
100
AcDbText
  0
TEXT
  5
103
330
4E0
100
AcDbEntity
  8
text_bubbles
100
AcDbText
 10
4.598981182500883
 20
5.028669646731353
 30
0.0
 40
0.125
  1
  RAIN BIRD 1812
  7
ROMANS
100
AcDbText
  0
TEXT
  5
109
330
4E0
100
AcDbEntity
  8
text-sa-bubbles
100
AcDbText
 10
4.598981182500883
 20
3.306804802032212
 30
0.0
 40
0.125
  1
PVC SCH 40 TEE OR ELL
  7
ROMANS
100
AcDbText
  0
TEXT
  5
10A
330
4E0
100
AcDbEntity
  8
text_bubbles
100
AcDbText
 10
4.598981182500883
 20
5.54510040177178
 30
0.0
 40
0.125
  1
FINISH GRADE/TOP OF MULCH
  7
ROMANS
100
AcDbText
  0
TEXT
  5
10B
330
4E0
100
AcDbEntity
  8
text-sa-bubbles
100
AcDbText
 10
4.598981182500883
 20
4.083476906629931
 30
0.0
 40
0.125
  1
PVC LATERAL PIPE
  7
ROMANS
100
AcDbText
  0
CIRCLE
  5
10D
330
4E0
100
AcDbEntity
  8
text_bubbles
100
AcDbCircle
 10
4.258924464139756
 20
5.591171613593991
 30
0.0
 40
0.15625
  0
TEXT
  5
10E
330
4E0
100
AcDbEntity
  8
text_bubbles
100
AcDbText
 10
4.208329226044518
 20
5.528671613593991
 30
0.0
 40
0.125
  1
1
  7
ROMANS
 72
     4
 11
4.258924464139756
 21
5.591171613593991
 31
0.0
100
AcDbText
  0
CIRCLE
  5
10F
330
4E0
100
AcDbEntity
  8
text_bubbles
100
AcDbCircle
 10
4.258924464139756
 20
5.22908726370774
 30
0.0
 40
0.15625
  0
TEXT
  5
110
330
4E0
100
AcDbEntity
  8
text_bubbles
100
AcDbText
 10
4.199400654615947
 20
5.16658726370774
 30
0.0
 40
0.125
  1
2
  7
ROMANS
 72
     4
 11
4.258924464139756
 21
5.22908726370774
 31
0.0
100
AcDbText
  0
CIRCLE
  5
111
330
4E0
100
AcDbEntity
  8
text-sa-bubbles
100
AcDbCircle
 10
4.265816897565333
 20
4.710799446436793
 30
0.0
 40
0.15625
  0
TEXT
  5
112
330
4E0
100
AcDbEntity
  8
text-sa-bubbles
100
AcDbText
 10
4.206293088041523
 20
4.648299446436793
 30
0.0
 40
0.125
  1
3
  7
ROMANS
 72
     4
 11
4.265816897565333
 21
4.710799446436793
 31
0.0
100
AcDbText
  0
CIRCLE
  5
113
330
4E0
100
AcDbEntity
  8
text-sa-bubbles
100
AcDbCircle
 10
4.258924464139756
 20
4.12954798996537
 30
0.0
 40
0.15625
  0
TEXT
  5
114
330
4E0
100
AcDbEntity
  8
text-sa-bubbles
100
AcDbText
 10
4.196424464139756
 20
4.06704798996537
 30
0.0
 40
0.125
  1
4
  7
ROMANS
 72
     4
 11
4.258924464139756
 21
4.12954798996537
 31
0.0
100
AcDbText
  0
CIRCLE
  5
115
330
4E0
100
AcDbEntity
  8
text-sa-bubbles
100
AcDbCircle
 10
4.258924464139756
 20
3.772875885367652
 30
0.0
 40
0.15625
  0
TEXT
  5
116
330
4E0
100
AcDbEntity
  8
text-sa-bubbles
100
AcDbText
 10
4.199400654615947
 20
3.710375885367652
 30
0.0
 40
0.125
  1
5
  7
ROMANS
 72
     4
 11
4.258924464139756
 21
3.772875885367652
 31
0.0
100
AcDbText
  0
CIRCLE
  5
117
330
4E0
100
AcDbEntity
  8
text-sa-bubbles
100
AcDbCircle
 10
4.258924464139756
 20
3.354936480843858
 30
0.0
 40
0.15625
  0
TEXT
  5
118
330
4E0
100
AcDbEntity
  8
text-sa-bubbles
100
AcDbText
 10
4.196424464139756
 20
3.292436480843858
 30
0.0
 40
0.125
  1
6
  7
ROMANS
 72
     4
 11
4.258924464139756
 21
3.354936480843858
 31
0.0
100
AcDbText
  0
CIRCLE
  5
11E
330
4E0
100
AcDbEntity
  8
text-sa-bubbles
100
AcDbCircle
 10
3.066544802518991
 20
1.991283018376616
 30
0.0
 40
0.15625
  0
TEXT
  5
11F
330
4E0
100
AcDbEntity
  8
text-sa-bubbles
100
AcDbText
 10
3.007020992995181
 20
1.928783018376616
 30
0.0
 40
0.125
  1
5
  7
ROMANS
 72
     4
 11
3.066544802518991
 21
1.991283018376616
 31
0.0
100
AcDbText
  0
CIRCLE
  5
120
330
4E0
100
AcDbEntity
  8
text-sa-bubbles
100
AcDbCircle
 10
4.526727230631053
 20
1.991696316387531
 30
0.0
 40
0.15625
  0
TEXT
  5
121
330
4E0
100
AcDbEntity
  8
text-sa-bubbles
100
AcDbText
 10
4.464227230631053
 20
1.929196316387531
 30
0.0
 40
0.125
  1
6
  7
ROMANS
 72
     4
 11
4.526727230631053
 21
1.991696316387531
 31
0.0
100
AcDbText
  0
CIRCLE
  5
122
330
4E0
100
AcDbEntity
  8
text-sa-bubbles
100
AcDbCircle
 10
2.697739368490193
 20
1.991556559507001
 30
0.0
 40
0.15625
  0
TEXT
  5
123
330
4E0
100
AcDbEntity
  8
text-sa-bubbles
100
AcDbText
 10
2.635239368490193
 20
1.929056559507001
 30
0.0
 40
0.125
  1
4
  7
ROMANS
 72
     4
 11
2.697739368490193
 21
1.991556559507001
 31
0.0
100
AcDbText
  0
TEXT
  5
12A
330
4E0
100
AcDbEntity
  8
text-sa-bubbles
100
AcDbText
 10
0.4953645152306866
 20
3.591032502146791
 30
0.0
 40
0.125
  1
3
  7
ROMANS
 72
     4
 11
0.5548883247544962
 21
3.653532502146791
 31
0.0
100
AcDbText
  0
CIRCLE
  5
12B
330
4E0
100
AcDbEntity
  8
text-sa-bubbles
100
AcDbCircle
 10
0.5548883247544962
 20
3.653532502146791
 30
0.0
 40
0.15625
  0
TEXT
  5
12C
330
4E0
100
AcDbEntity
  8
text_bubbles
100
AcDbText
 10
0.4953645152306868
 20
5.012785388808097
 30
0.0
 40
0.125
  1
2
  7
ROMANS
 72
     4
 11
0.5548883247544963
 21
5.075285388808097
 31
0.0
100
AcDbText
  0
CIRCLE
  5
12D
330
4E0
100
AcDbEntity
  8
text_bubbles
100
AcDbCircle
 10
0.5548883247544963
 20
5.075285388808097
 30
0.0
 40
0.15625
  0
TEXT
  5
130
330
4E0
100
AcDbEntity
  8
text-sa-bubbles
100
AcDbText
 10
3.888022750698739
 20
1.929067087957677
 30
0.0
 40
0.125
  1
3
  7
ROMANS
 72
     4
 11
3.947546560222548
 21
1.991567087957677
 31
0.0
100
AcDbText
  0
CIRCLE
  5
131
330
4E0
100
AcDbEntity
  8
text-sa-bubbles
100
AcDbCircle
 10
3.947546560222548
 20
1.991567087957677
 30
0.0
 40
0.15625
  0
CIRCLE
  5
132
330
4E0
100
AcDbEntity
  8
text_bubbles
100
AcDbCircle
 10
0.5548883247544962
 20
6.517081399067046
 30
0.0
 40
0.15625
  0
TEXT
  5
133
330
4E0
100
AcDbEntity
  8
text_bubbles
100
AcDbText
 10
0.504293086659258
 20
6.454581399067046
 30
0.0
 40
0.125
  1
1
  7
ROMANS
 72
     4
 11
0.5548883247544962
 21
6.517081399067046
 31
0.0
100
AcDbText
  0
TEXT
  5
136
330
4E0
100
AcDbEntity
  8
text-sa-leaders
100
AcDbText
 10
4.598981182500883
 20
3.604173618456955
 30
0.0
 40
0.125
  1
SWING PIPE, 12-INCH LENGTH:
  7
ROMANS
100
AcDbText
  0
TEXT
  5
137
330
4E0
100
AcDbEntity
  8
text-sa-leaders
100
AcDbText
 10
4.598981182500883
 20
1.481568985468148
 30
0.0
 40
0.125
  1
PVC LATERAL PIPE
  7
ROMANS
100
AcDbText
  0
TEXT
  5
138
330
4E0
100
AcDbEntity
  8
text_leaders
100
AcDbText
 10
4.598981182500883
 20
6.354269404245959
 30
0.0
 40
0.125
  1
FINISH GRADE/TOP OF MULCH
  7
ROMANS
100
AcDbText
  0
TEXT
  5
139
330
4E0
100
AcDbEntity
  8
text-sa-leaders
100
AcDbText
 10
4.598981182500883
 20
3.431066265359382
 30
0.0
 40
0.125
  1
  RAIN BIRD MODEL SP-100
  7
ROMANS
100
AcDbText
  0
TEXT
  5
13A
330
4E0
100
AcDbEntity
  8
text_leaders
100
AcDbText
 10
4.598981182500883
 20
5.028669646731353
 30
0.0
 40
0.125
  1
  RAIN BIRD 1812
  7
ROMANS
100
AcDbText
  0
TEXT
  5
13B
330
4E0
100
AcDbEntity
  8
text_leaders
100
AcDbText
 10
4.598981182500883
 20
5.189668089348381
 30
0.0
 40
0.125
  1
POP-UP SPRAY SPRINKLER:
  7
ROMANS
100
AcDbText
  0
TEXT
  5
14D
330
4E0
100
AcDbEntity
  8
text-sa-leaders
100
AcDbText
 10
4.598981182500883
 20
4.012330055237
 30
0.0
 40
0.125
  1
  BARB ELBOW:  RAIN BIRD
  7
SIMPLEX
100
AcDbText
  0
LINE
  5
14F
330
4E0
100
AcDbEntity
  8
option_sa
100
AcDbLine
 10
4.429719560167336
 20
2.945733303366129
 30
0.0
 11
4.060687554484426
 21
2.945733303366124
 31
0.0
  0
LINE
  5
150
330
4E0
100
AcDbEntity
  8
option_sa
100
AcDbLine
 10
3.966503699342351
 20
2.777037553550368
 30
0.0
 11
4.064877148844418
 21
2.953237421358711
 31
0.0
  0
LINE
  5
151
330
4E0
100
AcDbEntity
  8
option_sa
100
AcDbLine
 10
4.429719560167336
 20
2.656567263483919
 30
0.0
 11
4.429719560167336
 21
2.945733303366129
 31
0.0
  0
LINE
  5
152
330
4E0
100
AcDbEntity
  8
option_sa
100
AcDbLine
 10
3.824900845437719
 20
2.656567263483919
 30
0.0
 11
4.429719560167336
 21
2.656567263483919
 31
0.0
  0
LINE
  5
153
330
4E0
100
AcDbEntity
  8
option_sa
100
AcDbLine
 10
3.824900845437719
 20
2.849114108532022
 30
0.0
 11
3.824900845437719
 21
2.656567263483919
 31
0.0
  0
LINE
  5
154
330
4E0
100
AcDbEntity
  8
option_sa
100
AcDbLine
 10
4.119097350818279
 20
2.866647347850665
 30
0.0
 11
4.128790079685732
 21
2.801340231591222
 31
0.0
  0
LINE
  5
155
330
4E0
100
AcDbEntity
  8
option_sa
100
AcDbLine
 10
4.128790079685732
 20
2.801340231591222
 30
0.0
 11
4.071449641947646
 21
2.775340155406565
 31
0.0
  0
LINE
  5
156
330
4E0
100
AcDbEntity
  8
option_sa
100
AcDbLine
 10
4.429719560167336
 20
2.901259206311557
 30
0.0
 11
4.766816079701211
 21
2.901259206311557
 31
0.0
  0
LINE
  5
157
330
4E0
100
AcDbEntity
  8
option_sa
100
AcDbLine
 10
4.429719560167336
 20
2.697639124177565
 30
0.0
 11
4.766816079701211
 21
2.697639124177565
 31
0.0
  0
LWPOLYLINE
  5
158
330
4E0
100
AcDbEntity
  8
option_sa
100
AcDbPolyline
 90
        4
 70
     0
 43
0.0
 10
4.766816079701211
 20
2.901259206311557
 42
-0.5107053858875276
 10
4.766816079701222
 20
2.797998926850494
 42
0.5107053858875159
 10
4.766816079701211
 20
2.697639124177565
 42
0.5397302473450178
 10
4.768742249216026
 20
2.799449165244559
 42
0.5397302473450178
  0
LINE
  5
15E
330
4E0
100
AcDbEntity
  8
option_sa
100
AcDbLine
 10
3.708964536047921
 20
2.901259206311557
 30
0.0
 11
1.607536758325621
 21
2.901259206311557
 31
0.0
  0
LINE
  5
15F
330
4E0
100
AcDbEntity
  8
option_sa
100
AcDbLine
 10
3.824900845437719
 20
2.697639124177565
 30
0.0
 11
1.607536758325621
 21
2.697639124177565
 31
0.0
  0
LINE
  5
160
330
4E0
100
AcDbEntity
  8
option_sa
100
AcDbLine
 10
4.08781630124459
 20
2.727786715125348
 30
0.0
 11
3.973946907395144
 21
2.789050592485282
 31
0.0
  0
LINE
  5
161
330
4E0
100
AcDbEntity
  8
option_sa
100
AcDbLine
 10
4.172490099911087
 20
2.873724192718719
 30
0.0
 11
4.055984235743872
 21
2.937309037016405
 31
0.0
  0
ARC
  5
162
330
4E0
100
AcDbEntity
  8
option_sa
100
AcDbCircle
 10
4.128790079685732
 20
2.801340231591222
 30
0.0
 40
0.0842950537430408
100
AcDbArc
 50
234.4756814862677
 51
62.64469113840124
  0
ARC
  5
163
330
4E0
100
AcDbEntity
  8
option_sa
100
AcDbCircle
 10
4.128790079685732
 20
2.801340231591222
 30
0.0
 40
0.1089292628087137
100
AcDbArc
 50
202.3302578892511
 51
100.5273986155575
  0
LWPOLYLINE
  5
164
330
4E0
100
AcDbEntity
  8
option_sa
100
AcDbPolyline
 90
        4
 70
     0
 43
0.0
 10
1.607536758325621
 20
2.901259206311557
 42
0.5107053858875276
 10
1.607536758325612
 20
2.797998926850494
 42
-0.5107053858875159
 10
1.607536758325621
 20
2.697639124177565
 42
-0.5397302473450178
 10
1.605610588810805
 20
2.799449165244559
 42
-0.5397302473450178
  0
ARC
  5
16A
330
4E0
100
AcDbEntity
  8
option_sa
100
AcDbCircle
 10
2.552447625661925
 20
0.1899251731972997
 30
0.0
 40
3.150132956469122
100
AcDbArc
 50
61.30701558492705
 51
91.57178904497754
  0
ARC
  5
16B
330
4E0
100
AcDbEntity
  8
option_sa
100
AcDbCircle
 10
2.54905246845331
 20
0.1674241972181343
 30
0.0
 40
2.969722185911746
100
AcDbArc
 50
61.49072909609822
 51
91.61727251044187
  0
LINE
  5
16C
330
4E0
100
AcDbEntity
  8
option_sa
100
AcDbLine
 10
2.465238052382167
 20
3.135963401128889
 30
0.0
 11
2.46604120091339
 21
3.338872866188573
 31
0.0
  0
ARC
  5
16D
330
4E0
100
AcDbEntity
  8
option_sa
100
AcDbCircle
 10
2.223600089810175
 20
3.202779644729933
 30
0.0
 40
0.0469218235072326
100
AcDbArc
 50
180.0
 51
270.0
  0
LWPOLYLINE
  5
16E
330
4E0
100
AcDbEntity
  8
option_sa
100
AcDbPolyline
 90
        3
 70
     0
 43
0.0
 10
2.225740655869302
 20
3.159856756698203
 42
0.3551655385017884
 10
2.317527570025383
 20
3.239363253015314
 42
-0.3351985284943452
 10
2.384053506871949
 20
3.318319803211657
 42
-0.5949761929811071
  0
LINE
  5
173
330
4E0
100
AcDbEntity
  8
option_sa
100
AcDbLine
 10
2.465235580882267
 20
3.155857821222702
 30
0.0
 11
2.223600089810175
 21
3.155857821222702
 31
0.0
  0
LINE
  5
174
330
4E0
100
AcDbEntity
  8
option_sa
100
AcDbLine
 10
2.465971446329734
 20
3.321249892722411
 30
0.0
 11
2.390433240058112
 21
3.321249892722407
 31
0.0
  0
ARC
  5
175
330
4E0
100
AcDbEntity
  8
option_sa
100
AcDbCircle
 10
2.390433240058112
 20
3.368171716229639
 30
0.0
 40
0.0469218235072326
100
AcDbArc
 50
180.0
 51
270.0
  0
LINE
  5
176
330
4E0
100
AcDbEntity
  8
option_sa
100
AcDbLine
 10
2.176678266302941
 20
3.467086057528232
 30
0.0
 11
2.176678266302941
 21
3.202779644729933
 31
0.0
  0
LINE
  5
177
330
4E0
100
AcDbEntity
  8
option_sa
100
AcDbLine
 10
2.176678266302941
 20
3.42115639413445
 30
0.0
 11
2.343511416550877
 21
3.42115639413445
 31
0.0
  0
LINE
  5
178
330
4E0
100
AcDbEntity
  8
option_sa
100
AcDbLine
 10
2.343511416550877
 20
3.467086057528232
 30
0.0
 11
2.343511416550877
 21
3.368171716229639
 31
0.0
  0
LINE
  5
179
330
4E0
100
AcDbEntity
  8
option_sa
100
AcDbLine
 10
2.192767129429979
 20
3.446215597672034
 30
0.0
 11
2.327781901284787
 21
3.446215597672034
 31
0.0
  0
TEXT
  5
17A
330
4E0
100
AcDbEntity
  8
text-sa-leaders
100
AcDbText
 10
4.598981182500883
 20
4.178629875182999
 30
0.0
 40
0.125
  1
1/2-INCH MALE NPT x .490 INCH
  7
SIMPLEX
100
AcDbText
  0
TEXT
  5
17B
330
4E0
100
AcDbEntity
  8
text-sa-leaders
100
AcDbText
 10
4.598981182500883
 20
3.846030235290999
 30
0.0
 40
0.125
  1
  MODEL SBE-050
  7
SIMPLEX
100
AcDbText
  0
TEXT
  5
17F
330
4E0
100
AcDbEntity
  8
text-sa-leaders
100
AcDbText
 10
4.598981182500883
 20
2.999053428985557
 30
0.0
 40
0.125
  1
PVC SCH 40 TEE OR ELL
  7
ROMANS
100
AcDbText
  0
TEXT
  5
180
330
4E0
100
AcDbEntity
  8
text-sa-leaders
100
AcDbText
 10
4.598981182500883
 20
1.872009806442019
 30
0.0
 40
0.125
  1
  MODEL SBE-050
  7
SIMPLEX
100
AcDbText
  0
TEXT
  5
181
330
4E0
100
AcDbEntity
  8
text-sa-leaders
100
AcDbText
 10
4.598981182500883
 20
2.204609446334019
 30
0.0
 40
0.125
  1
1/2-INCH MALE NPT x .490 INCH
  7
SIMPLEX
100
AcDbText
  0
TEXT
  5
182
330
4E0
100
AcDbEntity
  8
text-sa-leaders
100
AcDbText
 10
4.598981182500883
 20
2.038309626388019
 30
0.0
 40
0.125
  1
  BARB ELBOW:  RAIN BIRD
  7
SIMPLEX
100
AcDbText
  0
TEXT
  5
189
330
4E0
100
AcDbEntity
  8
text-sa-bubbles
100
AcDbText
 10
4.598981182500883
 20
4.31087726673793
 30
0.0
 40
0.125
  1
  MODEL SBE-050
  7
SIMPLEX
100
AcDbText
  0
TEXT
  5
18A
330
4E0
100
AcDbEntity
  8
text-sa-bubbles
100
AcDbText
 10
4.598981182500883
 20
4.47717708668393
 30
0.0
 40
0.125
  1
  BARB ELBOW:  RAIN BIRD
  7
SIMPLEX
100
AcDbText
  0
TEXT
  5
18B
330
4E0
100
AcDbEntity
  8
text-sa-bubbles
100
AcDbText
 10
4.598981182500883
 20
4.643476906629929
 30
0.0
 40
0.125
  1
1/2-INCH MALE NPT x .490 INCH
  7
SIMPLEX
100
AcDbText
  0
TEXT
  5
18C
330
4E0
100
AcDbEntity
  8
text-sa-bubbles
100
AcDbText
 10
4.598981182500883
 20
3.545720959422381
 30
0.0
 40
0.125
  1
  RAIN BIRD MODEL SP-100
  7
ROMANS
100
AcDbText
  0
TEXT
  5
18D
330
4E0
100
AcDbEntity
  8
text-sa-bubbles
100
AcDbText
 10
4.598981182500883
 20
3.726804802032212
 30
0.0
 40
0.125
  1
SWING PIPE, 12-INCH LENGTH:
  7
ROMANS
100
AcDbText
  0
TEXT
  5
190
330
4E0
100
AcDbEntity
  8
instruct-callout
100
AcDbText
 10
11.85877528387577
 20
8.438195803303189
 30
0.0
 40
0.10000000149
  1
TO TURN OFF THIS INSTRUCTION BOX, TURN OFF
  7
ROMANS
100
AcDbText
  0
TEXT
  5
191
330
4E0
100
AcDbEntity
  8
instruct-callout
100
AcDbText
 10
11.85877528387577
 20
8.276295759815189
 30
0.0
 40
0.10000000149
  1
LAYER "INSTRUCT-CALLOUT".
  7
ROMANS
100
AcDbText
  0
CIRCLE
  5
192
330
4E0
100
AcDbEntity
  8
instruct-callout
100
AcDbCircle
 10
14.90833769779771
 20
8.940107489676632
 30
0.0
 40
0.125
  0
TEXT
  5
193
330
4E0
100
AcDbEntity
  8
instruct-callout
100
AcDbText
 10
14.86786150732152
 20
8.890107489676632
 30
0.0
 40
0.1
  1
1
  7
ROMANS
 72
     4
 11
14.90833769779771
 21
8.940107489676632
 31
0.0
100
AcDbText
  0
LINE
  5
194
330
4E0
100
AcDbEntity
  8
instruct-callout
100
AcDbLine
 10
14.53186947209322
 20
8.83732777309881
 30
0.0
 11
14.78775088901807
 21
8.907186044563427
 31
0.0
  0
SOLID
  5
195
330
4E0
100
AcDbEntity
  8
instruct-callout
100
AcDbTrace
 10
14.60114388288502
 20
8.887338332078375
 30
0.0
 11
14.61694617653936
 21
8.829456663864146
 31
0.0
 12
14.43540002506951
 22
8.810990617008243
 32
0.0
 13
14.43540002506951
 23
8.810990617008243
 33
0.0
  0
TEXT
  5
196
330
4E0
100
AcDbEntity
  8
instruct-callout
100
AcDbText
 10
12.82330225464935
 20
8.92587506407747
 30
0.0
 40
0.10000000149
  1
ITEM 1
  7
ROMANS
100
AcDbText
  0
SOLID
  5
197
330
4E0
100
AcDbEntity
  8
instruct-callout
100
AcDbTrace
 10
12.4586745548356
 20
8.873912297526976
 30
0.0
 11
12.43562266994387
 21
8.929307338847822
 31
0.0
 12
12.2809634884272
 22
8.832454163512199
 32
0.0
 13
12.2809634884272
 23
8.832454163512199
 33
0.0
  0
LINE
  5
198
330
4E0
100
AcDbEntity
  8
instruct-callout
100
AcDbLine
 10
12.37328855729527
 20
8.870873971665087
 30
0.0
 11
12.6610589717736
 21
8.99062567347137
 31
0.0
  0
LINE
  5
199
330
4E0
100
AcDbEntity
  8
instruct-callout
100
AcDbLine
 10
12.6610589717736
 20
8.99062567347137
 30
0.0
 11
12.79732751763222
 21
8.990625673471368
 31
0.0
  0
TEXT
  5
19A
330
4E0
100
AcDbEntity
  8
instruct-callout
100
AcDbText
 10
12.35393431981681
 20
9.243096927172985
 30
0.0
 40
0.10000000149
  1
TEXT_LEADERS         TEXT_BUBBLES
  7
ROMANS
100
AcDbText
  0
TEXT
  5
19B
330
4E0
100
AcDbEntity
  8
instruct-callout
100
AcDbText
 10
11.91759058755398
 20
9.580114221648161
 30
0.0
 40
0.10000000149
  1
BY TURNING ON THE APPROPRIATE LAYER:
  7
ROMANS
100
AcDbText
  0
TEXT
  5
19C
330
4E0
100
AcDbEntity
  8
instruct-callout
100
AcDbText
 10
11.91759058755398
 20
9.742014265135161
 30
0.0
 40
0.10000000149
  1
CHOOSE EITHER LEADERS OR BUBBLE CALLOUTS
  7
ROMANS
100
AcDbText
  0
TEXT
  5
19D
330
4E0
100
AcDbEntity
  8
instruct-callout
100
AcDbText
 10
12.1503403566007
 20
10.11612532861004
 30
0.0
 40
0.10000000149
  1
CHOOSING EQUIPMENT CALLOUT METHOD
  7
ROMANS
100
AcDbText
  0
LWPOLYLINE
  5
19E
330
4E0
100
AcDbEntity
  8
instruct-callout
100
AcDbPolyline
 90
        4
 70
     1
 43
0.0
 10
11.81974793665868
 20
10.05900983789284
 10
11.81974793665868
 20
8.627523816550601
 10
16.25144472804075
 20
8.627523816550601
 10
16.25144472804075
 20
10.05900983789284
  0
TEXT
  5
1C0
330
4E0
100
AcDbEntity
  8
option-sam
100
AcDbText
 10
6.389168231104791
 20
5.023044131489722
 30
0.0
 40
0.125
  1
-SAM
  7
ROMANS
100
AcDbText
  0
LINE
  5
2AB
330
4E0
100
AcDbEntity
  8
instruct-option
100
AcDbLine
 10
11.82009633642499
 20
7.955951015768698
 30
0.0
 11
11.82009633642499
 21
4.965507855447544
 31
0.0
  0
LINE
  5
2B5
330
4E0
100
AcDbEntity
  8
instruct-option
100
AcDbLine
 10
11.82009633642499
 20
4.965507855447544
 30
0.0
 11
16.23508229381651
 21
4.965507855447544
 31
0.0
  0
LINE
  5
2C8
330
4E0
100
AcDbEntity
  8
instruct-option
100
AcDbLine
 10
16.23508229381652
 20
7.955951015768697
 30
0.0
 11
11.82009633642499
 21
7.955951015768698
 31
0.0
  0
LINE
  5
39F
330
4E0
100
AcDbEntity
  8
option_rb_sa
100
AcDbLine
 10
2.192889044125118
 20
3.437048321774873
 30
0.0
 11
2.327903815979926
 21
3.437048321774873
 31
0.0
  0
TEXT
  5
3A0
330
4E0
100
AcDbEntity
  8
text-rb-sa-bubbles
100
AcDbText
 10
4.199400654615947
 20
4.592281527903216
 30
0.0
 40
0.125
  1
3
  7
ROMANS
 72
     4
 11
4.258924464139756
 21
4.654781527903216
 31
0.0
100
AcDbText
  0
TEXT
  5
3A1
330
4E0
100
AcDbEntity
  8
text-rb-sa-bubbles
100
AcDbText
 10
4.203316897565333
 20
4.257072554320767
 30
0.0
 40
0.125
  1
4
  7
ROMANS
 72
     4
 11
4.265816897565333
 21
4.319572554320767
 31
0.0
100
AcDbText
  0
CIRCLE
  5
3A2
330
4E0
100
AcDbEntity
  8
text-rb-sa-bubbles
100
AcDbCircle
 10
4.265816897565333
 20
4.319572554320767
 30
0.0
 40
0.15625
  0
CIRCLE
  5
3A3
330
4E0
100
AcDbEntity
  8
text-rb-sa-bubbles
100
AcDbCircle
 10
4.258924464139756
 20
4.654781527903216
 30
0.0
 40
0.15625
  0
TEXT
  5
3A4
330
4E0
100
AcDbEntity
  8
text-rb-sa-bubbles
100
AcDbText
 10
4.199400654615947
 20
3.858429447285038
 30
0.0
 40
0.125
  1
5
  7
ROMANS
 72
     4
 11
4.258924464139756
 21
3.920929447285038
 31
0.0
100
AcDbText
  0
CIRCLE
  5
3A5
330
4E0
100
AcDbEntity
  8
text-rb-sa-bubbles
100
AcDbCircle
 10
4.258924464139756
 20
3.920929447285038
 30
0.0
 40
0.15625
  0
TEXT
  5
3A6
330
4E0
100
AcDbEntity
  8
text-rb-sa-bubbles
100
AcDbText
 10
4.598981182500883
 20
3.864952182347783
 30
0.0
 40
0.125
  1
PVC SCH 40 TEE OR ELL
  7
ROMANS
100
AcDbText
  0
TEXT
  5
3A7
330
4E0
100
AcDbEntity
  8
text-rb-sa-bubbles
100
AcDbText
 10
4.598981182500883
 20
4.608710444567776
 30
0.0
 40
0.125
  1
PVC LATERAL PIPE
  7
ROMANS
100
AcDbText
  0
TEXT
  5
3A8
330
4E0
100
AcDbEntity
  8
text-rb-sa-bubbles
100
AcDbText
 10
4.598981182500883
 20
4.118695465787161
 30
0.0
 40
0.125
  1
  RAIN BIRD MODEL SA 6050
  7
ROMANS
100
AcDbText
  0
TEXT
  5
3A9
330
4E0
100
AcDbEntity
  8
text-rb-sa-bubbles
100
AcDbText
 10
4.598981182500883
 20
4.27560540841416
 30
0.0
 40
0.125
  1
SWING ASSEMBLY:
  7
ROMANS
100
AcDbText
  0
TEXT
  5
3AB
330
4E0
100
AcDbEntity
  8
text-rb-sa-leaders
100
AcDbText
 10
4.615063220638749
 20
3.546872384431041
 30
0.0
 40
0.125
  1
SWING ASSEMBLY:
  7
ROMANS
100
AcDbText
  0
LINE
  5
3AD
330
4E0
100
AcDbEntity
  8
option_rb_sa
100
AcDbLine
 10
4.347519906490026
 20
2.655121190903139
 30
0.0
 11
4.347519906490026
 21
2.944287230785349
 31
0.0
  0
LINE
  5
3AE
330
4E0
100
AcDbEntity
  8
option_rb_sa
100
AcDbLine
 10
4.347519906490026
 20
2.899813133730777
 30
0.0
 11
4.6846164260239
 21
2.899813133730777
 31
0.0
  0
LINE
  5
3AF
330
4E0
100
AcDbEntity
  8
option_rb_sa
100
AcDbLine
 10
4.347519906490026
 20
2.696193051596785
 30
0.0
 11
4.6846164260239
 21
2.696193051596785
 31
0.0
  0
LWPOLYLINE
  5
3B1
330
4E0
100
AcDbEntity
  8
option_rb_sa
100
AcDbPolyline
 90
        4
 70
     0
 43
0.0
 10
4.6846164260239
 20
2.899813133730777
 42
-0.5107053858875276
 10
4.684616426023911
 20
2.796552854269714
 42
0.5107053858875159
 10
4.6846164260239
 20
2.696193051596785
 42
0.5397302473450178
 10
4.686542595538716
 20
2.798003092663779
 42
0.5397302473450178
  0
TEXT
  5
3B2
330
4E0
100
AcDbEntity
  8
text-rb-sa-bubbles
100
AcDbText
 10
4.385003767429934
 20
1.927750243806751
 30
0.0
 40
0.125
  1
5
  7
ROMANS
 72
     4
 11
4.444527576953744
 21
1.990250243806751
 31
0.0
100
AcDbText
  0
CIRCLE
  5
3B3
330
4E0
100
AcDbEntity
  8
text-rb-sa-bubbles
100
AcDbCircle
 10
4.444527576953744
 20
1.990250243806751
 30
0.0
 40
0.15625
  0
LINE
  5
3B7
330
4E0
100
AcDbEntity
  8
option_rb_sa
100
AcDbLine
 10
2.432022640559444
 20
3.240163640035513
 30
0.0
 11
2.40344204638182
 21
3.249346769799685
 31
0.0
  0
LINE
  5
3B8
330
4E0
100
AcDbEntity
  8
option_rb_sa
100
AcDbLine
 10
2.347113658385863
 20
3.467941052104118
 30
0.0
 11
2.347113658385863
 21
3.20951749349542
 31
0.0
  0
LINE
  5
3B9
330
4E0
100
AcDbEntity
  8
option_rb_sa
100
AcDbLine
 10
2.383386072162234
 20
3.080584545505454
 30
0.0
 11
2.323304914735603
 21
3.100256158065169
 31
0.0
  0
LINE
  5
3BA
330
4E0
100
AcDbEntity
  8
option_rb_sa
100
AcDbLine
 10
2.377645615057603
 20
3.061749809068783
 30
0.0
 11
2.436802350923064
 21
3.255846116761934
 31
0.0
  0
LINE
  5
3BC
330
4E0
100
AcDbEntity
  8
option_rb_sa
100
AcDbLine
 10
3.975710116034788
 20
2.734004172712181
 30
0.0
 11
3.915668013037582
 21
2.751934186342498
 31
0.0
  0
LINE
  5
3BD
330
4E0
100
AcDbEntity
  8
option_rb_sa
100
AcDbLine
 10
3.742701191760409
 20
2.775355437535389
 30
0.0
 11
3.742701191760409
 21
2.655121190903139
 31
0.0
  0
LINE
  5
3BE
330
4E0
100
AcDbEntity
  8
option_rb_sa
100
AcDbLine
 10
3.970371384943809
 20
2.934171211153198
 30
0.0
 11
3.912034211303441
 21
2.7398286580413
 31
0.0
  0
ARC
  5
3BF
330
4E0
100
AcDbEntity
  8
option_rb_sa
100
AcDbCircle
 10
4.046590426008423
 20
2.799894159010441
 30
0.0
 40
0.1267079420559205
100
AcDbArc
 50
204.5463070897701
 51
122.199916707569
  0
LINE
  5
3C0
330
4E0
100
AcDbEntity
  8
option_rb_sa
100
AcDbLine
 10
4.023447430524244
 20
2.893861761918904
 30
0.0
 11
3.963633168386097
 21
2.911723736798001
 31
0.0
  0
ARC
  5
3C1
330
4E0
100
AcDbEntity
  8
option_rb_sa
100
AcDbCircle
 10
4.046590426008423
 20
2.799894159010441
 30
0.0
 40
0.0967755580523473
100
AcDbArc
 50
222.910381779526
 51
103.8358420178157
  0
TEXT
  5
3C3
330
4E0
100
AcDbEntity
  8
text-rb-sa-bubbles
100
AcDbText
 10
3.442209925363142
 20
3.583467127499955
 30
0.0
 40
0.1253
  1
4
  7
ROMANS
 72
     4
 11
3.504859925363142
 21
3.646117127499955
 31
0.0
100
AcDbText
  0
TEXT
  5
3C5
330
4E0
100
AcDbEntity
  8
text-rb-sa-bubbles
100
AcDbText
 10
2.328200673981311
 20
1.92761048692622
 30
0.0
 40
0.125
  1
3
  7
ROMANS
 72
     4
 11
2.38772448350512
 21
1.99011048692622
 31
0.0
100
AcDbText
  0
CIRCLE
  5
3C6
330
4E0
100
AcDbEntity
  8
text-rb-sa-bubbles
100
AcDbCircle
 10
2.38772448350512
 20
1.99011048692622
 30
0.0
 40
0.15625
  0
CIRCLE
  5
3C8
330
4E0
100
AcDbEntity
  8
text-rb-sa-bubbles
100
AcDbCircle
 10
3.504859925363142
 20
3.646117127499955
 30
0.0
 40
0.156625
  0
LINE
  5
3CB
330
4E0
100
AcDbEntity
  8
option_rb_sa
100
AcDbLine
 10
3.970371384943809
 20
2.934171211153198
 30
0.0
 11
2.436802350923064
 21
3.255846116761933
 31
0.0
  0
LINE
  5
3CC
330
4E0
100
AcDbEntity
  8
option_rb_sa
100
AcDbLine
 10
2.377645623108153
 20
3.061749835483051
 30
0.0
 11
3.912034211303441
 21
2.7398286580413
 31
0.0
  0
LINE
  5
3CE
330
4E0
100
AcDbEntity
  8
option_rb_sa
100
AcDbLine
 10
4.347519906490026
 20
2.944287230785349
 30
0.0
 11
3.936878754645012
 21
2.944287230785344
 31
0.0
  0
LINE
  5
3CF
330
4E0
100
AcDbEntity
  8
option_rb_sa
100
AcDbLine
 10
3.742701191760409
 20
2.655121190903139
 30
0.0
 11
4.347519906490026
 21
2.655121190903139
 31
0.0
  0
LINE
  5
3D2
330
4E0
100
AcDbEntity
  8
option_rb_sa
100
AcDbLine
 10
2.172491994678208
 20
3.208829008146146
 30
0.0
 11
2.172491994678207
 21
3.467941052104118
 31
0.0
  0
LWPOLYLINE
  5
3D3
330
4E0
100
AcDbEntity
  8
option_rb_sa
100
AcDbPolyline
 90
        4
 70
     0
 43
0.0
 10
1.608246129356984
 20
2.899813133730777
 42
0.5107053858875276
 10
1.608246129356975
 20
2.796552854269714
 42
-0.5107053858875159
 10
1.608246129356984
 20
2.696193051596785
 42
-0.5397302473450178
 10
1.606319959842168
 20
2.798003092663779
 42
-0.5397302473450178
  0
LINE
  5
3D4
330
4E0
100
AcDbEntity
  8
option_rb_sa
100
AcDbLine
 10
3.14949241229192
 20
2.899813133730776
 30
0.0
 11
1.608246129356983
 21
2.899813133730777
 31
0.0
  0
LINE
  5
3D5
330
4E0
100
AcDbEntity
  8
option_rb_sa
100
AcDbLine
 10
3.742701191760409
 20
2.696193051596785
 30
0.0
 11
1.608246129356983
 21
2.696193051596785
 31
0.0
  0
ARC
  5
3D6
330
4E0
100
AcDbEntity
  8
option_rb_sa
100
AcDbCircle
 10
2.259802826532035
 20
3.230471335025316
 30
0.0
 40
0.1448741092016656
100
AcDbArc
 50
127.0611407962445
 51
52.93885920375984
  0
LINE
  5
3D7
330
4E0
100
AcDbEntity
  8
option_rb_sa
100
AcDbLine
 10
2.172491994678207
 20
3.411989118237289
 30
0.0
 11
2.347113658385863
 21
3.411989118237289
 31
0.0
  0
ARC
  5
3D8
330
4E0
100
AcDbEntity
  8
option_rb_sa
100
AcDbCircle
 10
2.259673402680824
 20
3.241999233604317
 30
0.0
 40
0.0932784099256874
100
AcDbArc
 50
200.8304993914682
 51
339.6213013705944
  0
TEXT
  5
3D9
330
4E0
100
AcDbEntity
  8
text-rb-sa-leaders
100
AcDbText
 10
4.581020776609779
 20
1.48137761117668
 30
0.0
 40
0.125
  1
PVC LATERAL PIPE
  7
ROMANS
100
AcDbText
  0
TEXT
  5
3DA
330
4E0
100
AcDbEntity
  8
text-rb-sa-leaders
100
AcDbText
 10
4.615063220638749
 20
3.389962441804041
 30
0.0
 40
0.125
  1
  RAIN BIRD MODEL SA 6050
  7
ROMANS
100
AcDbText
  0
TEXT
  5
3DB
330
4E0
100
AcDbEntity
  8
text-rb-sa-leaders
100
AcDbText
 10
4.598981182500883
 20
1.930660757682878
 30
0.0
 40
0.125
  1
PVC SCH 40 TEE OR ELL
  7
ROMANS
100
AcDbText
  0
LINE
  5
3E1
330
4E0
100
AcDbEntity
  8
instruct-option
100
AcDbLine
 10
16.23508229381651
 20
4.965507855447544
 30
0.0
 11
16.23508229381652
 21
7.955951015768697
 31
0.0
  0
TEXT
  5
54C
330
4E0
100
AcDbEntity
  8
instruct-option
100
AcDbText
 10
11.88898646454792
 20
6.73418101046395
 30
0.0
 40
0.1000000014900002
  1
TURNING ON THE APPROPRIATE LAYER:
  7
ROMANS
100
AcDbText
  0
TEXT
  5
54D
330
4E0
100
AcDbEntity
  8
instruct-option
100
AcDbText
 10
11.88898646454792
 20
6.874399421485319
 30
0.0
 40
0.1000000014900002
  1
SELECT THE DESIRED SWING ASSEMBLY BY
  7
ROMANS
100
AcDbText
  0
TEXT
  5
54E
330
4E0
100
AcDbEntity
  8
instruct-option
100
AcDbText
 10
11.90963193131686
 20
5.2287595525356
 30
0.0
 40
0.1
  1
  %%uOR%%u TEXT-RB-SA-BUBBLES
  7
ROMANS
100
AcDbText
  0
TEXT
  5
54F
330
4E0
100
AcDbEntity
  8
instruct-option
100
AcDbText
 10
11.90963193131686
 20
5.395998236564362
 30
0.0
 40
0.1
  1
  %%uAND EITHER%%u TEXT-RB-SA-LEADERS
  7
ROMANS
100
AcDbText
  0
TEXT
  5
550
330
4E0
100
AcDbEntity
  8
instruct-option
100
AcDbText
 10
11.90963193131686
 20
5.535998236564362
 30
0.0
 40
0.1
  1
  OPTION-RB-SA
  7
ROMANS
100
AcDbText
  0
TEXT
  5
551
330
4E0
100
AcDbEntity
  8
instruct-option
100
AcDbText
 10
11.90963193131686
 20
5.986598118260157
 30
0.0
 40
0.1
  1
  %%uOR%%u TEXT-SA-BUBBLES
  7
ROMANS
100
AcDbText
  0
TEXT
  5
552
330
4E0
100
AcDbEntity
  8
instruct-option
100
AcDbText
 10
11.90963193131686
 20
6.149608753440641
 30
0.0
 40
0.1
  1
  %%uAND EITHER%%u TEXT-SA-LEADERS
  7
ROMANS
100
AcDbText
  0
TEXT
  5
557
330
4E0
100
AcDbEntity
  8
instruct-option
100
AcDbText
 10
11.90963193131686
 20
6.289608753440641
 30
0.0
 40
0.1
  1
  OPTION-SA
  7
ROMANS
100
AcDbText
  0
TEXT
  5
55A
330
4E0
100
AcDbEntity
  8
instruct-option
100
AcDbText
 10
11.90963193131686
 20
5.719765964237244
 30
0.0
 40
0.1
  1
%%uRAIN BIRD SWING ASSEMBLY%%u
  7
ROMANS
100
AcDbText
  0
TEXT
  5
55B
330
4E0
100
AcDbEntity
  8
instruct-option
100
AcDbText
 10
11.90963193131686
 20
6.504530148042339
 30
0.0
 40
0.1
  1
%%uCONTRACTOR ASSEMBLED SWING ASSEMBLY%%u
  7
ROMANS
100
AcDbText
  0
TEXT
  5
55E
330
4E0
100
AcDbEntity
  8
instruct-option
100
AcDbText
 10
11.8687964450775
 20
4.630657516785811
 30
0.0
 40
0.1
  1
LAYER "INSTRUCT-OPTION".
  7
ROMANS
100
AcDbText
  0
TEXT
  5
55F
330
4E0
100
AcDbEntity
  8
instruct-option
100
AcDbText
 10
11.8687964450775
 20
4.800578088213013
 30
0.0
 40
0.1
  1
TO TURN OFF THIS INSTRUCTION BOX, TURN OFF
  7
ROMANS
100
AcDbText
  0
TEXT
  5
560
330
4E0
100
AcDbEntity
  8
instruct-option
100
AcDbText
 10
12.03025547089241
 20
7.991069642342318
 30
0.0
 40
0.1
  1
CHOOSING NOZZLES AND OPTIONAL FEATURES
  7
ROMANS
100
AcDbText
  0
TEXT
  5
565
330
4E0
100
AcDbEntity
  8
instruct-option
100
AcDbText
 10
11.88618040705657
 20
7.752413048037395
 30
0.0
 40
0.1
  1
CHOOSE ONE OF THE FOLLOWING OPTIONS
  7
ROMANS
100
AcDbText
  0
TEXT
  5
566
330
4E0
100
AcDbEntity
  8
instruct-option
100
AcDbText
 10
11.88618040705657
 20
7.612413048037394
 30
0.0
 40
0.1
  1
BY TURNING ON THE APPROPRIATE LAYER:
  7
ROMANS
100
AcDbText
  0
TEXT
  5
567
330
4E0
100
AcDbEntity
  8
instruct-option
100
AcDbText
 10
11.90963193131686
 20
7.394415977789407
 30
0.0
 40
0.1
  1
%%uSAM SERIES%%u
  7
ROMANS
100
AcDbText
  0
TEXT
  5
568
330
4E0
100
AcDbEntity
  8
instruct-option
100
AcDbText
 10
11.90963193131686
 20
7.190341021535608
 30
0.0
 40
0.1
  1
  OPTION-SAM
  7
ROMANS
100
AcDbText
  0
INSERT
  5
5B3
330
4E0
100
AcDbEntity
  8
title
100
AcDbBlockReference
 66
     1
  2
titleblock
 10
-0.0916749879134358
 20
-0.097854729324645
 30
0.0
  0
ATTRIB
  5
5B4
330
5B3
100
AcDbEntity
  8
title
100
AcDbText
 10
0.413880615888905
 20
0.6863723671537226
 30
0.0
 40
0.2
  1
D
  7
L200
 72
     4
 11
0.5147673826010469
 21
0.7863723671537226
 31
0.0
100
AcDbAttribute
  2
D
 70
     0
  0
ATTRIB
  5
5B5
330
5B3
100
AcDbEntity
  8
title
100
AcDbText
 10
1.139767382601046
 20
1.245857573422105
 30
0.0
 40
0.2
  1

  7
L200
100
AcDbAttribute
  2
TITLE1
 70
     0
  0
ATTRIB
  5
5B6
330
5B3
100
AcDbEntity
  8
title
100
AcDbText
 10
1.139767382601046
 20
0.8863723671537222
 30
0.0
 40
0.2
  1
1812 POP-UP SPRAY SPRINKLER
  7
L200
100
AcDbAttribute
  2
TITLE2
 70
     0
  0
ATTRIB
  5
5B7
330
5B3
100
AcDbEntity
  8
title
100
AcDbText
 10
2.621970763254875
 20
0.4949380371336734
 30
0.0
 40
0.2
  1
WITH ROTARY NOZZLE
  7
L200
100
AcDbAttribute
  2
TITLE3
 70
     0
  0
ATTRIB
  5
5B8
330
5B3
100
AcDbEntity
  8
title
100
AcDbText
 10
2.621970763254875
 20
0.1714013514921291
 30
0.0
 40
0.2
  1

  7
L200
100
AcDbAttribute
  2
TITLE4
 70
     0
  0
ATTRIB
  5
5B9
330
5B3
100
AcDbEntity
  8
title
 62
     7
100
AcDbText
 10
7.601730318243418
 20
0.8717480622199946
 30
0.0
 40
0.08
  1
6-25-08
  7
L80
 72
     2
 11
8.169349365862466
 21
0.8717480622199946
 31
0.0
100
AcDbAttribute
  2
REVISED
 70
     0
  0
ATTRIB
  5
5BA
330
5B3
100
AcDbEntity
  8
title
 62
     7
100
AcDbText
 10
0.1722673826010457
 20
-0.0131430813039231
 30
0.0
 40
0.08
  1
S-1812Rotary-SP.DWG
  7
L80
100
AcDbAttribute
  2
DWG-NAME
 70
     0
  0
ATTRIB
  5
5BB
330
5B3
100
AcDbEntity
  8
title
 62
     7
100
AcDbText
 10
1.139767382601046
 20
0.6027090500708443
 30
0.0
 40
0.1
  1
N.T.S.
  7
L100
100
AcDbAttribute
  2
SCALE
 70
     0
  0
SEQEND
  5
5BC
330
5B3
100
AcDbEntity
  8
image
  0
LEADER
  5
5D3
330
4E0
100
AcDbEntity
  8
text-sa-bubbles
100
AcDbLeader
  3
STANDARD
 76
     2
 10
4.028600501217661
 20
2.759645930213615
 30
0.0
 10
3.92973793810377
 20
2.146798900026694
 30
0.0
  0
LEADER
  5
5D4
330
4E0
100
AcDbEntity
  8
text-sa-bubbles
100
AcDbLeader
  3
STANDARD
 76
     2
 10
2.521605931739833
 20
2.697639124177565
 30
0.0
 10
2.66008743727819
 20
2.143202181191264
 30
0.0
  0
LEADER
  5
5D5
330
4E0
100
AcDbEntity
  8
text-sa-bubbles
100
AcDbLeader
  3
STANDARD
 76
     2
 10
4.358002305642816
 20
2.656567263483919
 30
0.0
 10
4.486364936163576
 20
2.142643153669141
 30
0.0
  0
LEADER
  5
5D6
330
4E0
100
AcDbEntity
  8
text-sa-bubbles
100
AcDbLeader
  3
STANDARD
 76
     2
 10
2.788524868946875
 20
3.126672393121915
 30
0.0
 10
3.034906468847483
 20
2.144296345712801
 30
0.0
  0
LEADER
  5
5D7
330
4E0
100
AcDbEntity
  8
text-sa-bubbles
100
AcDbLeader
  3
STANDARD
 76
     2
 10
2.176678266302941
 20
3.291338406428518
 30
0.0
 10
0.7111383247544963
 20
3.653532502146791
 30
0.0
  0
LEADER
  5
5D9
330
4E0
100
AcDbEntity
  8
text_bubbles
100
AcDbLeader
  3
STANDARD
 76
     2
 10
1.068593254566784
 20
7.07624012662738
 30
0.0
 10
0.7055784965783271
 20
6.558391623173243
 30
0.0
  0
LEADER
  5
5DA
330
4E0
100
AcDbEntity
  8
text_bubbles
100
AcDbLeader
  3
STANDARD
 76
     2
 10
2.054407537523053
 20
4.511687148350608
 30
0.0
 10
0.7111383247544963
 20
5.075285388808097
 30
0.0
  0
LEADER
  5
5DF
330
4E0
100
AcDbEntity
  8
text-rb-sa-bubbles
100
AcDbLeader
  3
STANDARD
 76
     2
 10
2.935571799861579
 20
3.151226362548999
 30
0.0
 10
3.355033037463827
 20
3.600474008769897
 30
0.0
  0
LEADER
  5
5E0
330
4E0
100
AcDbEntity
  8
text-rb-sa-bubbles
100
AcDbLeader
  3
STANDARD
 76
     2
 10
2.21159104675476
 20
2.696193051596785
 30
0.0
 10
2.350072552293119
 20
2.141756108610484
 30
0.0
  0
LEADER
  5
5E1
330
4E0
100
AcDbEntity
  8
text-rb-sa-bubbles
100
AcDbLeader
  3
STANDARD
 76
     2
 10
4.275802651965506
 20
2.655121190903139
 30
0.0
 10
4.404165282486266
 20
2.141197081088361
 30
0.0
  0
LEADER
  5
5E3
330
4E0
100
AcDbEntity
  8
text_leaders
100
AcDbLeader
  3
STANDARD
 76
     3
 10
2.466809964883034
 20
4.464097690615241
 30
0.0
 10
4.386652568005093
 20
5.262713407756148
 30
0.0
 10
4.567567160615043
 20
5.262713407756147
 30
0.0
  0
LEADER
  5
5E5
330
4E0
100
AcDbEntity
  8
text_leaders
100
AcDbLeader
  3
STANDARD
 76
     3
 10
3.629715424487925
 20
7.076240126627377
 30
0.0
 10
4.386652568005095
 20
6.419020013639859
 30
0.0
 10
4.567567160615043
 20
6.419020013639858
 30
0.0
  0
LEADER
  5
5ED
330
4E0
100
AcDbEntity
  8
text-rb-sa-leaders
100
AcDbLeader
  3
STANDARD
 76
     3
 10
3.845994847754247
 20
2.656375889192451
 30
0.0
 10
4.213653403720329
 20
1.978745572386575
 30
0.0
 10
4.567567160615043
 20
1.978745572386575
 30
0.0
211
-1.0
221
0.0
231
0.0
210
0.0
220
0.0
230
-1.0
  0
LEADER
  5
5EF
330
4E0
100
AcDbEntity
  8
text-rb-sa-leaders
100
AcDbLeader
  3
STANDARD
 76
     3
 10
3.295672483256399
 20
2.697447749886098
 30
0.0
 10
3.954834834713872
 20
1.525904860516726
 30
0.0
 10
4.567567160615043
 20
1.525904860516726
 30
0.0
211
-1.0
221
0.0
231
0.0
210
0.0
220
0.0
230
-1.0
  0
LEADER
  5
5F1
330
4E0
100
AcDbEntity
  8
text-rb-sa-leaders
100
AcDbLeader
  3
STANDARD
 76
     3
 10
3.163313953217355
 20
3.119355552493977
 30
0.0
 10
4.304452914327788
 20
3.596606679920884
 30
0.0
 10
4.567567160615043
 20
3.596606679920884
 30
0.0
  0
LEADER
  5
5F4
330
4E0
100
AcDbEntity
  8
text-sa-leaders
100
AcDbLeader
  3
STANDARD
 76
     3
 10
3.722575729242022
 20
2.697639124177566
 30
0.0
 10
4.386652568005095
 20
1.526096234808194
 30
0.0
 10
4.567567160615043
 20
1.526096234808193
 30
0.0
211
-1.0
221
0.0
231
0.0
210
0.0
220
0.0
230
-1.0
  0
LEADER
  5
5F6
330
4E0
100
AcDbEntity
  8
text-sa-leaders
100
AcDbLeader
  3
STANDARD
 76
     3
 10
4.135950320394777
 20
2.717349833101093
 30
0.0
 10
4.386652568005094
 20
2.262266520376494
 30
0.0
 10
4.567567160615043
 20
2.262266520376494
 30
0.0
211
-1.0
221
0.0
231
0.0
210
0.0
220
0.0
230
-1.0
  0
LEADER
  5
5F8
330
4E0
100
AcDbEntity
  8
text-sa-leaders
100
AcDbLeader
  3
STANDARD
 76
     3
 10
4.094633353322078
 20
2.945733303366125
 30
0.0
 10
4.453386619320546
 20
3.048787724475399
 30
0.0
 10
4.567567160615043
 20
3.048787724475398
 30
0.0
  0
LEADER
  5
5FA
330
4E0
100
AcDbEntity
  8
text-sa-leaders
100
AcDbLeader
  3
STANDARD
 76
     3
 10
3.371864387306353
 20
3.231617763543841
 30
0.0
 10
4.386652568005093
 20
3.653907913946797
 30
0.0
 10
4.567567160615043
 20
3.653907913946796
 30
0.0
  0
LEADER
  5
5FB
330
4E0
100
AcDbEntity
  8
text-sa-leaders
100
AcDbLeader
  3
STANDARD
 76
     3
 10
2.363237322161455
 20
3.394270511956172
 30
0.0
 10
4.386652568005093
 20
4.236286949225474
 30
0.0
 10
4.567567160615043
 20
4.236286949225474
 30
0.0
  0
INSERT
  5
9D7
330
4E0
100
AcDbEntity
  8
image
  6
Continuous
100
AcDbBlockReference
  2
*X1
 10
0.3142715747128726
 20
0.9502902121719522
 30
0.0
1001
ACAD
1000
HATCH
1002
{
1070
    19
1000
EARTH
1040
0.65
1040
0.7853981633974483
1000
R14_HATCH_DATA
1000
279
1011
1.314271574712872
1021
0.9502902121719522
1031
0.0
1011
0.3142715747128726
1021
1.950290212171952
1031
0.0
1011
0.3142715747128726
1021
0.9502902121719522
1031
1.0
1040
0.0
1010
0.0
1020
0.0
1030
1.0
1000
EARTH
1070
     0
1070
     0
1071
        2
1071
        7
1070
     0
1070
     1
1071
       14
1040
1.589837671950281
1040
6.079446240038
1040
1.589837671950284
1040
6.125949914455427
1040
0.901894848499516
1040
6.125949914455429
1040
0.9346661862985506
1040
6.041078655109741
1040
0.9831831153610892
1040
5.91709655207206
1040
1.031480374187091
1040
5.795688183413179
1040
1.096991930032364
1040
5.748062654268601
1040
1.286285043074094
1040
5.541375969845869
1040
1.316739912693479
1040
5.515262296970326
1040
1.499449565665189
1040
5.471697779962349
1040
1.645172995181747
1040
5.447715581994131
1040
1.737275681255466
1040
5.440436142981229
1040
1.737275681255466
1040
5.943500643791316
1040
1.664199693369325
1040
5.943500643791317
1071
        0
1071
        7
1070
     0
1070
     1
1071
       15
1040
2.83500060550391
1040
5.915729867120244
1040
2.888360612699536
1040
5.969878780684781
1040
2.930401851515239
1040
6.064437310910081
1040
2.949805495751771
1040
6.125949914455427
1040
2.296691475619592
1040
6.125949914455428
1040
2.296691475619592
1040
6.079446240038
1040
2.222329454200547
1040
5.943500643791315
1040
2.149253466314402
1040
5.943500643791317
1040
2.149253466314406
1040
5.442679170672474
1040
2.386291325306735
1040
5.67165571233919
1040
2.443693770430666
1040
5.716106307457263
1040
2.493819856193301
1040
5.724188227058022
1040
2.566583536535133
1040
5.741968465105257
1040
2.651474472842536
1040
5.767022441987338
1040
2.794576341859527
1040
5.84622531377702
1071
        0
1070
     0
1070
     1
1040
0.7853981633974483
1040
0.65
1070
     0
1070
     6
1040
0.7853981633974483
1040
0.0
1040
0.0
1040
0.0
1040
0.2298097038856279
1070
     2
1040
0.1625
1040
-0.1625
1040
0.7853981633974483
1040
-0.0430893194785553
1040
0.0430893194785553
1040
0.0
1040
0.2298097038856279
1070
     2
1040
0.1625
1040
-0.1625
1040
0.7853981633974483
1040
-0.0861786389571105
1040
0.0861786389571105
1040
0.0
1040
0.2298097038856279
1070
     2
1040
0.1625
1040
-0.1625
1040
2.356194490192344
1040
-0.0861786389571105
1040
0.114904851942814
1040
-0.2298097038856279
1040
0.0
1070
     2
1040
0.1625
1040
-0.1625
1040
2.356194490192344
1040
-0.0430893194785552
1040
0.1579941714213692
1040
-0.2298097038856279
1040
0.0
1070
     2
1040
0.1625
1040
-0.1625
1040
2.356194490192344
1040
0.0
1040
0.2010834908999244
1040
-0.2298097038856279
1040
0.0
1070
     2
1040
0.1625
1040
-0.1625
1040
0.0017236619931563
1071
        2
1040
1.406289918137414
1040
5.945922857244188
1040
0.0
1040
2.492590097024361
1040
5.897660316105262
1040
0.0
1002
}
  0
ARC
  5
9D8
330
4E0
100
AcDbEntity
  8
image
100
AcDbCircle
 10
3.309306561015333
 20
7.580111183645785
 30
0.0
 40
0.1566980695398199
100
AcDbArc
 50
159.7199718669748
 51
248.9186453553905
  0
ARC
  5
9D9
330
4E0
100
AcDbEntity
  8
image
100
AcDbCircle
 10
3.105959006809251
 20
7.48821373126419
 30
0.0
 40
0.1566980695398199
100
AcDbArc
 50
339.7199718669747
 51
68.91864535539044
  0
ARC
  5
9DA
330
4E0
100
AcDbEntity
  8
image
100
AcDbCircle
 10
3.627997871750062
 20
7.678079701233269
 30
0.0
 40
0.1566980695398199
100
AcDbArc
 50
98.53076560994793
 51
187.7294390983636
  0
ARC
  5
9DB
330
4E0
100
AcDbEntity
  8
image
100
AcDbCircle
 10
3.449478862914233
 20
7.811968957860141
 30
0.0
 40
0.1566980695398199
100
AcDbArc
 50
278.5307656099479
 51
7.729439098363579
  0
ARC
  5
9DC
330
4E0
100
AcDbEntity
  8
image
100
AcDbCircle
 10
2.95904747475136
 20
7.255584713655141
 30
0.0
 40
0.1566980695398199
100
AcDbArc
 50
98.53076560994793
 51
187.7294390983636
  0
ARC
  5
9DD
330
4E0
100
AcDbEntity
  8
image
100
AcDbCircle
 10
2.780528465915531
 20
7.389473970282013
 30
0.0
 40
0.1566980695398199
100
AcDbArc
 50
278.5307656099479
 51
7.729439098363579
  0
ARC
  5
9DE
330
4E0
100
AcDbEntity
  8
image
100
AcDbCircle
 10
3.302324652158589
 20
7.132357008944852
 30
0.0
 40
0.1566980695398199
100
AcDbArc
 50
98.53076560994793
 51
187.7294390983636
  0
ARC
  5
9DF
330
4E0
100
AcDbEntity
  8
image
100
AcDbCircle
 10
3.12380564332276
 20
7.266246265571725
 30
0.0
 40
0.1566980695398199
100
AcDbArc
 50
278.5307656099479
 51
7.729439098363579
  0
ARC
  5
9E0
330
4E0
100
AcDbEntity
  8
image
100
AcDbCircle
 10
2.859503597388677
 20
7.699461225053253
 30
0.0
 40
0.1566980695398199
100
AcDbArc
 50
339.7199718669747
 51
68.91864535539044
  0
ARC
  5
9E1
330
4E0
100
AcDbEntity
  8
image
100
AcDbCircle
 10
3.062851151594759
 20
7.791358677434848
 30
0.0
 40
0.1566980695398199
100
AcDbArc
 50
159.7199718669748
 51
248.9186453553905
  0
ARC
  5
9E2
330
4E0
100
AcDbEntity
  8
image
100
AcDbCircle
 10
3.317206500598315
 20
7.356184047646024
 30
0.0
 40
0.1566980695398199
100
AcDbArc
 50
339.7199718669747
 51
68.91864535539044
  0
ARC
  5
9E3
330
4E0
100
AcDbEntity
  8
image
100
AcDbCircle
 10
3.520554054804398
 20
7.448081500027619
 30
0.0
 40
0.1566980695398199
100
AcDbArc
 50
159.7199718669748
 51
248.9186453553905
  0
ARC
  5
9E4
330
4E0
100
AcDbEntity
  8
image
100
AcDbCircle
 10
3.264394627151049
 20
7.285768216383003
 30
0.0
 40
0.1566980695398199
100
AcDbArc
 50
339.7199718669747
 51
68.91864535539044
  0
ARC
  5
9E5
330
4E0
100
AcDbEntity
  8
image
100
AcDbCircle
 10
3.467742181357132
 20
7.377665668764597
 30
0.0
 40
0.1566980695398199
100
AcDbArc
 50
159.7199718669748
 51
248.9186453553905
  0
ARC
  5
9E6
330
4E0
100
AcDbEntity
  8
image
100
AcDbCircle
 10
3.132364943532885
 20
7.708263203961131
 30
0.0
 40
0.1566980695398199
100
AcDbArc
 50
339.7199718669747
 51
68.91864535539044
  0
ARC
  5
9E7
330
4E0
100
AcDbEntity
  8
image
100
AcDbCircle
 10
3.335712497738966
 20
7.800160656342725
 30
0.0
 40
0.1566980695398199
100
AcDbArc
 50
159.7199718669748
 51
248.9186453553905
  0
ARC
  5
9E8
330
4E0
100
AcDbEntity
  8
image
100
AcDbCircle
 10
2.733684574389558
 20
7.468533986832134
 30
0.0
 40
0.1566980695398199
100
AcDbArc
 50
339.7199718669747
 51
68.91864535539044
  0
ARC
  5
9E9
330
4E0
100
AcDbEntity
  8
image
100
AcDbCircle
 10
2.93703212859564
 20
7.560431439213729
 30
0.0
 40
0.1566980695398199
100
AcDbArc
 50
159.7199718669748
 51
248.9186453553905
  0
ARC
  5
9EA
330
4E0
100
AcDbEntity
  8
image
100
AcDbCircle
 10
2.912315470835943
 20
7.347382068738147
 30
0.0
 40
0.1566980695398199
100
AcDbArc
 50
339.7199718669747
 51
68.91864535539044
  0
ARC
  5
9EB
330
4E0
100
AcDbEntity
  8
image
100
AcDbCircle
 10
3.115663025042025
 20
7.439279521119742
 30
0.0
 40
0.1566980695398199
100
AcDbArc
 50
159.7199718669748
 51
248.9186453553905
  0
ARC
  5
9EC
330
4E0
100
AcDbEntity
  8
image
100
AcDbCircle
 10
2.973929323191086
 20
7.497015710172068
 30
0.0
 40
0.1566980695398199
100
AcDbArc
 50
339.7199718669747
 51
68.91864535539044
  0
ARC
  5
9ED
330
4E0
100
AcDbEntity
  8
image
100
AcDbCircle
 10
3.177276877397169
 20
7.588913162553662
 30
0.0
 40
0.1566980695398199
100
AcDbArc
 50
159.7199718669748
 51
248.9186453553905
  0
ARC
  5
9EE
330
4E0
100
AcDbEntity
  8
image
100
AcDbCircle
 10
3.33481045841407
 20
7.549827583619334
 30
0.0
 40
0.1566980695398199
100
AcDbArc
 50
339.7199718669747
 51
68.91864535539044
  0
ARC
  5
9EF
330
4E0
100
AcDbEntity
  8
image
100
AcDbCircle
 10
3.538158012620153
 20
7.641725036000927
 30
0.0
 40
0.1566980695398199
100
AcDbArc
 50
159.7199718669748
 51
248.9186453553905
  0
ARC
  5
9F0
330
4E0
100
AcDbEntity
  8
image
100
AcDbCircle
 10
3.48444409984799
 20
7.320976132014514
 30
0.0
 40
0.1566980695398199
100
AcDbArc
 50
339.7199718669747
 51
68.91864535539044
  0
ARC
  5
9F1
330
4E0
100
AcDbEntity
  8
image
100
AcDbCircle
 10
3.687791654054073
 20
7.412873584396109
 30
0.0
 40
0.1566980695398199
100
AcDbArc
 50
159.7199718669748
 51
248.9186453553905
  0
ARC
  5
9F2
330
4E0
100
AcDbEntity
  8
image
100
AcDbCircle
 10
3.473584280334964
 20
7.54129180277965
 30
0.0
 40
0.1566980695398199
100
AcDbArc
 50
323.5307656099477
 51
52.72943909836342
  0
ARC
  5
9F3
330
4E0
100
AcDbEntity
  8
image
100
AcDbCircle
 10
3.694490283342365
 20
7.572849803209276
 30
0.0
 40
0.1566980695398199
100
AcDbArc
 50
143.5307656099477
 51
232.7294390983635
  0
ARC
  5
9F4
330
4E0
100
AcDbEntity
  8
image
100
AcDbCircle
 10
3.332752617808921
 20
7.224420562096053
 30
0.0
 40
0.1566980695398199
100
AcDbArc
 50
323.5307656099477
 51
52.72943909836342
  0
ARC
  5
9F5
330
4E0
100
AcDbEntity
  8
image
100
AcDbCircle
 10
3.553658620816323
 20
7.255978562525681
 30
0.0
 40
0.1566980695398199
100
AcDbArc
 50
143.5307656099477
 51
232.7294390983635
  0
ARC
  5
9F6
330
4E0
100
AcDbEntity
  8
image
100
AcDbCircle
 10
3.174316997467123
 20
7.171608688648786
 30
0.0
 40
0.1566980695398199
100
AcDbArc
 50
323.5307656099477
 51
52.72943909836342
  0
ARC
  5
9F7
330
4E0
100
AcDbEntity
  8
image
100
AcDbCircle
 10
3.395223000474525
 20
7.203166689078415
 30
0.0
 40
0.1566980695398199
100
AcDbArc
 50
143.5307656099477
 51
232.7294390983635
  0
ARC
  5
9F8
330
4E0
100
AcDbEntity
  8
image
100
AcDbCircle
 10
2.88385169350716
 20
7.189212646464543
 30
0.0
 40
0.1566980695398199
100
AcDbArc
 50
323.5307656099477
 51
52.72943909836342
  0
ARC
  5
9F9
330
4E0
100
AcDbEntity
  8
image
100
AcDbCircle
 10
3.104757696514563
 20
7.22077064689417
 30
0.0
 40
0.1566980695398199
100
AcDbArc
 50
143.5307656099477
 51
232.7294390983635
  0
ARC
  5
9FA
330
4E0
100
AcDbEntity
  8
image
100
AcDbCircle
 10
3.068693250572591
 20
7.330044308990585
 30
0.0
 40
0.1566980695398199
100
AcDbArc
 50
323.5307656099477
 51
52.72943909836342
  0
ARC
  5
9FB
330
4E0
100
AcDbEntity
  8
image
100
AcDbCircle
 10
3.289599253579993
 20
7.361602309420213
 30
0.0
 40
0.1566980695398199
100
AcDbArc
 50
143.5307656099477
 51
232.7294390983635
  0
ARC
  5
9FC
330
4E0
100
AcDbEntity
  8
image
100
AcDbCircle
 10
3.191920955282879
 20
7.550093781687527
 30
0.0
 40
0.1566980695398199
100
AcDbArc
 50
323.5307656099477
 51
52.72943909836342
  0
ARC
  5
9FD
330
4E0
100
AcDbEntity
  8
image
100
AcDbCircle
 10
3.41282695829028
 20
7.581651782117154
 30
0.0
 40
0.1566980695398199
100
AcDbArc
 50
143.5307656099477
 51
232.7294390983635
  0
ARC
  5
9FE
330
4E0
100
AcDbEntity
  8
image
100
AcDbCircle
 10
3.262336786545899
 20
7.708529402029324
 30
0.0
 40
0.1566980695398199
100
AcDbArc
 50
323.5307656099477
 51
52.72943909836342
  0
ARC
  5
9FF
330
4E0
100
AcDbEntity
  8
image
100
AcDbCircle
 10
3.483242789553302
 20
7.740087402458952
 30
0.0
 40
0.1566980695398199
100
AcDbArc
 50
143.5307656099477
 51
232.7294390983635
  0
ARC
  5
A00
330
4E0
100
AcDbEntity
  8
image
100
AcDbCircle
 10
2.989475440401692
 20
7.664519507489936
 30
0.0
 40
0.1566980695398199
100
AcDbArc
 50
323.5307656099477
 51
52.72943909836342
  0
ARC
  5
A01
330
4E0
100
AcDbEntity
  8
image
100
AcDbCircle
 10
3.210381443409095
 20
7.696077507919564
 30
0.0
 40
0.1566980695398199
100
AcDbArc
 50
143.5307656099477
 51
232.7294390983635
  0
ARC
  5
A02
330
4E0
100
AcDbEntity
  8
image
100
AcDbCircle
 10
2.84864377787565
 20
7.54129180277965
 30
0.0
 40
0.1566980695398199
100
AcDbArc
 50
323.5307656099477
 51
52.72943909836342
  0
ARC
  5
A03
330
4E0
100
AcDbEntity
  8
image
100
AcDbCircle
 10
3.069549780883052
 20
7.572849803209276
 30
0.0
 40
0.1566980695398199
100
AcDbArc
 50
143.5307656099477
 51
232.7294390983635
  0
ARC
  5
A04
330
4E0
100
AcDbEntity
  8
image
100
AcDbCircle
 10
2.769425967704751
 20
7.189212646464543
 30
0.0
 40
0.1566980695398199
100
AcDbArc
 50
323.5307656099477
 51
52.72943909836342
  0
ARC
  5
A05
330
4E0
100
AcDbEntity
  8
image
100
AcDbCircle
 10
2.990331970712153
 20
7.22077064689417
 30
0.0
 40
0.1566980695398199
100
AcDbArc
 50
143.5307656099477
 51
232.7294390983635
  0
ARC
  5
A06
330
4E0
100
AcDbEntity
  8
image
100
AcDbCircle
 10
2.61979232627083
 20
7.206816604280298
 30
0.0
 40
0.1566980695398199
100
AcDbArc
 50
323.5307656099477
 51
52.72943909836342
  0
ARC
  5
A07
330
4E0
100
AcDbEntity
  8
image
100
AcDbCircle
 10
2.840698329278233
 20
7.238374604709925
 30
0.0
 40
0.1566980695398199
100
AcDbArc
 50
143.5307656099477
 51
232.7294390983635
  0
ARC
  5
A08
330
4E0
100
AcDbEntity
  8
image
100
AcDbCircle
 10
2.663802220810218
 20
7.330044308990585
 30
0.0
 40
0.1566980695398199
100
AcDbArc
 50
323.5307656099477
 51
52.72943909836342
  0
ARC
  5
A09
330
4E0
100
AcDbEntity
  8
image
100
AcDbCircle
 10
2.884708223817622
 20
7.361602309420213
 30
0.0
 40
0.1566980695398199
100
AcDbArc
 50
143.5307656099477
 51
232.7294390983635
  0
ARC
  5
A0A
330
4E0
100
AcDbEntity
  8
image
100
AcDbCircle
 10
2.751822009888995
 20
7.72613335984508
 30
0.0
 40
0.1566980695398199
100
AcDbArc
 50
323.5307656099477
 51
52.72943909836342
  0
ARC
  5
A0B
330
4E0
100
AcDbEntity
  8
image
100
AcDbCircle
 10
2.972728012896398
 20
7.757691360274709
 30
0.0
 40
0.1566980695398199
100
AcDbArc
 50
143.5307656099477
 51
232.7294390983635
  0
ARC
  5
A0C
330
4E0
100
AcDbEntity
  8
image
100
AcDbCircle
 10
3.429574385795576
 20
7.198014625372421
 30
0.0
 40
0.1566980695398199
100
AcDbArc
 50
323.5307656099477
 51
52.72943909836342
  0
ARC
  5
A0D
330
4E0
100
AcDbEntity
  8
image
100
AcDbCircle
 10
3.650480388802979
 20
7.229572625802047
 30
0.0
 40
0.1566980695398199
100
AcDbArc
 50
143.5307656099477
 51
232.7294390983635
  0
ARC
  5
A0E
330
4E0
100
AcDbEntity
  8
image
100
AcDbCircle
 10
3.175137354332866
 20
7.439217117810017
 30
0.0
 40
0.1566980695398199
100
AcDbArc
 50
296.0563205359582
 51
25.25499402437389
  0
ARC
  5
A0F
330
4E0
100
AcDbEntity
  8
image
100
AcDbCircle
 10
3.385688224206986
 20
7.365300267558707
 30
0.0
 40
0.1566980695398199
100
AcDbArc
 50
116.0563205359582
 51
205.254994024374
  0
ARC
  5
A10
330
4E0
100
AcDbEntity
  8
image
100
AcDbCircle
 10
3.006892444145504
 20
7.278287335254836
 30
0.0
 40
0.1566980695398199
100
AcDbArc
 50
296.0563205359582
 51
25.25499402437389
  0
ARC
  5
A11
330
4E0
100
AcDbEntity
  8
image
100
AcDbCircle
 10
3.217443314019624
 20
7.204370485003526
 30
0.0
 40
0.1566980695398199
100
AcDbArc
 50
116.0563205359582
 51
205.254994024374
  0
ARC
  5
A12
330
4E0
100
AcDbEntity
  8
image
100
AcDbCircle
 10
2.984947455860195
 20
7.431902127693874
 30
0.0
 40
0.1566980695398199
100
AcDbArc
 50
296.0563205359582
 51
25.25499402437389
  0
ARC
  5
A13
330
4E0
100
AcDbEntity
  8
image
100
AcDbCircle
 10
3.195498325734314
 20
7.357985277442562
 30
0.0
 40
0.1566980695398199
100
AcDbArc
 50
116.0563205359582
 51
205.254994024374
  0
ARC
  5
A14
330
4E0
100
AcDbEntity
  8
image
100
AcDbCircle
 10
2.652115133533023
 20
7.757419187862309
 30
0.0
 40
0.1566980695398199
100
AcDbArc
 50
296.0563205359582
 51
25.25499402437389
  0
ARC
  5
A15
330
4E0
100
AcDbEntity
  8
image
100
AcDbCircle
 10
2.862666003407143
 20
7.683502337610999
 30
0.0
 40
0.1566980695398199
100
AcDbArc
 50
116.0563205359582
 51
205.254994024374
  0
ARC
  5
A16
330
4E0
100
AcDbEntity
  8
image
100
AcDbCircle
 10
3.40190223328105
 20
7.526996999203753
 30
0.0
 40
0.1566980695398199
100
AcDbArc
 50
296.0563205359582
 51
25.25499402437389
  0
ARC
  5
A17
330
4E0
100
AcDbEntity
  8
image
100
AcDbCircle
 10
3.612453103155169
 20
7.453080148952443
 30
0.0
 40
0.1566980695398199
100
AcDbArc
 50
116.0563205359582
 51
205.254994024374
  0
ARC
  5
A18
330
4E0
100
AcDbEntity
  8
image
100
AcDbCircle
 10
3.080042405096531
 20
7.739131712571948
 30
0.0
 40
0.1566980695398199
100
AcDbArc
 50
296.0563205359582
 51
25.25499402437389
  0
ARC
  5
A19
330
4E0
100
AcDbEntity
  8
image
100
AcDbCircle
 10
3.290593274970651
 20
7.665214862320636
 30
0.0
 40
0.1566980695398199
100
AcDbArc
 50
116.0563205359582
 51
205.254994024374
  0
ARC
  5
A1A
330
4E0
100
AcDbEntity
  8
image
100
AcDbCircle
 10
2.600910160867304
 20
7.53796948437797
 30
0.0
 40
0.1566980695398199
100
AcDbArc
 50
296.0563205359582
 51
25.25499402437389
  0
ARC
  5
A1B
330
4E0
100
AcDbEntity
  8
image
100
AcDbCircle
 10
2.811461030741424
 20
7.464052634126661
 30
0.0
 40
0.1566980695398199
100
AcDbArc
 50
116.0563205359582
 51
205.254994024374
  0
ARC
  5
A1C
330
4E0
100
AcDbEntity
  8
image
100
AcDbCircle
 10
3.277547299664302
 20
7.596489405307128
 30
0.0
 40
0.1566980695398199
100
AcDbArc
 50
296.0563205359582
 51
25.25499402437389
  0
ARC
  5
A1D
330
4E0
100
AcDbEntity
  8
image
100
AcDbCircle
 10
3.488098169538423
 20
7.522572555055816
 30
0.0
 40
0.1566980695398199
100
AcDbArc
 50
116.0563205359582
 51
205.254994024374
  0
ARC
  5
A1E
330
4E0
100
AcDbEntity
  8
image
100
AcDbCircle
 10
1.561345005420202
 20
7.580111183645785
 30
0.0
 40
0.1566980695398199
100
AcDbArc
 50
159.7199718669748
 51
248.9186453553905
  0
ARC
  5
A1F
330
4E0
100
AcDbEntity
  8
image
100
AcDbCircle
 10
1.35799745121412
 20
7.48821373126419
 30
0.0
 40
0.1566980695398199
100
AcDbArc
 50
339.7199718669747
 51
68.91864535539044
  0
ARC
  5
A20
330
4E0
100
AcDbEntity
  8
image
100
AcDbCircle
 10
1.880036316154932
 20
7.678079701233269
 30
0.0
 40
0.1566980695398199
100
AcDbArc
 50
98.53076560994793
 51
187.7294390983636
  0
ARC
  5
A21
330
4E0
100
AcDbEntity
  8
image
100
AcDbCircle
 10
1.701517307319102
 20
7.811968957860141
 30
0.0
 40
0.1566980695398199
100
AcDbArc
 50
278.5307656099479
 51
7.729439098363579
  0
ARC
  5
A22
330
4E0
100
AcDbEntity
  8
image
100
AcDbCircle
 10
1.211085919156229
 20
7.255584713655141
 30
0.0
 40
0.1566980695398199
100
AcDbArc
 50
98.53076560994793
 51
187.7294390983636
  0
ARC
  5
A23
330
4E0
100
AcDbEntity
  8
image
100
AcDbCircle
 10
1.0325669103204
 20
7.389473970282013
 30
0.0
 40
0.1566980695398199
100
AcDbArc
 50
278.5307656099479
 51
7.729439098363579
  0
ARC
  5
A24
330
4E0
100
AcDbEntity
  8
image
100
AcDbCircle
 10
1.554363096563458
 20
7.132357008944852
 30
0.0
 40
0.1566980695398199
100
AcDbArc
 50
98.53076560994793
 51
187.7294390983636
  0
ARC
  5
A25
330
4E0
100
AcDbEntity
  8
image
100
AcDbCircle
 10
1.375844087727629
 20
7.266246265571725
 30
0.0
 40
0.1566980695398199
100
AcDbArc
 50
278.5307656099479
 51
7.729439098363579
  0
ARC
  5
A26
330
4E0
100
AcDbEntity
  8
image
100
AcDbCircle
 10
1.111542041793546
 20
7.699461225053253
 30
0.0
 40
0.1566980695398199
100
AcDbArc
 50
339.7199718669747
 51
68.91864535539044
  0
ARC
  5
A27
330
4E0
100
AcDbEntity
  8
image
100
AcDbCircle
 10
1.314889595999628
 20
7.791358677434848
 30
0.0
 40
0.1566980695398199
100
AcDbArc
 50
159.7199718669748
 51
248.9186453553905
  0
ARC
  5
A28
330
4E0
100
AcDbEntity
  8
image
100
AcDbCircle
 10
1.569244945003184
 20
7.356184047646024
 30
0.0
 40
0.1566980695398199
100
AcDbArc
 50
339.7199718669747
 51
68.91864535539044
  0
ARC
  5
A29
330
4E0
100
AcDbEntity
  8
image
100
AcDbCircle
 10
1.772592499209267
 20
7.448081500027619
 30
0.0
 40
0.1566980695398199
100
AcDbArc
 50
159.7199718669748
 51
248.9186453553905
  0
ARC
  5
A2A
330
4E0
100
AcDbEntity
  8
image
100
AcDbCircle
 10
1.516433071555918
 20
7.285768216383003
 30
0.0
 40
0.1566980695398199
100
AcDbArc
 50
339.7199718669747
 51
68.91864535539044
  0
ARC
  5
A2B
330
4E0
100
AcDbEntity
  8
image
100
AcDbCircle
 10
1.719780625762001
 20
7.377665668764597
 30
0.0
 40
0.1566980695398199
100
AcDbArc
 50
159.7199718669748
 51
248.9186453553905
  0
ARC
  5
A2C
330
4E0
100
AcDbEntity
  8
image
100
AcDbCircle
 10
1.426893801614648
 20
7.68625897896687
 30
0.0
 40
0.1566980695398199
100
AcDbArc
 50
339.7199718669747
 51
68.91864535539044
  0
ARC
  5
A2D
330
4E0
100
AcDbEntity
  8
image
100
AcDbCircle
 10
1.63024135582073
 20
7.778156431348465
 30
0.0
 40
0.1566980695398199
100
AcDbArc
 50
159.7199718669748
 51
248.9186453553905
  0
ARC
  5
A2E
330
4E0
100
AcDbEntity
  8
image
100
AcDbCircle
 10
0.9857230187944274
 20
7.468533986832134
 30
0.0
 40
0.1566980695398199
100
AcDbArc
 50
339.7199718669747
 51
68.91864535539044
  0
ARC
  5
A2F
330
4E0
100
AcDbEntity
  8
image
100
AcDbCircle
 10
1.189070573000509
 20
7.560431439213729
 30
0.0
 40
0.1566980695398199
100
AcDbArc
 50
159.7199718669748
 51
248.9186453553905
  0
ARC
  5
A30
330
4E0
100
AcDbEntity
  8
image
100
AcDbCircle
 10
1.164353915240812
 20
7.347382068738147
 30
0.0
 40
0.1566980695398199
100
AcDbArc
 50
339.7199718669747
 51
68.91864535539044
  0
ARC
  5
A31
330
4E0
100
AcDbEntity
  8
image
100
AcDbCircle
 10
1.367701469446894
 20
7.439279521119742
 30
0.0
 40
0.1566980695398199
100
AcDbArc
 50
159.7199718669748
 51
248.9186453553905
  0
ARC
  5
A32
330
4E0
100
AcDbEntity
  8
image
100
AcDbCircle
 10
1.225967767595955
 20
7.497015710172068
 30
0.0
 40
0.1566980695398199
100
AcDbArc
 50
339.7199718669747
 51
68.91864535539044
  0
ARC
  5
A33
330
4E0
100
AcDbEntity
  8
image
100
AcDbCircle
 10
1.429315321802038
 20
7.588913162553662
 30
0.0
 40
0.1566980695398199
100
AcDbArc
 50
159.7199718669748
 51
248.9186453553905
  0
ARC
  5
A34
330
4E0
100
AcDbEntity
  8
image
100
AcDbCircle
 10
1.586848902818939
 20
7.549827583619334
 30
0.0
 40
0.1566980695398199
100
AcDbArc
 50
339.7199718669747
 51
68.91864535539044
  0
ARC
  5
A35
330
4E0
100
AcDbEntity
  8
image
100
AcDbCircle
 10
1.790196457025022
 20
7.641725036000927
 30
0.0
 40
0.1566980695398199
100
AcDbArc
 50
159.7199718669748
 51
248.9186453553905
  0
ARC
  5
A36
330
4E0
100
AcDbEntity
  8
image
100
AcDbCircle
 10
1.736482544252859
 20
7.320976132014514
 30
0.0
 40
0.1566980695398199
100
AcDbArc
 50
339.7199718669747
 51
68.91864535539044
  0
ARC
  5
A37
330
4E0
100
AcDbEntity
  8
image
100
AcDbCircle
 10
1.939830098458942
 20
7.412873584396109
 30
0.0
 40
0.1566980695398199
100
AcDbArc
 50
159.7199718669748
 51
248.9186453553905
  0
ARC
  5
A38
330
4E0
100
AcDbEntity
  8
image
100
AcDbCircle
 10
1.725622724739833
 20
7.54129180277965
 30
0.0
 40
0.1566980695398199
100
AcDbArc
 50
323.5307656099477
 51
52.72943909836342
  0
ARC
  5
A39
330
4E0
100
AcDbEntity
  8
image
100
AcDbCircle
 10
1.946528727747234
 20
7.572849803209276
 30
0.0
 40
0.1566980695398199
100
AcDbArc
 50
143.5307656099477
 51
232.7294390983635
  0
ARC
  5
A3A
330
4E0
100
AcDbEntity
  8
image
100
AcDbCircle
 10
1.584791062213791
 20
7.224420562096053
 30
0.0
 40
0.1566980695398199
100
AcDbArc
 50
323.5307656099477
 51
52.72943909836342
  0
ARC
  5
A3B
330
4E0
100
AcDbEntity
  8
image
100
AcDbCircle
 10
1.805697065221192
 20
7.255978562525681
 30
0.0
 40
0.1566980695398199
100
AcDbArc
 50
143.5307656099477
 51
232.7294390983635
  0
ARC
  5
A3C
330
4E0
100
AcDbEntity
  8
image
100
AcDbCircle
 10
1.426355441871992
 20
7.171608688648786
 30
0.0
 40
0.1566980695398199
100
AcDbArc
 50
323.5307656099477
 51
52.72943909836342
  0
ARC
  5
A3D
330
4E0
100
AcDbEntity
  8
image
100
AcDbCircle
 10
1.647261444879394
 20
7.203166689078415
 30
0.0
 40
0.1566980695398199
100
AcDbArc
 50
143.5307656099477
 51
232.7294390983635
  0
ARC
  5
A3E
330
4E0
100
AcDbEntity
  8
image
100
AcDbCircle
 10
1.135890137912029
 20
7.189212646464543
 30
0.0
 40
0.1566980695398199
100
AcDbArc
 50
323.5307656099477
 51
52.72943909836342
  0
ARC
  5
A3F
330
4E0
100
AcDbEntity
  8
image
100
AcDbCircle
 10
1.356796140919432
 20
7.22077064689417
 30
0.0
 40
0.1566980695398199
100
AcDbArc
 50
143.5307656099477
 51
232.7294390983635
  0
ARC
  5
A40
330
4E0
100
AcDbEntity
  8
image
100
AcDbCircle
 10
1.32073169497746
 20
7.330044308990585
 30
0.0
 40
0.1566980695398199
100
AcDbArc
 50
323.5307656099477
 51
52.72943909836342
  0
ARC
  5
A41
330
4E0
100
AcDbEntity
  8
image
100
AcDbCircle
 10
1.541637697984862
 20
7.361602309420213
 30
0.0
 40
0.1566980695398199
100
AcDbArc
 50
143.5307656099477
 51
232.7294390983635
  0
ARC
  5
A42
330
4E0
100
AcDbEntity
  8
image
100
AcDbCircle
 10
1.443959399687748
 20
7.550093781687527
 30
0.0
 40
0.1566980695398199
100
AcDbArc
 50
323.5307656099477
 51
52.72943909836342
  0
ARC
  5
A43
330
4E0
100
AcDbEntity
  8
image
100
AcDbCircle
 10
1.664865402695149
 20
7.581651782117154
 30
0.0
 40
0.1566980695398199
100
AcDbArc
 50
143.5307656099477
 51
232.7294390983635
  0
ARC
  5
A44
330
4E0
100
AcDbEntity
  8
image
100
AcDbCircle
 10
1.514375230950768
 20
7.708529402029324
 30
0.0
 40
0.1566980695398199
100
AcDbArc
 50
323.5307656099477
 51
52.72943909836342
  0
ARC
  5
A45
330
4E0
100
AcDbEntity
  8
image
100
AcDbCircle
 10
1.735281233958172
 20
7.740087402458952
 30
0.0
 40
0.1566980695398199
100
AcDbArc
 50
143.5307656099477
 51
232.7294390983635
  0
ARC
  5
A46
330
4E0
100
AcDbEntity
  8
image
100
AcDbCircle
 10
1.241513884806561
 20
7.664519507489936
 30
0.0
 40
0.1566980695398199
100
AcDbArc
 50
323.5307656099477
 51
52.72943909836342
  0
ARC
  5
A47
330
4E0
100
AcDbEntity
  8
image
100
AcDbCircle
 10
1.462419887813964
 20
7.696077507919564
 30
0.0
 40
0.1566980695398199
100
AcDbArc
 50
143.5307656099477
 51
232.7294390983635
  0
ARC
  5
A48
330
4E0
100
AcDbEntity
  8
image
100
AcDbCircle
 10
1.100682222280519
 20
7.54129180277965
 30
0.0
 40
0.1566980695398199
100
AcDbArc
 50
323.5307656099477
 51
52.72943909836342
  0
ARC
  5
A49
330
4E0
100
AcDbEntity
  8
image
100
AcDbCircle
 10
1.321588225287921
 20
7.572849803209276
 30
0.0
 40
0.1566980695398199
100
AcDbArc
 50
143.5307656099477
 51
232.7294390983635
  0
ARC
  5
A4A
330
4E0
100
AcDbEntity
  8
image
100
AcDbCircle
 10
1.02146441210962
 20
7.189212646464543
 30
0.0
 40
0.1566980695398199
100
AcDbArc
 50
323.5307656099477
 51
52.72943909836342
  0
ARC
  5
A4B
330
4E0
100
AcDbEntity
  8
image
100
AcDbCircle
 10
1.242370415117022
 20
7.22077064689417
 30
0.0
 40
0.1566980695398199
100
AcDbArc
 50
143.5307656099477
 51
232.7294390983635
  0
ARC
  5
A4C
330
4E0
100
AcDbEntity
  8
image
100
AcDbCircle
 10
0.8718307706756993
 20
7.206816604280298
 30
0.0
 40
0.1566980695398199
100
AcDbArc
 50
323.5307656099477
 51
52.72943909836342
  0
ARC
  5
A4D
330
4E0
100
AcDbEntity
  8
image
100
AcDbCircle
 10
1.092736773683102
 20
7.238374604709925
 30
0.0
 40
0.1566980695398199
100
AcDbArc
 50
143.5307656099477
 51
232.7294390983635
  0
ARC
  5
A4E
330
4E0
100
AcDbEntity
  8
image
100
AcDbCircle
 10
0.9158406652150876
 20
7.330044308990585
 30
0.0
 40
0.1566980695398199
100
AcDbArc
 50
323.5307656099477
 51
52.72943909836342
  0
ARC
  5
A4F
330
4E0
100
AcDbEntity
  8
image
100
AcDbCircle
 10
1.136746668222491
 20
7.361602309420213
 30
0.0
 40
0.1566980695398199
100
AcDbArc
 50
143.5307656099477
 51
232.7294390983635
  0
ARC
  5
A50
330
4E0
100
AcDbEntity
  8
image
100
AcDbCircle
 10
1.003860454293864
 20
7.72613335984508
 30
0.0
 40
0.1566980695398199
100
AcDbArc
 50
323.5307656099477
 51
52.72943909836342
  0
ARC
  5
A51
330
4E0
100
AcDbEntity
  8
image
100
AcDbCircle
 10
1.224766457301267
 20
7.757691360274709
 30
0.0
 40
0.1566980695398199
100
AcDbArc
 50
143.5307656099477
 51
232.7294390983635
  0
ARC
  5
A52
330
4E0
100
AcDbEntity
  8
image
100
AcDbCircle
 10
1.681612830200445
 20
7.198014625372421
 30
0.0
 40
0.1566980695398199
100
AcDbArc
 50
323.5307656099477
 51
52.72943909836342
  0
ARC
  5
A53
330
4E0
100
AcDbEntity
  8
image
100
AcDbCircle
 10
1.902518833207848
 20
7.229572625802047
 30
0.0
 40
0.1566980695398199
100
AcDbArc
 50
143.5307656099477
 51
232.7294390983635
  0
ARC
  5
A54
330
4E0
100
AcDbEntity
  8
image
100
AcDbCircle
 10
1.427175798737735
 20
7.439217117810017
 30
0.0
 40
0.1566980695398199
100
AcDbArc
 50
296.0563205359582
 51
25.25499402437389
  0
ARC
  5
A55
330
4E0
100
AcDbEntity
  8
image
100
AcDbCircle
 10
1.637726668611855
 20
7.365300267558707
 30
0.0
 40
0.1566980695398199
100
AcDbArc
 50
116.0563205359582
 51
205.254994024374
  0
ARC
  5
A56
330
4E0
100
AcDbEntity
  8
image
100
AcDbCircle
 10
1.258930888550373
 20
7.278287335254836
 30
0.0
 40
0.1566980695398199
100
AcDbArc
 50
296.0563205359582
 51
25.25499402437389
  0
ARC
  5
A57
330
4E0
100
AcDbEntity
  8
image
100
AcDbCircle
 10
1.469481758424493
 20
7.204370485003526
 30
0.0
 40
0.1566980695398199
100
AcDbArc
 50
116.0563205359582
 51
205.254994024374
  0
ARC
  5
A58
330
4E0
100
AcDbEntity
  8
image
100
AcDbCircle
 10
1.236985900265064
 20
7.431902127693874
 30
0.0
 40
0.1566980695398199
100
AcDbArc
 50
296.0563205359582
 51
25.25499402437389
  0
ARC
  5
A59
330
4E0
100
AcDbEntity
  8
image
100
AcDbCircle
 10
1.447536770139183
 20
7.357985277442562
 30
0.0
 40
0.1566980695398199
100
AcDbArc
 50
116.0563205359582
 51
205.254994024374
  0
ARC
  5
A5A
330
4E0
100
AcDbEntity
  8
image
100
AcDbCircle
 10
0.9041535779378921
 20
7.757419187862309
 30
0.0
 40
0.1566980695398199
100
AcDbArc
 50
296.0563205359582
 51
25.25499402437389
  0
ARC
  5
A5B
330
4E0
100
AcDbEntity
  8
image
100
AcDbCircle
 10
1.114704447812012
 20
7.683502337610999
 30
0.0
 40
0.1566980695398199
100
AcDbArc
 50
116.0563205359582
 51
205.254994024374
  0
ARC
  5
A5C
330
4E0
100
AcDbEntity
  8
image
100
AcDbCircle
 10
1.653940677685919
 20
7.526996999203753
 30
0.0
 40
0.1566980695398199
100
AcDbArc
 50
296.0563205359582
 51
25.25499402437389
  0
ARC
  5
A5D
330
4E0
100
AcDbEntity
  8
image
100
AcDbCircle
 10
1.864491547560038
 20
7.453080148952443
 30
0.0
 40
0.1566980695398199
100
AcDbArc
 50
116.0563205359582
 51
205.254994024374
  0
ARC
  5
A5E
330
4E0
100
AcDbEntity
  8
image
100
AcDbCircle
 10
1.3320808495014
 20
7.739131712571948
 30
0.0
 40
0.1566980695398199
100
AcDbArc
 50
296.0563205359582
 51
25.25499402437389
  0
ARC
  5
A5F
330
4E0
100
AcDbEntity
  8
image
100
AcDbCircle
 10
1.542631719375521
 20
7.665214862320636
 30
0.0
 40
0.1566980695398199
100
AcDbArc
 50
116.0563205359582
 51
205.254994024374
  0
ARC
  5
A60
330
4E0
100
AcDbEntity
  8
image
100
AcDbCircle
 10
0.8529486052721733
 20
7.53796948437797
 30
0.0
 40
0.1566980695398199
100
AcDbArc
 50
296.0563205359582
 51
25.25499402437389
  0
ARC
  5
A61
330
4E0
100
AcDbEntity
  8
image
100
AcDbCircle
 10
1.063499475146294
 20
7.464052634126661
 30
0.0
 40
0.1566980695398199
100
AcDbArc
 50
116.0563205359582
 51
205.254994024374
  0
ARC
  5
A62
330
4E0
100
AcDbEntity
  8
image
100
AcDbCircle
 10
1.529585744069171
 20
7.596489405307128
 30
0.0
 40
0.1566980695398199
100
AcDbArc
 50
296.0563205359582
 51
25.25499402437389
  0
ARC
  5
A63
330
4E0
100
AcDbEntity
  8
image
100
AcDbCircle
 10
1.740136613943292
 20
7.522572555055816
 30
0.0
 40
0.1566980695398199
100
AcDbArc
 50
116.0563205359582
 51
205.254994024374
  0
LINE
  5
A64
330
4E0
100
AcDbEntity
  8
image
100
AcDbLine
 10
2.723970398723551
 20
5.81786352994125
 30
0.0
 11
2.723970398723551
 21
5.757320700455986
 31
0.0
  0
LINE
  5
A65
330
4E0
100
AcDbEntity
  8
image
100
AcDbLine
 10
2.709977016347409
 20
5.81786352994125
 30
0.0
 11
2.723970398723551
 21
5.81786352994125
 31
0.0
  0
LINE
  5
A66
330
4E0
100
AcDbEntity
  8
image
100
AcDbLine
 10
2.709977016347409
 20
5.862665223760346
 30
0.0
 11
2.709977016347409
 21
5.81786352994125
 31
0.0
  0
LINE
  5
A67
330
4E0
100
AcDbEntity
  8
image
100
AcDbLine
 10
2.723970398723551
 20
5.862665223760346
 30
0.0
 11
2.709977016347409
 21
5.862665223760346
 31
0.0
  0
LINE
  5
A68
330
4E0
100
AcDbEntity
  8
image
100
AcDbLine
 10
2.723970398723551
 20
5.757320700455986
 30
0.0
 11
2.669487706437507
 21
5.757320700455986
 31
0.0
  0
LINE
  5
A69
330
4E0
100
AcDbEntity
  8
image
100
AcDbLine
 10
2.723970398723551
 20
5.917153770297085
 30
0.0
 11
2.723970398723551
 21
5.862665223760346
 31
0.0
  0
LINE
  5
A6A
330
4E0
100
AcDbEntity
  8
image
100
AcDbLine
 10
2.669487706437507
 20
5.917153770297085
 30
0.0
 11
2.723970398723551
 21
5.917153770297085
 31
0.0
  0
ARC
  5
A6B
330
4E0
100
AcDbEntity
  8
image
100
AcDbCircle
 10
2.611854872134644
 20
5.835191873256199
 30
0.0
 40
0.2021270577682911
100
AcDbArc
 50
137.2096684487524
 51
222.7903315512476
  0
ARC
  5
A6C
330
4E0
100
AcDbEntity
  8
image
100
AcDbCircle
 10
2.641432234406778
 20
5.725938901680105
 30
0.0
 40
0.0280554720307238
100
AcDbArc
 50
270.0000000000004
 51
0.0
  0
ARC
  5
A6D
330
4E0
100
AcDbEntity
  8
image
100
AcDbCircle
 10
2.641432234406778
 20
5.944444844832291
 30
0.0
 40
0.0280554720307238
100
AcDbArc
 50
0.0
 51
90.0
  0
LINE
  5
A6E
330
4E0
100
AcDbEntity
  8
image
100
AcDbLine
 10
2.669487706437507
 20
5.944444844832291
 30
0.0
 11
2.669487706437507
 21
5.725938901680105
 31
0.0
  0
LINE
  5
A6F
330
4E0
100
AcDbEntity
  8
image
100
AcDbLine
 10
2.463525041027274
 20
5.69788342964938
 30
0.0
 11
2.641432234406776
 21
5.697883429649381
 31
0.0
  0
LINE
  5
A70
330
4E0
100
AcDbEntity
  8
image
100
AcDbLine
 10
2.463525041027274
 20
5.972500316863015
 30
0.0
 11
2.641432234406776
 21
5.972500316863015
 31
0.0
  0
LINE
  5
A71
330
4E0
100
AcDbEntity
  8
image
100
AcDbLine
 10
2.463525041027274
 20
6.850484873167767
 30
0.0
 11
2.051547255968339
 21
6.850484873167767
 31
0.0
  0
LINE
  5
A72
330
4E0
100
AcDbEntity
  8
image
100
AcDbLine
 10
2.051547255968339
 20
6.868841407423389
 30
0.0
 11
2.463525041027274
 21
6.868841407423389
 31
0.0
  0
LINE
  5
A73
330
4E0
100
AcDbEntity
  8
image
100
AcDbLine
 10
2.051547255968339
 20
6.893790855963269
 30
0.0
 11
2.051547255968339
 21
6.463261978316776
 31
0.0
  0
LINE
  5
A74
330
4E0
100
AcDbEntity
  8
image
100
AcDbLine
 10
2.463525041027274
 20
6.463261978316776
 30
0.0
 11
2.463525041027274
 21
5.972500316862999
 31
0.0
  0
LINE
  5
A75
330
4E0
100
AcDbEntity
  8
image
100
AcDbLine
 10
2.463525041027274
 20
6.893790855963269
 30
0.0
 11
2.463525041027274
 21
6.463261978316776
 31
0.0
  0
LINE
  5
A76
330
4E0
100
AcDbEntity
  8
image
100
AcDbLine
 10
2.051547255968339
 20
6.893790855963269
 30
0.0
 11
1.978471268082198
 21
6.893790855963269
 31
0.0
  0
LINE
  5
A77
330
4E0
100
AcDbEntity
  8
image
100
AcDbLine
 10
1.978471268082198
 20
6.893790855963269
 30
0.0
 11
1.978471268082198
 21
7.029736452209952
 31
0.0
  0
LINE
  5
A78
330
4E0
100
AcDbEntity
  8
image
100
AcDbLine
 10
1.978471268082198
 20
7.029736452209952
 30
0.0
 11
1.904109246663153
 21
7.029736452209952
 31
0.0
  0
LINE
  5
A79
330
4E0
100
AcDbEntity
  8
image
100
AcDbLine
 10
1.904109246663153
 20
7.029736452209952
 30
0.0
 11
1.904109246663153
 21
7.07624012662738
 31
0.0
  0
LINE
  5
A7A
330
4E0
100
AcDbEntity
  8
image
100
AcDbLine
 10
1.90410924666315
 20
7.029736452209949
 30
0.0
 11
1.978471268082198
 21
6.893790855963269
 31
0.0
  0
LINE
  5
A7B
330
4E0
100
AcDbEntity
  8
image
100
AcDbLine
 10
2.610963050332465
 20
7.029736452209949
 30
0.0
 11
2.53660102891342
 21
6.893790855963269
 31
0.0
  0
LINE
  5
A7C
330
4E0
100
AcDbEntity
  8
image
100
AcDbLine
 10
2.610963050332465
 20
7.029736452209952
 30
0.0
 11
2.610963050332465
 21
7.07624012662738
 31
0.0
  0
LINE
  5
A7D
330
4E0
100
AcDbEntity
  8
image
100
AcDbLine
 10
2.53660102891342
 20
7.029736452209952
 30
0.0
 11
2.610963050332465
 21
7.029736452209952
 31
0.0
  0
LINE
  5
A7E
330
4E0
100
AcDbEntity
  8
image
100
AcDbLine
 10
2.53660102891342
 20
6.893790855963269
 30
0.0
 11
2.53660102891342
 21
7.029736452209952
 31
0.0
  0
LINE
  5
A7F
330
4E0
100
AcDbEntity
  8
image
100
AcDbLine
 10
2.463525041027274
 20
6.893790855963269
 30
0.0
 11
2.53660102891342
 21
6.893790855963269
 31
0.0
  0
LINE
  5
A80
330
4E0
100
AcDbEntity
  8
image
100
AcDbLine
 10
1.904109246663153
 20
7.07624012662738
 30
0.0
 11
2.610963050332465
 21
7.07624012662738
 31
0.0
  0
LINE
  5
A81
330
4E0
100
AcDbEntity
  8
image
100
AcDbLine
 10
1.978471268082198
 20
7.029736452209952
 30
0.0
 11
2.53660102891342
 21
7.029736452209952
 31
0.0
  0
LINE
  5
A82
330
4E0
100
AcDbEntity
  8
image
100
AcDbLine
 10
2.051547255968339
 20
6.893790855963269
 30
0.0
 11
2.463525041027274
 21
6.893790855963269
 31
0.0
  0
LINE
  5
A83
330
4E0
100
AcDbEntity
  8
image
100
AcDbLine
 10
2.136490563597671
 20
7.029736452209952
 30
0.0
 11
2.136490563597671
 21
6.893790855963269
 31
0.0
  0
LINE
  5
A84
330
4E0
100
AcDbEntity
  8
image
100
AcDbLine
 10
2.173671574307197
 20
7.029736452209952
 30
0.0
 11
2.173671574307197
 21
6.893790855963269
 31
0.0
  0
LINE
  5
A85
330
4E0
100
AcDbEntity
  8
image
100
AcDbLine
 10
2.34579879147761
 20
7.029736452209952
 30
0.0
 11
2.34579879147761
 21
6.893790855963269
 31
0.0
  0
LINE
  5
A86
330
4E0
100
AcDbEntity
  8
image
100
AcDbLine
 10
2.384271714517044
 20
7.029736452209952
 30
0.0
 11
2.384271714517044
 21
6.893790855963269
 31
0.0
  0
LINE
  5
A87
330
4E0
100
AcDbEntity
  8
image
100
AcDbLine
 10
2.610963050332465
 20
7.07624012662738
 30
0.0
 11
3.701873743915651
 21
7.076240126627377
 31
0.0
  0
LINE
  5
A88
330
4E0
100
AcDbEntity
  8
image
100
AcDbLine
 10
1.904109246663157
 20
7.07624012662738
 30
0.0
 11
0.8501321940118202
 21
7.07624012662738
 31
0.0
  0
LINE
  5
A89
330
4E0
100
AcDbEntity
  8
image
100
AcDbLine
 10
2.051547255968339
 20
6.463261978316776
 30
0.0
 11
2.051547255968339
 21
3.590937837438432
 31
0.0
  0
LINE
  5
A8A
330
4E0
100
AcDbEntity
  8
image
100
AcDbLine
 10
2.051547255968339
 20
3.590937837438432
 30
0.0
 11
2.143286944318756
 21
3.467378267985504
 31
0.0
  0
LINE
  5
A8B
330
4E0
100
AcDbEntity
  8
image
100
AcDbLine
 10
2.147145323120323
 20
3.467378267985504
 30
0.0
 11
2.147145323120323
 21
3.590937837438432
 31
0.0
  0
LINE
  5
A8C
330
4E0
100
AcDbEntity
  8
image
100
AcDbLine
 10
2.051547255968339
 20
3.590937837438432
 30
0.0
 11
2.463525041027274
 21
3.590937837438432
 31
0.0
  0
LINE
  5
A8D
330
4E0
100
AcDbEntity
  8
image
100
AcDbLine
 10
2.463525041027274
 20
5.697883429649394
 30
0.0
 11
2.463525041027274
 21
3.467378267985504
 31
0.0
  0
LINE
  5
A8E
330
4E0
100
AcDbEntity
  8
image
100
AcDbLine
 10
2.366522727516768
 20
3.467378267985504
 30
0.0
 11
2.366522727516768
 21
3.590937837438432
 31
0.0
  0
LINE
  5
A8F
330
4E0
100
AcDbEntity
  8
image
100
AcDbLine
 10
2.266433514727118
 20
3.590937837438432
 30
0.0
 11
2.266433514727118
 21
3.467378267985504
 31
0.0
  0
LINE
  5
A90
330
4E0
100
AcDbEntity
  8
image
100
AcDbLine
 10
2.246336635782663
 20
3.590937837438432
 30
0.0
 11
2.246336635782663
 21
3.467378267985504
 31
0.0
  0
LINE
  5
A91
330
4E0
100
AcDbEntity
  8
image
100
AcDbLine
 10
2.143286944318756
 20
3.467378267985504
 30
0.0
 11
2.463525041027274
 21
3.467378267985504
 31
0.0
  0
TEXT
  5
AA0
330
4E0
100
AcDbEntity
  8
text_bubbles
100
AcDbText
 10
4.598981182500883
 20
4.859414172016236
 30
0.0
 40
0.125
  1
  WITH RAIN BIRD ROTARY NOZZLE
  7
ROMANS
100
AcDbText
  0
TEXT
  5
B8C
330
4E0
100
AcDbEntity
  8
text_leaders
100
AcDbText
 10
4.598981182500883
 20
4.859414172016236
 30
0.0
 40
0.125
  1
  WITH RAIN BIRD ROTARY NOZZLE
  7
ROMANS
100
AcDbText
  0
ARC
  5
BF8
330
4E0
100
AcDbEntity
  8
image
100
AcDbCircle
 10
2.257536148497805
 20
6.915485052379811
 30
0.0
 40
0.2165783160917459
100
AcDbArc
 50
47.92336398940312
 51
132.0766360105968
  0
ENDSEC
  0
SECTION
  2
OBJECTS
  0
DICTIONARY
  5
4CE
330
0
100
AcDbDictionary
281
     1
  3
ACAD_COLOR
350
AD5
  3
ACAD_GROUP
350
4CF
  3
ACAD_LAYOUT
350
4DB
  3
ACAD_MATERIAL
350
AAB
  3
ACAD_MLEADERSTYLE
350
AFA
  3
ACAD_MLINESTYLE
350
4D8
  3
ACAD_PLOTSETTINGS
350
4DA
  3
ACAD_PLOTSTYLENAME
350
4D0
  3
ACAD_SCALELIST
350
AD8
  3
ACAD_TABLESTYLE
350
AD6
  3
ACAD_VISUALSTYLE
350
AC4
  3
ACDB_RECOMPOSE_DATA
350
C06
  3
AcDbVariableDictionary
350
513
  3
AEC_PROPERTY_SET_DEFS
350
BF6
1001
BBSI_PltSel
1000
1
1000

1001
BBSI_Plots
1000

1000
User123
1000
215.900009155273
1000
279.399993896484
1000
1
1000
4
1000
0
1000
0
1000
0
1000
1
1000
0
1000
1
1000
0.937902254691744
1000
0
1000
1
1000
8500ColorShaded.ctb
1000
0
1000
0
1000
1
1000
1
1000
0
1000
0
1000
-0.173475060286933
1000
-0.113004309723415
1000
16.4526767903455
1000
10.3778840088505
1000

1000

1001
BBSI_Bookmarks
1000
1
1000
1
1000
0
1000
1
1000
0
1000
0
1000
0
1000
0
1000
0
1000
0
1000
0
  0
DICTIONARY
  5
51F
330
4C4
100
AcDbDictionary
280
     1
281
     1
  3
ACAD_LAYERFILTERS
360
C14
  3
ACAD_LAYERSTATES
360
520
  0
DICTIONARY
  5
AD5
102
{ACAD_REACTORS
330
4CE
102
}
330
4CE
100
AcDbDictionary
281
     1
  0
DICTIONARY
  5
4CF
102
{ACAD_REACTORS
330
4CE
102
}
330
4CE
100
AcDbDictionary
281
     1
  0
DICTIONARY
  5
4DB
102
{ACAD_REACTORS
330
4CE
102
}
330
4CE
100
AcDbDictionary
281
     1
  3
Layout1
350
4DF
  3
Model
350
4E3
  0
DICTIONARY
  5
AAB
102
{ACAD_REACTORS
330
4CE
102
}
330
4CE
100
AcDbDictionary
281
     1
  3
ByBlock
350
AB4
  3
ByLayer
350
AAC
  3
Global
350
ABC
  0
DICTIONARY
  5
AFA
102
{ACAD_REACTORS
330
4CE
102
}
330
4CE
100
AcDbDictionary
281
     1
  3
Standard
350
BF1
  0
DICTIONARY
  5
4D8
102
{ACAD_REACTORS
330
4CE
102
}
330
4CE
100
AcDbDictionary
281
     1
  3
Standard
350
4D9
  0
DICTIONARY
  5
4DA
102
{ACAD_REACTORS
330
4CE
102
}
330
4CE
100
AcDbDictionary
281
     1
  0
ACDBDICTIONARYWDFLT
  5
4D0
102
{ACAD_REACTORS
330
4CE
102
}
330
4CE
100
AcDbDictionary
281
     1
  3
Normal
350
4D1
100
AcDbDictionaryWithDefault
340
4D1
  0
DICTIONARY
  5
AD8
102
{ACAD_REACTORS
330
4CE
102
}
330
4CE
100
AcDbDictionary
281
     1
  3
A0
350
AD9
  3
A1
350
C20
  3
A2
350
C21
  3
A3
350
C22
  3
A4
350
C23
  3
A5
350
C24
  3
A6
350
C25
  3
A7
350
C26
  3
A8
350
C27
  3
A9
350
C28
  3
B0
350
C29
  3
B1
350
C2A
  3
B2
350
C2B
  3
B3
350
C2C
  3
B4
350
C2D
  3
B5
350
C2E
  3
B6
350
C2F
  3
B7
350
C30
  3
B8
350
C31
  3
B9
350
C32
  3
C0
350
C33
  3
C1
350
C34
  3
C2
350
C35
  3
C3
350
C36
  3
C4
350
C37
  3
C5
350
C38
  3
C6
350
C39
  3
C7
350
C3A
  3
C8
350
C3B
  3
C9
350
C3C
  3
D0
350
C3D
  3
D1
350
C3E
  3
D2
350
C3F
  0
DICTIONARY
  5
AD6
102
{ACAD_REACTORS
330
4CE
102
}
330
4CE
100
AcDbDictionary
281
     1
  3
Standard
350
AD7
  0
DICTIONARY
  5
AC4
102
{ACAD_REACTORS
330
4CE
102
}
330
4CE
100
AcDbDictionary
281
     1
  3
2dWireframe
350
ACA
  3
3D Hidden
350
ACC
  3
3dWireframe
350
ACB
  3
Basic
350
AC9
  3
Brighten
350
AD0
  3
ColorChange
350
AD4
  3
Conceptual
350
ACD
  3
Dim
350
ACF
  3
Facepattern
350
AD3
  3
Flat
350
AC5
  3
FlatWithEdges
350
AC6
  3
Gouraud
350
AC7
  3
GouraudWithEdges
350
AC8
  3
Linepattern
350
AD2
  3
Realistic
350
ACE
  3
Thicken
350
AD1
  0
XRECORD
  5
C06
102
{ACAD_REACTORS
330
4CE
102
}
330
4CE
100
AcDbXrecord
280
     1
 90
        1
330
AD7
  0
DICTIONARY
  5
513
102
{ACAD_REACTORS
330
4CE
102
}
330
4CE
100
AcDbDictionary
281
     1
  3
CANNOSCALE
350
C09
  3
CMLEADERSTYLE
350
C40
  3
CTABLESTYLE
350
C07
  3
DIMASSOC
350
516
  3
HIDETEXT
350
515
  3
LAYEREVAL
350
C0B
  3
LIGHTINGUNITS
350
C0A
  3
MSLTSCALE
350
C08
  3
SORTENTS
350
514
  0
DICTIONARY
  5
BF6
102
{ACAD_REACTORS
330
4CE
102
}
330
4CE
100
AcDbDictionary
281
     1
  0
DICTIONARY
  5
C14
102
{ACAD_REACTORS
330
51F
102
}
330
51F
100
AcDbDictionary
281
     1
  3
_0100-
350
C17
  3
_0280-
350
C16
  3
_Color 253
350
C1A
  3
_Color 8
350
C18
  3
_Color 84
350
C19
  3
_Contours
350
C1F
  3
_Existing
350
C1B
  3
_Hardscape
350
C1E
  3
_NoXref
350
C15
  3
_Row
350
C1C
  3
_Utility
350
C1D
  0
DICTIONARY
  5
520
102
{ACAD_REACTORS
330
51F
102
}
330
51F
100
AcDbDictionary
281
     1
  0
LAYOUT
  5
4DF
102
{ACAD_REACTORS
330
4DB
102
}
330
4DB
100
AcDbPlotSettings
  1

  2
S:\AutoCAD 2002\Plotters\1055B&WDraftShaded.pc3
  4

  6

 40
0.0
 41
0.0
 42
0.0
 43
0.0
 44
0.0
 45
0.0
 46
0.0
 47
0.0
 48
0.0
 49
0.0
140
0.0
141
0.0
142
1.0
143
1.0
 70
   688
 72
     0
 73
     0
 74
     5
  7
8500ColorShaded.ctb
 75
    16
147
1.0
 76
     0
 77
     2
 78
   300
148
0.0
149
0.0
100
AcDbLayout
  1
Layout1
 70
     1
 71
     1
 10
0.0
 20
0.0
 11
12.0
 21
9.0
 12
0.0
 22
0.0
 32
0.0
 14
1.000000000000000E+20
 24
1.000000000000000E+20
 34
1.000000000000000E+20
 15
-1.000000000000000E+20
 25
-1.000000000000000E+20
 35
-1.000000000000000E+20
146
0.0
 13
0.0
 23
0.0
 33
0.0
 16
1.0
 26
0.0
 36
0.0
 17
0.0
 27
1.0
 37
0.0
 76
     0
330
4DC
  0
LAYOUT
  5
4E3
102
{ACAD_REACTORS
330
4DB
102
}
330
4DB
100
AcDbPlotSettings
  1

  2
8500ColorShaded.pc3
  4
Letter
  6

 40
5.027082920074462
 41
5.027070522308349
 42
5.027099609375
 43
5.027084350585937
 44
279.3999938964844
 45
215.8999938964844
 46
0.0
 47
0.0
 48
7.663858036417532
 49
-3.090597652711787
140
15.26477396019783
141
5.07064620808942
142
1.0
143
1.007042916425404
 70
 11952
 72
     0
 73
     0
 74
     4
  7
8500ColorShaded.ctb
 75
     0
147
0.9930063393421161
 76
     0
 77
     2
 78
   300
148
-194.6619941250053
149
78.5011803788794
100
AcDbLayout
  1
Model
 70
     1
 71
     0
 10
0.0
 20
0.0
 11
12.0
 21
9.0
 12
0.0
 22
0.0
 32
0.0
 14
0.0
 24
0.0
 34
0.0
 15
0.0
 25
0.0
 35
0.0
146
0.0
 13
0.0
 23
0.0
 33
0.0
 16
1.0
 26
0.0
 36
0.0
 17
0.0
 27
1.0
 37
0.0
 76
     0
330
4E0
331
AA9
1001
ACAD_PSEXT
1000
8500ColorShaded.pc3
1000
HP Color LaserJet 8500 PS
1000
BACK
1000

1070
     0
  0
MATERIAL
  5
AB4
102
{ACAD_XDICTIONARY
360
AB5
102
}
102
{ACAD_REACTORS
330
AAB
102
}
330
AAB
100
AcDbMaterial
  1
ByBlock
 72
     0
 43
0.0208333333333333
 43
0.0
 43
0.0
 43
0.0
 43
0.0
 43
0.0208333333333333
 43
0.0
 43
0.0
 43
0.0
 43
0.0
 43
1.0
 43
0.0
 43
0.0
 43
0.0
 43
0.0
 43
1.0
 77
     0
 47
0.0208333333333333
 47
0.0
 47
0.0
 47
0.0
 47
0.0
 47
0.0208333333333333
 47
0.0
 47
0.0
 47
0.0
 47
0.0
 47
1.0
 47
0.0
 47
0.0
 47
0.0
 47
0.0
 47
1.0
171
     0
 49
0.0208333333333333
 49
0.0
 49
0.0
 49
0.0
 49
0.0
 49
0.0208333333333333
 49
0.0
 49
0.0
 49
0.0
 49
0.0
 49
1.0
 49
0.0
 49
0.0
 49
0.0
 49
0.0
 49
1.0
175
     0
142
0.0208333333333333
142
0.0
142
0.0
142
0.0
142
0.0
142
0.0208333333333333
142
0.0
142
0.0
142
0.0
142
0.0
142
1.0
142
0.0
142
0.0
142
0.0
142
0.0
142
1.0
179
     0
144
0.0208333333333333
144
0.0
144
0.0
144
0.0
144
0.0
144
0.0208333333333333
144
0.0
144
0.0
144
0.0
144
0.0
144
1.0
144
0.0
144
0.0
144
0.0
144
0.0
144
1.0
147
0.0208333333333333
147
0.0
147
0.0
147
0.0
147
0.0
147
0.0208333333333333
147
0.0
147
0.0
147
0.0
147
0.0
147
1.0
147
0.0
147
0.0
147
0.0
147
0.0
147
1.0
  0
MATERIAL
  5
AAC
102
{ACAD_XDICTIONARY
360
AAD
102
}
102
{ACAD_REACTORS
330
AAB
102
}
330
AAB
100
AcDbMaterial
  1
ByLayer
 72
     0
 43
0.0208333333333333
 43
0.0
 43
0.0
 43
0.0
 43
0.0
 43
0.0208333333333333
 43
0.0
 43
0.0
 43
0.0
 43
0.0
 43
1.0
 43
0.0
 43
0.0
 43
0.0
 43
0.0
 43
1.0
 77
     0
 47
0.0208333333333333
 47
0.0
 47
0.0
 47
0.0
 47
0.0
 47
0.0208333333333333
 47
0.0
 47
0.0
 47
0.0
 47
0.0
 47
1.0
 47
0.0
 47
0.0
 47
0.0
 47
0.0
 47
1.0
171
     0
 49
0.0208333333333333
 49
0.0
 49
0.0
 49
0.0
 49
0.0
 49
0.0208333333333333
 49
0.0
 49
0.0
 49
0.0
 49
0.0
 49
1.0
 49
0.0
 49
0.0
 49
0.0
 49
0.0
 49
1.0
175
     0
142
0.0208333333333333
142
0.0
142
0.0
142
0.0
142
0.0
142
0.0208333333333333
142
0.0
142
0.0
142
0.0
142
0.0
142
1.0
142
0.0
142
0.0
142
0.0
142
0.0
142
1.0
179
     0
144
0.0208333333333333
144
0.0
144
0.0
144
0.0
144
0.0
144
0.0208333333333333
144
0.0
144
0.0
144
0.0
144
0.0
144
1.0
144
0.0
144
0.0
144
0.0
144
0.0
144
1.0
147
0.0208333333333333
147
0.0
147
0.0
147
0.0
147
0.0
147
0.0208333333333333
147
0.0
147
0.0
147
0.0
147
0.0
147
1.0
147
0.0
147
0.0
147
0.0
147
0.0
147
1.0
  0
MATERIAL
  5
ABC
102
{ACAD_XDICTIONARY
360
ABD
102
}
102
{ACAD_REACTORS
330
AAB
102
}
330
AAB
100
AcDbMaterial
  1
Global
 72
     0
 43
0.0208333333333333
 43
0.0
 43
0.0
 43
0.0
 43
0.0
 43
0.0208333333333333
 43
0.0
 43
0.0
 43
0.0
 43
0.0
 43
1.0
 43
0.0
 43
0.0
 43
0.0
 43
0.0
 43
1.0
 77
     0
 47
0.0208333333333333
 47
0.0
 47
0.0
 47
0.0
 47
0.0
 47
0.0208333333333333
 47
0.0
 47
0.0
 47
0.0
 47
0.0
 47
1.0
 47
0.0
 47
0.0
 47
0.0
 47
0.0
 47
1.0
171
     0
 49
0.0208333333333333
 49
0.0
 49
0.0
 49
0.0
 49
0.0
 49
0.0208333333333333
 49
0.0
 49
0.0
 49
0.0
 49
0.0
 49
1.0
 49
0.0
 49
0.0
 49
0.0
 49
0.0
 49
1.0
175
     0
142
0.0208333333333333
142
0.0
142
0.0
142
0.0
142
0.0
142
0.0208333333333333
142
0.0
142
0.0
142
0.0
142
0.0
142
1.0
142
0.0
142
0.0
142
0.0
142
0.0
142
1.0
179
     0
144
0.0208333333333333
144
0.0
144
0.0
144
0.0
144
0.0
144
0.0208333333333333
144
0.0
144
0.0
144
0.0
144
0.0
144
1.0
144
0.0
144
0.0
144
0.0
144
0.0
144
1.0
147
0.0208333333333333
147
0.0
147
0.0
147
0.0
147
0.0
147
0.0208333333333333
147
0.0
147
0.0
147
0.0
147
0.0
147
1.0
147
0.0
147
0.0
147
0.0
147
0.0
147
1.0
  0
MLEADERSTYLE
  5
BF1
102
{ACAD_REACTORS
330
AFA
102
}
330
AFA
100
AcDbMLeaderStyle
170
     2
171
     1
172
     0
 90
        2
 40
0.0
 41
0.0
173
     1
 91
-1056964608
340
4D5
 92
       -2
290
     1
 42
0.09
291
     1
 43
0.36
  3
Standard
 44
0.18
300

342
4D3
174
     1
178
     6
175
     1
176
     0
 93
-1056964608
 45
0.18
292
     0
297
     0
 46
0.18
 94
-1056964608
 47
1.0
 49
1.0
140
1.0
293
     1
141
0.0
294
     1
177
     0
142
1.0
295
     0
296
     0
143
0.125
1001
ACAD_MLEADERVER
1070
     2
  0
MLINESTYLE
  5
4D9
102
{ACAD_REACTORS
330
4D8
102
}
330
4D8
100
AcDbMlineStyle
  2
STANDARD
 70
     0
  3

 62
   256
 51
90.0
 52
90.0
 71
     2
 49
0.5
 62
   256
  6
BYLAYER
 49
-0.5
 62
   256
  6
BYLAYER
  0
ACDBPLACEHOLDER
  5
4D1
102
{ACAD_REACTORS
330
4D0
102
}
330
4D0
  0
SCALE
  5
AD9
102
{ACAD_REACTORS
330
AD8
102
}
330
AD8
100
AcDbScale
 70
     0
300
1:1
140
1.0
141
1.0
290
     1
  0
SCALE
  5
C20
102
{ACAD_REACTORS
330
AD8
102
}
330
AD8
100
AcDbScale
 70
     0
300
1:2
140
1.0
141
2.0
290
     0
  0
SCALE
  5
C21
102
{ACAD_REACTORS
330
AD8
102
}
330
AD8
100
AcDbScale
 70
     0
300
1:4
140
1.0
141
4.0
290
     0
  0
SCALE
  5
C22
102
{ACAD_REACTORS
330
AD8
102
}
330
AD8
100
AcDbScale
 70
     0
300
1:5
140
1.0
141
5.0
290
     0
  0
SCALE
  5
C23
102
{ACAD_REACTORS
330
AD8
102
}
330
AD8
100
AcDbScale
 70
     0
300
1:8
140
1.0
141
8.0
290
     0
  0
SCALE
  5
C24
102
{ACAD_REACTORS
330
AD8
102
}
330
AD8
100
AcDbScale
 70
     0
300
1:10
140
1.0
141
10.0
290
     0
  0
SCALE
  5
C25
102
{ACAD_REACTORS
330
AD8
102
}
330
AD8
100
AcDbScale
 70
     0
300
1:16
140
1.0
141
16.0
290
     0
  0
SCALE
  5
C26
102
{ACAD_REACTORS
330
AD8
102
}
330
AD8
100
AcDbScale
 70
     0
300
1:20
140
1.0
141
20.0
290
     0
  0
SCALE
  5
C27
102
{ACAD_REACTORS
330
AD8
102
}
330
AD8
100
AcDbScale
 70
     0
300
1:30
140
1.0
141
30.0
290
     0
  0
SCALE
  5
C28
102
{ACAD_REACTORS
330
AD8
102
}
330
AD8
100
AcDbScale
 70
     0
300
1:40
140
1.0
141
40.0
290
     0
  0
SCALE
  5
C29
102
{ACAD_REACTORS
330
AD8
102
}
330
AD8
100
AcDbScale
 70
     0
300
1:50
140
1.0
141
50.0
290
     0
  0
SCALE
  5
C2A
102
{ACAD_REACTORS
330
AD8
102
}
330
AD8
100
AcDbScale
 70
     0
300
1:100
140
1.0
141
100.0
290
     0
  0
SCALE
  5
C2B
102
{ACAD_REACTORS
330
AD8
102
}
330
AD8
100
AcDbScale
 70
     0
300
2:1
140
2.0
141
1.0
290
     0
  0
SCALE
  5
C2C
102
{ACAD_REACTORS
330
AD8
102
}
330
AD8
100
AcDbScale
 70
     0
300
4:1
140
4.0
141
1.0
290
     0
  0
SCALE
  5
C2D
102
{ACAD_REACTORS
330
AD8
102
}
330
AD8
100
AcDbScale
 70
     0
300
8:1
140
8.0
141
1.0
290
     0
  0
SCALE
  5
C2E
102
{ACAD_REACTORS
330
AD8
102
}
330
AD8
100
AcDbScale
 70
     0
300
10:1
140
10.0
141
1.0
290
     0
  0
SCALE
  5
C2F
102
{ACAD_REACTORS
330
AD8
102
}
330
AD8
100
AcDbScale
 70
     0
300
100:1
140
100.0
141
1.0
290
     0
  0
SCALE
  5
C30
102
{ACAD_REACTORS
330
AD8
102
}
330
AD8
100
AcDbScale
 70
     0
300
1/128" = 1'-0"
140
0.0078125
141
12.0
290
     0
  0
SCALE
  5
C31
102
{ACAD_REACTORS
330
AD8
102
}
330
AD8
100
AcDbScale
 70
     0
300
1/64" = 1'-0"
140
0.015625
141
12.0
290
     0
  0
SCALE
  5
C32
102
{ACAD_REACTORS
330
AD8
102
}
330
AD8
100
AcDbScale
 70
     0
300
1/32" = 1'-0"
140
0.03125
141
12.0
290
     0
  0
SCALE
  5
C33
102
{ACAD_REACTORS
330
AD8
102
}
330
AD8
100
AcDbScale
 70
     0
300
1/16" = 1'-0"
140
0.0625
141
12.0
290
     0
  0
SCALE
  5
C34
102
{ACAD_REACTORS
330
AD8
102
}
330
AD8
100
AcDbScale
 70
     0
300
3/32" = 1'-0"
140
0.09375
141
12.0
290
     0
  0
SCALE
  5
C35
102
{ACAD_REACTORS
330
AD8
102
}
330
AD8
100
AcDbScale
 70
     0
300
1/8" = 1'-0"
140
0.125
141
12.0
290
     0
  0
SCALE
  5
C36
102
{ACAD_REACTORS
330
AD8
102
}
330
AD8
100
AcDbScale
 70
     0
300
3/16" = 1'-0"
140
0.1875
141
12.0
290
     0
  0
SCALE
  5
C37
102
{ACAD_REACTORS
330
AD8
102
}
330
AD8
100
AcDbScale
 70
     0
300
1/4" = 1'-0"
140
0.25
141
12.0
290
     0
  0
SCALE
  5
C38
102
{ACAD_REACTORS
330
AD8
102
}
330
AD8
100
AcDbScale
 70
     0
300
3/8" = 1'-0"
140
0.375
141
12.0
290
     0
  0
SCALE
  5
C39
102
{ACAD_REACTORS
330
AD8
102
}
330
AD8
100
AcDbScale
 70
     0
300
1/2" = 1'-0"
140
0.5
141
12.0
290
     0
  0
SCALE
  5
C3A
102
{ACAD_REACTORS
330
AD8
102
}
330
AD8
100
AcDbScale
 70
     0
300
3/4" = 1'-0"
140
0.75
141
12.0
290
     0
  0
SCALE
  5
C3B
102
{ACAD_REACTORS
330
AD8
102
}
330
AD8
100
AcDbScale
 70
     0
300
1" = 1'-0"
140
1.0
141
12.0
290
     0
  0
SCALE
  5
C3C
102
{ACAD_REACTORS
330
AD8
102
}
330
AD8
100
AcDbScale
 70
     0
300
1-1/2" = 1'-0"
140
1.5
141
12.0
290
     0
  0
SCALE
  5
C3D
102
{ACAD_REACTORS
330
AD8
102
}
330
AD8
100
AcDbScale
 70
     0
300
3" = 1'-0"
140
3.0
141
12.0
290
     0
  0
SCALE
  5
C3E
102
{ACAD_REACTORS
330
AD8
102
}
330
AD8
100
AcDbScale
 70
     0
300
6" = 1'-0"
140
6.0
141
12.0
290
     0
  0
SCALE
  5
C3F
102
{ACAD_REACTORS
330
AD8
102
}
330
AD8
100
AcDbScale
 70
     0
300
1'-0" = 1'-0"
140
12.0
141
12.0
290
     0
  0
TABLESTYLE
  5
AD7
102
{ACAD_XDICTIONARY
360
C04
102
}
102
{ACAD_REACTORS
330
AD6
102
}
330
AD6
100
AcDbTableStyle
  3
Standard
 70
     0
 71
     0
 40
0.06
 41
0.06
280
     0
281
     0
  7
STANDARD
140
0.18
170
     2
 62
     0
 63
     7
283
     0
274
    -2
284
     1
 64
     0
275
    -2
285
     1
 65
     0
276
    -2
286
     1
 66
     0
277
    -2
287
     1
 67
     0
278
    -2
288
     1
 68
     0
279
    -2
289
     1
 69
     0
  7
STANDARD
140
0.25
170
     5
 62
     0
 63
     7
283
     0
274
    -2
284
     1
 64
     0
275
    -2
285
     1
 65
     0
276
    -2
286
     1
 66
     0
277
    -2
287
     1
 67
     0
278
    -2
288
     1
 68
     0
279
    -2
289
     1
 69
     0
  7
STANDARD
140
0.18
170
     5
 62
     0
 63
     7
283
     0
274
    -2
284
     1
 64
     0
275
    -2
285
     1
 65
     0
276
    -2
286
     1
 66
     0
277
    -2
287
     1
 67
     0
278
    -2
288
     1
 68
     0
279
    -2
289
     1
 69
     0
  0
VISUALSTYLE
  5
ACA
102
{ACAD_REACTORS
330
AC4
102
}
330
AC4
100
AcDbVisualStyle
  2
2dWireframe
 70
     4
 71
     0
 72
     2
 73
     0
 90
        0
 40
-0.6
 41
-30.0
 62
     5
 63
     7
421
 16777215
 74
     1
 91
        4
 64
     7
 65
   257
 75
     1
175
     1
 42
1.0
 92
        0
 66
   257
 43
1.0
 76
     1
 77
     6
 78
     2
 67
     7
 79
     5
170
     0
171
     0
290
     0
174
     0
 93
        1
 44
0.0
173
     0
291
     0
 45
0.0
1001
ACAD
1000
AcDbSavedByObjectVersion
1070
     0
  0
VISUALSTYLE
  5
ACC
102
{ACAD_REACTORS
330
AC4
102
}
330
AC4
100
AcDbVisualStyle
  2
3D Hidden
 70
     6
 71
     1
 72
     2
 73
     2
 90
        0
 40
-0.6
 41
-30.0
 62
     5
 63
     7
421
 16777215
 74
     2
 91
        2
 64
     7
 65
   257
 75
     2
175
     1
 42
40.0
 92
        0
 66
   257
 43
1.0
 76
     1
 77
     6
 78
     2
 67
     7
 79
     3
170
     0
171
     0
290
     0
174
     0
 93
        1
 44
0.0
173
     0
291
     0
 45
0.0
1001
ACAD
1000
AcDbSavedByObjectVersion
1070
     0
  0
VISUALSTYLE
  5
ACB
102
{ACAD_REACTORS
330
AC4
102
}
330
AC4
100
AcDbVisualStyle
  2
3dWireframe
 70
     5
 71
     0
 72
     2
 73
     0
 90
        0
 40
-0.6
 41
-30.0
 62
     5
 63
     7
421
 16777215
 74
     1
 91
        4
 64
     7
 65
   257
 75
     1
175
     1
 42
1.0
 92
        0
 66
   257
 43
1.0
 76
     1
 77
     6
 78
     2
 67
     7
 79
     5
170
     0
171
     0
290
     0
174
     0
 93
        1
 44
0.0
173
     0
291
     0
 45
0.0
1001
ACAD
1000
AcDbSavedByObjectVersion
1070
     0
  0
VISUALSTYLE
  5
AC9
102
{ACAD_REACTORS
330
AC4
102
}
330
AC4
100
AcDbVisualStyle
  2
Basic
 70
     7
 71
     1
 72
     0
 73
     1
 90
        0
 40
-0.6
 41
-30.0
 62
     5
 63
     7
421
 16777215
 74
     0
 91
        4
 64
     7
 65
   257
 75
     1
175
     1
 42
1.0
 92
        8
 66
     7
 43
1.0
 76
     1
 77
     6
 78
     2
 67
     7
 79
     5
170
     0
171
     0
290
     0
174
     0
 93
        1
 44
0.0
173
     0
291
     1
 45
0.0
1001
ACAD
1000
AcDbSavedByObjectVersion
1070
     0
  0
VISUALSTYLE
  5
AD0
102
{ACAD_REACTORS
330
AC4
102
}
330
AC4
100
AcDbVisualStyle
  2
Brighten
 70
    12
 71
     2
 72
     2
 73
     0
 90
        0
 40
-0.6
 41
-30.0
 62
     5
 63
     7
421
 16777215
 74
     1
 91
        4
 64
     7
 65
   257
 75
     1
175
     1
 42
1.0
 92
        8
 66
     7
 43
1.0
 76
     1
 77
     6
 78
     2
 67
     7
 79
     5
170
     0
171
     0
290
     0
174
     0
 93
        1
 44
50.0
173
     0
291
     1
 45
0.0
1001
ACAD
1000
AcDbSavedByObjectVersion
1070
     0
  0
VISUALSTYLE
  5
AD4
102
{ACAD_REACTORS
330
AC4
102
}
330
AC4
100
AcDbVisualStyle
  2
ColorChange
 70
    16
 71
     2
 72
     2
 73
     3
 90
        0
 40
-0.6
 41
-30.0
 62
     5
 63
     8
421
  8421504
 74
     1
 91
        4
 64
     7
 65
   257
 75
     1
175
     1
 42
1.0
 92
        8
 66
     8
424
  8421504
 43
1.0
 76
     1
 77
     6
 78
     2
 67
     7
 79
     5
170
     0
171
     0
290
     0
174
     0
 93
        1
 44
0.0
173
     0
291
     1
 45
0.0
1001
ACAD
1000
AcDbSavedByObjectVersion
1070
     0
  0
VISUALSTYLE
  5
ACD
102
{ACAD_REACTORS
330
AC4
102
}
330
AC4
100
AcDbVisualStyle
  2
Conceptual
 70
     9
 71
     3
 72
     2
 73
     0
 90
        0
 40
-0.6
 41
-30.0
 62
     5
 63
     7
421
 16777215
 74
     2
 91
        2
 64
     7
 65
   257
 75
     1
175
     1
 42
40.0
 92
        8
 66
     7
 43
1.0
 76
     1
 77
     6
 78
     2
 67
     7
 79
     3
170
     0
171
     0
290
     0
174
     0
 93
        1
 44
0.0
173
     0
291
     0
 45
0.0
1001
ACAD
1000
AcDbSavedByObjectVersion
1070
     0
  0
VISUALSTYLE
  5
ACF
102
{ACAD_REACTORS
330
AC4
102
}
330
AC4
100
AcDbVisualStyle
  2
Dim
 70
    11
 71
     2
 72
     2
 73
     0
 90
        0
 40
-0.6
 41
-30.0
 62
     5
 63
     7
421
 16777215
 74
     1
 91
        4
 64
     7
 65
   257
 75
     1
175
     1
 42
1.0
 92
        8
 66
     7
 43
1.0
 76
     1
 77
     6
 78
     2
 67
     7
 79
     5
170
     0
171
     0
290
     0
174
     0
 93
        1
 44
-50.0
173
     0
291
     1
 45
0.0
1001
ACAD
1000
AcDbSavedByObjectVersion
1070
     0
  0
VISUALSTYLE
  5
AD3
102
{ACAD_REACTORS
330
AC4
102
}
330
AC4
100
AcDbVisualStyle
  2
Facepattern
 70
    15
 71
     2
 72
     2
 73
     0
 90
        0
 40
-0.6
 41
-30.0
 62
     5
 63
     7
421
 16777215
 74
     1
 91
        4
 64
     7
 65
   257
 75
     1
175
     1
 42
1.0
 92
        8
 66
     7
 43
1.0
 76
     1
 77
     6
 78
     2
 67
     7
 79
     5
170
     0
171
     0
290
     0
174
     0
 93
        1
 44
0.0
173
     0
291
     1
 45
0.0
1001
ACAD
1000
AcDbSavedByObjectVersion
1070
     0
  0
VISUALSTYLE
  5
AC5
102
{ACAD_REACTORS
330
AC4
102
}
330
AC4
100
AcDbVisualStyle
  2
Flat
 70
     0
 71
     2
 72
     1
 73
     1
 90
        2
 40
-0.6
 41
30.0
 62
     5
 63
     7
421
 16777215
 74
     0
 91
        4
 64
     7
 65
   257
 75
     1
175
     1
 42
1.0
 92
        8
 66
     7
 43
1.0
 76
     1
 77
     6
 78
     2
 67
     7
 79
     5
170
     0
171
     0
290
     0
174
     0
 93
       13
 44
0.0
173
     0
291
     1
 45
0.0
1001
ACAD
1000
AcDbSavedByObjectVersion
1070
     0
  0
VISUALSTYLE
  5
AC6
102
{ACAD_REACTORS
330
AC4
102
}
330
AC4
100
AcDbVisualStyle
  2
FlatWithEdges
 70
     1
 71
     2
 72
     1
 73
     1
 90
        2
 40
-0.6
 41
30.0
 62
     5
 63
     7
421
 16777215
 74
     1
 91
        4
 64
     7
 65
   257
 75
     1
175
     1
 42
1.0
 92
        0
 66
   257
 43
1.0
 76
     1
 77
     6
 78
     2
 67
     7
 79
     5
170
     0
171
     0
290
     0
174
     0
 93
       13
 44
0.0
173
     0
291
     1
 45
0.0
1001
ACAD
1000
AcDbSavedByObjectVersion
1070
     0
  0
VISUALSTYLE
  5
AC7
102
{ACAD_REACTORS
330
AC4
102
}
330
AC4
100
AcDbVisualStyle
  2
Gouraud
 70
     2
 71
     2
 72
     2
 73
     1
 90
        2
 40
-0.6
 41
30.0
 62
     5
 63
     7
421
 16777215
 74
     0
 91
        4
 64
     7
 65
   257
 75
     1
175
     1
 42
1.0
 92
        0
 66
     7
 43
1.0
 76
     1
 77
     6
 78
     2
 67
     7
 79
     5
170
     0
171
     0
290
     0
174
     0
 93
       13
 44
0.0
173
     0
291
     1
 45
0.0
1001
ACAD
1000
AcDbSavedByObjectVersion
1070
     0
  0
VISUALSTYLE
  5
AC8
102
{ACAD_REACTORS
330
AC4
102
}
330
AC4
100
AcDbVisualStyle
  2
GouraudWithEdges
 70
     3
 71
     2
 72
     2
 73
     1
 90
        2
 40
-0.6
 41
30.0
 62
     5
 63
     7
421
 16777215
 74
     1
 91
        4
 64
     7
 65
   257
 75
     1
175
     1
 42
1.0
 92
        0
 66
   257
 43
1.0
 76
     1
 77
     6
 78
     2
 67
     7
 79
     5
170
     0
171
     0
290
     0
174
     0
 93
       13
 44
0.0
173
     0
291
     1
 45
0.0
1001
ACAD
1000
AcDbSavedByObjectVersion
1070
     0
  0
VISUALSTYLE
  5
AD2
102
{ACAD_REACTORS
330
AC4
102
}
330
AC4
100
AcDbVisualStyle
  2
Linepattern
 70
    14
 71
     2
 72
     2
 73
     0
 90
        0
 40
-0.6
 41
-30.0
 62
     5
 63
     7
421
 16777215
 74
     1
 91
        4
 64
     7
 65
   257
 75
     7
175
     7
 42
1.0
 92
        8
 66
     7
 43
1.0
 76
     1
 77
     6
 78
     2
 67
     7
 79
     5
170
     0
171
     0
290
     0
174
     0
 93
        1
 44
0.0
173
     0
291
     1
 45
0.0
1001
ACAD
1000
AcDbSavedByObjectVersion
1070
     0
  0
VISUALSTYLE
  5
ACE
102
{ACAD_REACTORS
330
AC4
102
}
330
AC4
100
AcDbVisualStyle
  2
Realistic
 70
     8
 71
     2
 72
     2
 73
     0
 90
        0
 40
-0.6
 41
-30.0
 62
     5
 63
     7
421
 16777215
 74
     1
 91
        0
 64
     7
 65
   257
 75
     1
175
     1
 42
1.0
 92
        8
 66
     8
424
  7895160
 43
1.0
 76
     1
 77
     6
 78
     2
 67
     7
 79
     5
170
     0
171
     0
290
     0
174
     0
 93
       13
 44
0.0
173
     0
291
     0
 45
0.0
1001
ACAD
1000
AcDbSavedByObjectVersion
1070
     0
  0
VISUALSTYLE
  5
AD1
102
{ACAD_REACTORS
330
AC4
102
}
330
AC4
100
AcDbVisualStyle
  2
Thicken
 70
    13
 71
     2
 72
     2
 73
     0
 90
        0
 40
-0.6
 41
-30.0
 62
     5
 63
     7
421
 16777215
 74
     1
 91
        4
 64
     7
 65
   257
 75
     1
175
     1
 42
1.0
 92
       12
 66
     7
 43
1.0
 76
     1
 77
     6
 78
     2
 67
     7
 79
     5
170
     0
171
     0
290
     0
174
     0
 93
        1
 44
0.0
173
     0
291
     1
 45
0.0
1001
ACAD
1000
AcDbSavedByObjectVersion
1070
     0
  0
DICTIONARYVAR
  5
C09
102
{ACAD_REACTORS
330
513
102
}
330
513
100
DictionaryVariables
280
     0
  1
1:1
  0
DICTIONARYVAR
  5
C40
102
{ACAD_REACTORS
330
513
102
}
330
513
100
DictionaryVariables
280
     0
  1
STANDARD
  0
DICTIONARYVAR
  5
C07
102
{ACAD_REACTORS
330
513
102
}
330
513
100
DictionaryVariables
280
     0
  1
STANDARD
  0
DICTIONARYVAR
  5
516
102
{ACAD_REACTORS
330
513
102
}
330
513
100
DictionaryVariables
280
     0
  1
1
  0
DICTIONARYVAR
  5
515
102
{ACAD_REACTORS
330
513
102
}
330
513
100
DictionaryVariables
280
     0
  1
1
  0
DICTIONARYVAR
  5
C0B
102
{ACAD_REACTORS
330
513
102
}
330
513
100
DictionaryVariables
280
     0
  1
0
  0
DICTIONARYVAR
  5
C0A
102
{ACAD_REACTORS
330
513
102
}
330
513
100
DictionaryVariables
280
     0
  1
0
  0
DICTIONARYVAR
  5
C08
102
{ACAD_REACTORS
330
513
102
}
330
513
100
DictionaryVariables
280
     0
  1
0
  0
DICTIONARYVAR
  5
514
102
{ACAD_REACTORS
330
513
102
}
330
513
100
DictionaryVariables
280
     0
  1
1
  0
XRECORD
  5
C17
102
{ACAD_REACTORS
330
C14
102
}
330
C14
100
AcDbXrecord
280
     1
  1
_0100-
  1
*0100-*
  1
*
  1
*
 70
     0
  1
*
  1
*
  0
XRECORD
  5
C16
102
{ACAD_REACTORS
330
C14
102
}
330
C14
100
AcDbXrecord
280
     1
  1
_0280-
  1
*0280-*
  1
*
  1
*
 70
     0
  1
*
  1
*
  0
XRECORD
  5
C1A
102
{ACAD_REACTORS
330
C14
102
}
330
C14
100
AcDbXrecord
280
     1
  1
_Color 253
  1
*
  1
253
  1
*
 70
     0
  1
*
  1
*
  0
XRECORD
  5
C18
102
{ACAD_REACTORS
330
C14
102
}
330
C14
100
AcDbXrecord
280
     1
  1
_Color 8
  1
*
  1
8
  1
*
 70
     0
  1
*
  1
*
  0
XRECORD
  5
C19
102
{ACAD_REACTORS
330
C14
102
}
330
C14
100
AcDbXrecord
280
     1
  1
_Color 84
  1
*
  1
84
  1
*
 70
     0
  1
*
  1
*
  0
XRECORD
  5
C1F
102
{ACAD_REACTORS
330
C14
102
}
330
C14
100
AcDbXrecord
280
     1
  1
_Contours
  1
*contour*,*cont-*,*cp cont*,*p-cont*
  1
*
  1
*
 70
     0
  1
*
  1
*
  0
XRECORD
  5
C1B
102
{ACAD_REACTORS
330
C14
102
}
330
C14
100
AcDbXrecord
280
     1
  1
_Existing
  1
*exist*
  1
*
  1
*
 70
     0
  1
*
  1
*
  0
XRECORD
  5
C1E
102
{ACAD_REACTORS
330
C14
102
}
330
C14
100
AcDbXrecord
280
     1
  1
_Hardscape
  1
*sidewalk*,*sw*,*curb*,*walk*,*-lip*,*tbc*
  1
*
  1
*
 70
     0
  1
*
  1
*
  0
XRECORD
  5
C15
102
{ACAD_REACTORS
330
C14
102
}
330
C14
100
AcDbXrecord
280
     1
  1
_NoXref
  1
~*|*
  1
*
  1
*
 70
     0
  1
*
  1
*
  0
XRECORD
  5
C1C
102
{ACAD_REACTORS
330
C14
102
}
330
C14
100
AcDbXrecord
280
     1
  1
_Row
  1
*row*
  1
*
  1
*
 70
     0
  1
*
  1
*
  0
XRECORD
  5
C1D
102
{ACAD_REACTORS
330
C14
102
}
330
C14
100
AcDbXrecord
280
     1
  1
_Utility
  1
*ut-*,*utility*,*wat*
  1
*
  1
*
 70
     0
  1
*
  1
*
  0
DICTIONARY
  5
AB5
330
AB4
100
AcDbDictionary
280
     1
281
     1
  3
ACAD_XREC_ROUNDTRIP
360
C43
  3
BUMPTILE
360
AB7
  3
DIFFUSETILE
360
AB6
  3
OPACITYTILE
360
ABA
  3
REFLECTIONTILE
360
AB9
  3
REFRACTIONTILE
360
ABB
  3
SPECULARTILE
360
AB8
  0
DICTIONARY
  5
AAD
330
AAC
100
AcDbDictionary
280
     1
281
     1
  3
ACAD_XREC_ROUNDTRIP
360
C42
  3
BUMPTILE
360
AAF
  3
DIFFUSETILE
360
AAE
  3
OPACITYTILE
360
AB2
  3
REFLECTIONTILE
360
AB1
  3
REFRACTIONTILE
360
AB3
  3
SPECULARTILE
360
AB0
  0
DICTIONARY
  5
ABD
330
ABC
100
AcDbDictionary
280
     1
281
     1
  3
ACAD_XREC_ROUNDTRIP
360
C44
  3
BUMPTILE
360
ABF
  3
DIFFUSETILE
360
ABE
  3
OPACITYTILE
360
AC2
  3
REFLECTIONTILE
360
AC1
  3
REFRACTIONTILE
360
AC3
  3
SPECULARTILE
360
AC0
  0
DICTIONARY
  5
C04
330
AD7
100
AcDbDictionary
280
     1
281
     1
  3
ACAD_ROUNDTRIP_2008_TABLESTYLE_CELLSTYLEMAP
360
C41
  3
ACAD_XREC_ROUNDTRIP
360
C45
  0
XRECORD
  5
C43
102
{ACAD_REACTORS
330
AB5
102
}
330
AB5
100
AcDbXrecord
280
     1
102
MATERIAL
148
0.0
149
0.0
149
0.0
 93
        0
 94
      127
282
     0
 72
     0
 77
     0
171
     0
175
     0
179
     0
273
     0
  0
XRECORD
  5
AB7
102
{ACAD_REACTORS
330
AB5
102
}
330
AB5
100
AcDbXrecord
280
     1
270
     1
271
     1
  0
XRECORD
  5
AB6
102
{ACAD_REACTORS
330
AB5
102
}
330
AB5
100
AcDbXrecord
280
     1
270
     1
271
     1
  0
XRECORD
  5
ABA
102
{ACAD_REACTORS
330
AB5
102
}
330
AB5
100
AcDbXrecord
280
     1
270
     1
271
     1
  0
XRECORD
  5
AB9
102
{ACAD_REACTORS
330
AB5
102
}
330
AB5
100
AcDbXrecord
280
     1
270
     1
271
     1
  0
XRECORD
  5
ABB
102
{ACAD_REACTORS
330
AB5
102
}
330
AB5
100
AcDbXrecord
280
     1
270
     1
271
     1
  0
XRECORD
  5
AB8
102
{ACAD_REACTORS
330
AB5
102
}
330
AB5
100
AcDbXrecord
280
     1
270
     1
271
     1
  0
XRECORD
  5
C42
102
{ACAD_REACTORS
330
AAD
102
}
330
AAD
100
AcDbXrecord
280
     1
102
MATERIAL
148
0.0
149
0.0
149
0.0
 93
        0
 94
      127
282
     0
 72
     0
 77
     0
171
     0
175
     0
179
     0
273
     0
  0
XRECORD
  5
AAF
102
{ACAD_REACTORS
330
AAD
102
}
330
AAD
100
AcDbXrecord
280
     1
270
     1
271
     1
  0
XRECORD
  5
AAE
102
{ACAD_REACTORS
330
AAD
102
}
330
AAD
100
AcDbXrecord
280
     1
270
     1
271
     1
  0
XRECORD
  5
AB2
102
{ACAD_REACTORS
330
AAD
102
}
330
AAD
100
AcDbXrecord
280
     1
270
     1
271
     1
  0
XRECORD
  5
AB1
102
{ACAD_REACTORS
330
AAD
102
}
330
AAD
100
AcDbXrecord
280
     1
270
     1
271
     1
  0
XRECORD
  5
AB3
102
{ACAD_REACTORS
330
AAD
102
}
330
AAD
100
AcDbXrecord
280
     1
270
     1
271
     1
  0
XRECORD
  5
AB0
102
{ACAD_REACTORS
330
AAD
102
}
330
AAD
100
AcDbXrecord
280
     1
270
     1
271
     1
  0
XRECORD
  5
C44
102
{ACAD_REACTORS
330
ABD
102
}
330
ABD
100
AcDbXrecord
280
     1
102
MATERIAL
148
0.0
149
0.0
149
0.0
 93
        0
 94
      127
282
     0
 72
     0
 77
     0
171
     0
175
     0
179
     0
273
     0
  0
XRECORD
  5
ABF
102
{ACAD_REACTORS
330
ABD
102
}
330
ABD
100
AcDbXrecord
280
     1
270
     1
271
     1
  0
XRECORD
  5
ABE
102
{ACAD_REACTORS
330
ABD
102
}
330
ABD
100
AcDbXrecord
280
     1
270
     1
271
     1
  0
XRECORD
  5
AC2
102
{ACAD_REACTORS
330
ABD
102
}
330
ABD
100
AcDbXrecord
280
     1
270
     1
271
     1
  0
XRECORD
  5
AC1
102
{ACAD_REACTORS
330
ABD
102
}
330
ABD
100
AcDbXrecord
280
     1
270
     1
271
     1
  0
XRECORD
  5
AC3
102
{ACAD_REACTORS
330
ABD
102
}
330
ABD
100
AcDbXrecord
280
     1
270
     1
271
     1
  0
XRECORD
  5
AC0
102
{ACAD_REACTORS
330
ABD
102
}
330
ABD
100
AcDbXrecord
280
     1
270
     1
271
     1
  0
CELLSTYLEMAP
  5
C41
102
{ACAD_REACTORS
330
C04
102
}
330
C04
100
AcDbCellStyleMap
 90
        3
300
CELLSTYLE
  1
TABLEFORMAT_BEGIN
 90
        5
170
     1
 91
        0
 92
    32768
 62
   257
 93
        1
300
CONTENTFORMAT
  1
CONTENTFORMAT_BEGIN
 90
        0
 91
        0
 92
      512
 93
        0
300

 40
0.0
140
1.0
 94
        5
 62
     0
340
4D3
144
0.25
309
CONTENTFORMAT_END
171
     0
 94
        0
309
TABLEFORMAT_END
  1
CELLSTYLE_BEGIN
 90
        1
 91
        1
300
_TITLE
309
CELLSTYLE_END
300
CELLSTYLE
  1
TABLEFORMAT_BEGIN
 90
        5
170
     1
 91
        0
 92
        0
 62
   257
 93
        1
300
CONTENTFORMAT
  1
CONTENTFORMAT_BEGIN
 90
        0
 91
        0
 92
      512
 93
        0
300

 40
0.0
140
1.0
 94
        5
 62
     0
340
4D3
144
0.18
309
CONTENTFORMAT_END
171
     0
 94
        0
309
TABLEFORMAT_END
  1
CELLSTYLE_BEGIN
 90
        2
 91
        1
300
_HEADER
309
CELLSTYLE_END
300
CELLSTYLE
  1
TABLEFORMAT_BEGIN
 90
        5
170
     1
 91
        0
 92
        0
 62
   257
 93
        1
300
CONTENTFORMAT
  1
CONTENTFORMAT_BEGIN
 90
        0
 91
        0
 92
      512
 93
        0
300

 40
0.0
140
1.0
 94
        2
 62
     0
340
4D3
144
0.18
309
CONTENTFORMAT_END
171
     0
 94
        0
309
TABLEFORMAT_END
  1
CELLSTYLE_BEGIN
 90
        3
 91
        2
300
_DATA
309
CELLSTYLE_END
  0
XRECORD
  5
C45
102
{ACAD_REACTORS
330
C04
102
}
330
C04
100
AcDbXrecord
280
     1
102
ACAD_ROUNDTRIP_PRE2007_TABLESTYLE
 90
      512
 91
        0
  1

 92
      512
 93
        0
  2

 94
      512
 95
        0
  3

  0
ENDSEC
  0
EOF
