  0
SECTION
  2
HEADER
  9
$ACADVER
  1
AC1018
  9
$ACADMAINTVER
 70
   104
  9
$DWGCODEPAGE
  3
ANSI_1252
  9
$TITLE
  1
O:\RAINBIRD\Details 2008\Rotary Nozzles\S-1806Rotary-SJ.DWG
  9
$AUTHOR
  1
dweyer
  9
$COMMENTS
  1
This drawing was opened and saved by 'dweyer' with AutoCAD version 17.1 using profile WatermarkID on 07-01-2008-08:48
  9
$LASTSAVEDBY
  1
dweyer
  9
$INSBASE
 10
0.0
 20
0.0
 30
0.0
  9
$EXTMIN
 10
0.1064708094271038
 20
-0.1143646667846376
 30
0.0
  9
$EXTMAX
 10
16.5964708094271
 20
10.32563533321536
 30
0.03
  9
$LIMMIN
 10
0.0
 20
0.0
  9
$LIMMAX
 10
12.0
 20
9.0
  9
$ORTHOMODE
 70
     1
  9
$REGENMODE
 70
     1
  9
$FILLMODE
 70
     1
  9
$QTEXTMODE
 70
     0
  9
$MIRRTEXT
 70
     0
  9
$LTSCALE
 40
1.0
  9
$ATTMODE
 70
     1
  9
$TEXTSIZE
 40
0.1
  9
$TRACEWID
 40
0.05
  9
$TEXTSTYLE
  7
ROMANS
  9
$CLAYER
  8
0
  9
$CELTYPE
  6
ByLayer
  9
$CECOLOR
 62
   256
  9
$CELTSCALE
 40
1.0
  9
$DISPSILH
 70
     0
  9
$DIMSCALE
 40
1.0
  9
$DIMASZ
 40
0.18
  9
$DIMEXO
 40
0.0625
  9
$DIMDLI
 40
0.38
  9
$DIMRND
 40
0.0
  9
$DIMDLE
 40
0.0
  9
$DIMEXE
 40
0.125
  9
$DIMTP
 40
0.0
  9
$DIMTM
 40
0.0
  9
$DIMTXT
 40
0.125
  9
$DIMCEN
 40
0.09
  9
$DIMTSZ
 40
0.0
  9
$DIMTOL
 70
     0
  9
$DIMLIM
 70
     0
  9
$DIMTIH
 70
     1
  9
$DIMTOH
 70
     1
  9
$DIMSE1
 70
     0
  9
$DIMSE2
 70
     0
  9
$DIMTAD
 70
     0
  9
$DIMZIN
 70
     0
  9
$DIMBLK
  1

  9
$DIMASO
 70
     1
  9
$DIMSHO
 70
     1
  9
$DIMPOST
  1

  9
$DIMAPOST
  1

  9
$DIMALT
 70
     0
  9
$DIMALTD
 70
     2
  9
$DIMALTF
 40
25.4
  9
$DIMLFAC
 40
1.0
  9
$DIMTOFL
 70
     0
  9
$DIMTVP
 40
0.0
  9
$DIMTIX
 70
     0
  9
$DIMSOXD
 70
     0
  9
$DIMSAH
 70
     0
  9
$DIMBLK1
  1

  9
$DIMBLK2
  1

  9
$DIMSTYLE
  2
Standard
  9
$DIMCLRD
 70
   256
  9
$DIMCLRE
 70
   256
  9
$DIMCLRT
 70
   256
  9
$DIMTFAC
 40
1.0
  9
$DIMGAP
 40
0.09
  9
$DIMJUST
 70
     0
  9
$DIMSD1
 70
     0
  9
$DIMSD2
 70
     0
  9
$DIMTOLJ
 70
     1
  9
$DIMTZIN
 70
     0
  9
$DIMALTZ
 70
     0
  9
$DIMALTTZ
 70
     0
  9
$DIMUPT
 70
     0
  9
$DIMDEC
 70
     4
  9
$DIMTDEC
 70
     4
  9
$DIMALTU
 70
     2
  9
$DIMALTTD
 70
     2
  9
$DIMTXSTY
  7
STANDARD
  9
$DIMAUNIT
 70
     0
  9
$DIMADEC
 70
     0
  9
$DIMALTRND
 40
0.0
  9
$DIMAZIN
 70
     0
  9
$DIMDSEP
 70
    46
  9
$DIMATFIT
 70
     3
  9
$DIMFRAC
 70
     0
  9
$DIMLDRBLK
  1

  9
$DIMLUNIT
 70
     2
  9
$DIMLWD
 70
    -1
  9
$DIMLWE
 70
    -1
  9
$DIMTMOVE
 70
     2
  9
$LUNITS
 70
     2
  9
$LUPREC
 70
     3
  9
$SKETCHINC
 40
0.1
  9
$FILLETRAD
 40
0.0
  9
$AUNITS
 70
     0
  9
$AUPREC
 70
     0
  9
$MENU
  1
ACAD
  9
$ELEVATION
 40
0.0
  9
$PELEVATION
 40
0.0
  9
$THICKNESS
 40
0.0
  9
$LIMCHECK
 70
     0
  9
$CHAMFERA
 40
0.0
  9
$CHAMFERB
 40
0.0
  9
$CHAMFERC
 40
0.0
  9
$CHAMFERD
 40
0.0
  9
$SKPOLY
 70
     0
  9
$TDCREATE
 40
2449623.426764236
  9
$TDUCREATE
 40
2449623.676764236
  9
$TDUPDATE
 40
2454649.366835568
  9
$TDUUPDATE
 40
2454649.616835567
  9
$TDINDWG
 40
0.4410046181
  9
$TDUSRTIMER
 40
0.4410046181
  9
$USRTIMER
 70
     1
  9
$ANGBASE
 50
0.0
  9
$ANGDIR
 70
     0
  9
$PDMODE
 70
     0
  9
$PDSIZE
 40
0.0
  9
$PLINEWID
 40
0.0
  9
$SPLFRAME
 70
     0
  9
$SPLINETYPE
 70
     6
  9
$SPLINESEGS
 70
     8
  9
$HANDSEED
  5
8CC
  9
$SURFTAB1
 70
     6
  9
$SURFTAB2
 70
     6
  9
$SURFTYPE
 70
     6
  9
$SURFU
 70
     6
  9
$SURFV
 70
     6
  9
$UCSBASE
  2

  9
$UCSNAME
  2

  9
$UCSORG
 10
0.0
 20
0.0
 30
0.0
  9
$UCSXDIR
 10
1.0
 20
0.0
 30
0.0
  9
$UCSYDIR
 10
0.0
 20
1.0
 30
0.0
  9
$UCSORTHOREF
  2

  9
$UCSORTHOVIEW
 70
     0
  9
$UCSORGTOP
 10
0.0
 20
0.0
 30
0.0
  9
$UCSORGBOTTOM
 10
0.0
 20
0.0
 30
0.0
  9
$UCSORGLEFT
 10
0.0
 20
0.0
 30
0.0
  9
$UCSORGRIGHT
 10
0.0
 20
0.0
 30
0.0
  9
$UCSORGFRONT
 10
0.0
 20
0.0
 30
0.0
  9
$UCSORGBACK
 10
0.0
 20
0.0
 30
0.0
  9
$PUCSBASE
  2

  9
$PUCSNAME
  2

  9
$PUCSORG
 10
0.0
 20
0.0
 30
0.0
  9
$PUCSXDIR
 10
1.0
 20
0.0
 30
0.0
  9
$PUCSYDIR
 10
0.0
 20
1.0
 30
0.0
  9
$PUCSORTHOREF
  2

  9
$PUCSORTHOVIEW
 70
     0
  9
$PUCSORGTOP
 10
0.0
 20
0.0
 30
0.0
  9
$PUCSORGBOTTOM
 10
0.0
 20
0.0
 30
0.0
  9
$PUCSORGLEFT
 10
0.0
 20
0.0
 30
0.0
  9
$PUCSORGRIGHT
 10
0.0
 20
0.0
 30
0.0
  9
$PUCSORGFRONT
 10
0.0
 20
0.0
 30
0.0
  9
$PUCSORGBACK
 10
0.0
 20
0.0
 30
0.0
  9
$USERI1
 70
     0
  9
$USERI2
 70
     0
  9
$USERI3
 70
     0
  9
$USERI4
 70
     0
  9
$USERI5
 70
     0
  9
$USERR1
 40
0.0
  9
$USERR2
 40
0.0
  9
$USERR3
 40
0.0
  9
$USERR4
 40
0.0
  9
$USERR5
 40
0.0
  9
$WORLDVIEW
 70
     1
  9
$SHADEDGE
 70
     3
  9
$SHADEDIF
 70
    70
  9
$TILEMODE
 70
     1
  9
$MAXACTVP
 70
    16
  9
$PINSBASE
 10
0.0
 20
0.0
 30
0.0
  9
$PLIMCHECK
 70
     0
  9
$PEXTMIN
 10
1.000000000000000E+20
 20
1.000000000000000E+20
 30
1.000000000000000E+20
  9
$PEXTMAX
 10
-1.000000000000000E+20
 20
-1.000000000000000E+20
 30
-1.000000000000000E+20
  9
$PLIMMIN
 10
0.0
 20
0.0
  9
$PLIMMAX
 10
12.0
 20
9.0
  9
$UNITMODE
 70
     0
  9
$VISRETAIN
 70
     0
  9
$PLINEGEN
 70
     1
  9
$PSLTSCALE
 70
     1
  9
$TREEDEPTH
 70
  3020
  9
$CMLSTYLE
  2
Standard
  9
$CMLJUST
 70
     0
  9
$CMLSCALE
 40
1.0
  9
$PROXYGRAPHICS
 70
     1
  9
$MEASUREMENT
 70
     0
  9
$CELWEIGHT
370
    -1
  9
$ENDCAPS
280
     0
  9
$JOINSTYLE
280
     0
  9
$LWDISPLAY
290
     0
  9
$INSUNITS
 70
     0
  9
$HYPERLINKBASE
  1

  9
$STYLESHEET
  1
color.ctb
  9
$XEDIT
290
     1
  9
$CEPSNTYPE
380
     0
  9
$PSTYLEMODE
290
     1
  9
$FINGERPRINTGUID
  2
{FC71E344-C23D-4BC5-84A3-344016255673}
  9
$VERSIONGUID
  2
{B88D7932-2400-41CE-A81F-EDABEE0AD5B9}
  9
$EXTNAMES
290
     1
  9
$PSVPSCALE
 40
0.0
  9
$OLESTARTUP
290
     1
  9
$SORTENTS
280
   112
  9
$INDEXCTL
280
     0
  9
$HIDETEXT
280
     1
  9
$XCLIPFRAME
290
     0
  9
$HALOGAP
280
     0
  9
$OBSCOLOR
 70
   257
  9
$OBSLTYPE
280
     0
  9
$INTERSECTIONDISPLAY
280
     0
  9
$INTERSECTIONCOLOR
 70
   257
  9
$DIMASSOC
280
     1
  9
$PROJECTNAME
  1

  0
ENDSEC
  0
SECTION
  2
CLASSES
  0
CLASS
  1
ACDBDICTIONARYWDFLT
  2
AcDbDictionaryWithDefault
  3
ObjectDBX Classes
 90
        0
 91
        1
280
     0
281
     0
  0
CLASS
  1
DICTIONARYVAR
  2
AcDbDictionaryVar
  3
ObjectDBX Classes
 90
        0
 91
        9
280
     0
281
     0
  0
CLASS
  1
MATERIAL
  2
AcDbMaterial
  3
ObjectDBX Classes
 90
     1153
 91
        3
280
     0
281
     0
  0
CLASS
  1
VISUALSTYLE
  2
AcDbVisualStyle
  3
ObjectDBX Classes
 90
     4095
 91
       16
280
     0
281
     0
  0
CLASS
  1
TABLESTYLE
  2
AcDbTableStyle
  3
ObjectDBX Classes
 90
     4095
 91
        1
280
     0
281
     0
  0
CLASS
  1
SCALE
  2
AcDbScale
  3
ObjectDBX Classes
 90
     1153
 91
       65
280
     0
281
     0
  0
CLASS
  1
MLEADERSTYLE
  2
AcDbMLeaderStyle
  3
ACDB_MLEADERSTYLE_CLASS
 90
     4095
 91
        1
280
     0
281
     0
  0
CLASS
  1
EXACXREFPANELOBJECT
  2
ExAcXREFPanelObject
  3
EXAC_ESW
 90
     1025
 91
        1
280
     0
281
     0
  0
CLASS
  1
NPOCOLLECTION
  2
AcDbImpNonPersistentObjectsCollection
  3
ObjectDBX Classes
 90
     1153
 91
        1
280
     0
281
     0
  0
CLASS
  1
CELLSTYLEMAP
  2
AcDbCellStyleMap
  3
ObjectDBX Classes
 90
     1152
 91
        2
280
     0
281
     0
  0
CLASS
  1
SORTENTSTABLE
  2
AcDbSortentsTable
  3
ObjectDBX Classes
 90
        0
 91
        0
280
     0
281
     0
  0
ENDSEC
  0
SECTION
  2
TABLES
  0
TABLE
  2
VPORT
  5
8
102
{ACAD_XDICTIONARY
360
85A
102
}
330
0
100
AcDbSymbolTable
 70
     1
  0
VPORT
  5
64F
330
8
100
AcDbSymbolTableRecord
100
AcDbViewportTableRecord
  2
*Active
 70
     0
 10
0.0
 20
0.0
 11
1.0
 21
1.0
 12
8.351470809427098
 22
5.105635333215362
 13
0.0
 23
0.0
 14
0.14
 24
0.14
 15
0.0
 25
0.0
 16
0.0
 26
0.0
 36
1.0
 17
0.0
 27
0.0
 37
0.0
 40
10.5244204851752
 41
2.15519568151147
 42
50.0
 43
0.0
 44
0.0
 50
0.0
 51
0.0
 71
     0
 72
  4000
 73
     1
 74
     1
 75
     0
 76
     0
 77
     0
 78
     0
281
     0
 65
     1
110
0.0
120
0.0
130
0.0
111
1.0
121
0.0
131
0.0
112
0.0
122
1.0
132
0.0
 79
     0
146
0.0
  0
ENDTAB
  0
TABLE
  2
LTYPE
  5
5
330
0
100
AcDbSymbolTable
 70
     1
  0
LTYPE
  5
13
330
5
100
AcDbSymbolTableRecord
100
AcDbLinetypeTableRecord
  2
ByBlock
 70
     0
  3

 72
    65
 73
     0
 40
0.0
  0
LTYPE
  5
14
330
5
100
AcDbSymbolTableRecord
100
AcDbLinetypeTableRecord
  2
ByLayer
 70
     0
  3

 72
    65
 73
     0
 40
0.0
  0
LTYPE
  5
15
330
5
100
AcDbSymbolTableRecord
100
AcDbLinetypeTableRecord
  2
CONTINUOUS
 70
     0
  3
Solid line
 72
    65
 73
     0
 40
0.0
  0
ENDTAB
  0
TABLE
  2
LAYER
  5
2
102
{ACAD_XDICTIONARY
360
283
102
}
330
0
100
AcDbSymbolTable
 70
     8
  0
LAYER
  5
10
330
2
100
AcDbSymbolTableRecord
100
AcDbLayerTableRecord
  2
0
 70
     0
 62
     7
  6
CONTINUOUS
370
    -3
390
F
  0
LAYER
  5
27
330
2
100
AcDbSymbolTableRecord
100
AcDbLayerTableRecord
  2
text_bubbles
 70
     0
 62
     6
  6
CONTINUOUS
370
    -3
390
F
  0
LAYER
  5
28
330
2
100
AcDbSymbolTableRecord
100
AcDbLayerTableRecord
  2
image
 70
     0
 62
     7
  6
CONTINUOUS
370
    -3
390
F
  0
LAYER
  5
2B
330
2
100
AcDbSymbolTableRecord
100
AcDbLayerTableRecord
  2
text_leaders
 70
     1
 62
    -5
  6
CONTINUOUS
370
    -3
390
F
  0
LAYER
  5
2C
330
2
100
AcDbSymbolTableRecord
100
AcDbLayerTableRecord
  2
option-sam
 70
     0
 62
     1
  6
CONTINUOUS
370
    -3
390
F
  0
LAYER
  5
34
330
2
100
AcDbSymbolTableRecord
100
AcDbLayerTableRecord
  2
instruct-option
 70
     0
 62
     7
  6
CONTINUOUS
370
    -3
390
F
  0
LAYER
  5
35
330
2
100
AcDbSymbolTableRecord
100
AcDbLayerTableRecord
  2
instruct-callout
 70
     0
 62
     4
  6
CONTINUOUS
370
    -3
390
F
  0
LAYER
  5
25F
330
2
100
AcDbSymbolTableRecord
100
AcDbLayerTableRecord
  2
title
 70
     0
 62
     4
  6
CONTINUOUS
370
    -3
390
F
  0
ENDTAB
  0
TABLE
  2
STYLE
  5
3
330
0
100
AcDbSymbolTable
 70
     5
  0
STYLE
  5
11
330
3
100
AcDbSymbolTableRecord
100
AcDbTextStyleTableRecord
  2
STANDARD
 70
     0
 40
0.0
 41
1.0
 50
0.0
 71
     0
 42
0.2
  3
txt
  4

  0
STYLE
  5
24
330
3
100
AcDbSymbolTableRecord
100
AcDbTextStyleTableRecord
  2
ROMANS
 70
     0
 40
0.0
 41
1.0
 50
0.0
 71
     0
 42
0.1
  3
ROMANS.SHX
  4

  0
STYLE
  5
260
330
3
100
AcDbSymbolTableRecord
100
AcDbTextStyleTableRecord
  2
L100
 70
     0
 40
0.1
 41
1.0
 50
0.0
 71
     0
 42
0.1
  3
romans.shx
  4

  0
STYLE
  5
261
330
3
100
AcDbSymbolTableRecord
100
AcDbTextStyleTableRecord
  2
L200
 70
     0
 40
0.2
 41
1.0
 50
0.0
 71
     0
 42
0.081
  3
ARIAL.TTF
  4

1001
ACAD
1000
Arial
1071
       34
  0
STYLE
  5
262
330
3
100
AcDbSymbolTableRecord
100
AcDbTextStyleTableRecord
  2
L80
 70
     0
 40
0.08
 41
1.0
 50
0.0
 71
     0
 42
0.08
  3
ROMANS
  4

  0
ENDTAB
  0
TABLE
  2
VIEW
  5
6
330
0
100
AcDbSymbolTable
 70
     0
  0
ENDTAB
  0
TABLE
  2
UCS
  5
7
330
0
100
AcDbSymbolTable
 70
     0
  0
ENDTAB
  0
TABLE
  2
APPID
  5
9
330
0
100
AcDbSymbolTable
 70
     6
  0
APPID
  5
12
330
9
100
AcDbSymbolTableRecord
100
AcDbRegAppTableRecord
  2
ACAD
 70
     0
  0
APPID
  5
6A2
330
9
100
AcDbSymbolTableRecord
100
AcDbRegAppTableRecord
  2
ACAD_MLEADERVER
 70
     0
  0
APPID
  5
730
330
9
100
AcDbSymbolTableRecord
100
AcDbRegAppTableRecord
  2
BBSI_PltSel
 70
     0
  0
APPID
  5
731
330
9
100
AcDbSymbolTableRecord
100
AcDbRegAppTableRecord
  2
BBSI_Plots
 70
     0
  0
APPID
  5
732
330
9
100
AcDbSymbolTableRecord
100
AcDbRegAppTableRecord
  2
BBSI_Bookmarks
 70
     0
  0
APPID
  5
733
330
9
100
AcDbSymbolTableRecord
100
AcDbRegAppTableRecord
  2
ACAD_PSEXT
 70
     0
  0
ENDTAB
  0
TABLE
  2
DIMSTYLE
  5
A
330
0
100
AcDbSymbolTable
 70
     1
100
AcDbDimStyleTable
 71
     0
  0
DIMSTYLE
105
211
330
A
100
AcDbSymbolTableRecord
100
AcDbDimStyleTableRecord
  2
Standard
 70
     0
340
11
  0
ENDTAB
  0
TABLE
  2
BLOCK_RECORD
  5
1
330
0
100
AcDbSymbolTable
 70
     1
  0
BLOCK_RECORD
  5
1E
330
1
100
AcDbSymbolTableRecord
100
AcDbBlockTableRecord
  2
*Model_Space
340
21
  0
BLOCK_RECORD
  5
1A
330
1
100
AcDbSymbolTableRecord
100
AcDbBlockTableRecord
  2
*Paper_Space
340
1D
  0
BLOCK_RECORD
  5
265
330
1
100
AcDbSymbolTableRecord
100
AcDbBlockTableRecord
  2
titleblock
340
0
102
{BLKREFS
331
274
102
}
  0
ENDTAB
  0
ENDSEC
  0
SECTION
  2
BLOCKS
  0
BLOCK
  5
39
330
1E
100
AcDbEntity
  8
0
100
AcDbBlockBegin
  2
*Model_Space
 70
     0
 10
0.0
 20
0.0
 30
0.0
  3
*Model_Space
  1

  0
ENDBLK
  5
3A
330
1E
100
AcDbEntity
  8
0
100
AcDbBlockEnd
  0
BLOCK
  5
37
330
1A
100
AcDbEntity
 67
     1
  8
0
100
AcDbBlockBegin
  2
*Paper_Space
 70
     0
 10
0.0
 20
0.0
 30
0.0
  3
*Paper_Space
  1

  0
ENDBLK
  5
38
330
1A
100
AcDbEntity
 67
     1
  8
0
100
AcDbBlockEnd
  0
BLOCK
  5
271
330
265
100
AcDbEntity
  8
0
100
AcDbBlockBegin
  2
titleblock
 70
     2
 10
0.0
 20
0.0
 30
0.0
  3
titleblock
  1

  0
LWPOLYLINE
  5
266
330
265
100
AcDbEntity
  8
image
100
AcDbPolyline
 90
        4
 70
     1
 43
0.0
 10
0.0
 20
0.0
 10
16.48999999999999
 20
0.0000000000000001
 10
16.48999999999999
 20
10.44
 10
0.0
 20
10.44
  0
ATTDEF
  5
267
330
265
100
AcDbEntity
  8
title
100
AcDbText
 10
0.5055556038023421
 20
0.7842270964783673
 30
0.0
 40
0.2
  1
D
  7
L200
 72
     4
 11
0.6064423705144839
 21
0.8842270964783672
 31
0.0
100
AcDbAttributeDefinition
  3
#
  2
D
 70
     0
  0
ATTDEF
  5
268
330
265
100
AcDbEntity
  8
title
100
AcDbText
 10
1.231442370514484
 20
1.34371230274675
 30
0.0
 40
0.2
  1

  7
L200
100
AcDbAttributeDefinition
  3
DETAIL TITLE TOP LINE
  2
TITLE1
 70
     0
  0
ATTDEF
  5
269
330
265
100
AcDbEntity
  8
title
100
AcDbText
 10
1.231442370514484
 20
0.9842270964783674
 30
0.0
 40
0.2
  1
TITLE
  7
L200
100
AcDbAttributeDefinition
  3
DETAIL TITLE TOP 2ND LINE
  2
TITLE2
 70
     0
  0
ATTDEF
  5
26A
330
265
100
AcDbEntity
  8
title
100
AcDbText
 10
2.713645751168312
 20
0.5927927664583189
 30
0.0
 40
0.2
  1
TITLE2
  7
L200
100
AcDbAttributeDefinition
  3
DETAIL TITLE BOTTOM 1
  2
TITLE3
 70
     0
  0
ATTDEF
  5
26B
330
265
100
AcDbEntity
  8
title
100
AcDbText
 10
2.713645751168312
 20
0.2692560808167741
 30
0.0
 40
0.2
  1

  7
L200
100
AcDbAttributeDefinition
  3
DETAIL TITLE BOTTOM 2
  2
TITLE4
 70
     0
  0
ATTDEF
  5
26C
330
265
100
AcDbEntity
  8
title
 62
     7
100
AcDbText
 10
8.177214829966379
 20
0.9696027915446398
 30
0.0
 40
0.08
  1
-
  7
L80
 72
     2
 11
8.261024353775903
 21
0.9696027915446398
 31
0.0
100
AcDbAttributeDefinition
  3
REVISION DATE
  2
REVISED
 70
     0
  0
ATTDEF
  5
26D
330
265
100
AcDbEntity
  8
title
 62
     7
100
AcDbText
 10
0.2639423705144838
 20
0.0847116480207214
 30
0.0
 40
0.08
  1
-
  7
L80
100
AcDbAttributeDefinition
  3
DWG-NAME
  2
DWG-NAME
 70
     0
  0
LWPOLYLINE
  5
26E
330
265
100
AcDbEntity
  8
title
 62
     3
100
AcDbPolyline
 90
        2
 70
     1
 43
0.03
 10
0.6064423705144839
 20
0.5417270964783675
 42
0.9999999999999998
 10
0.6064423705144839
 20
1.226727096478367
 42
0.9999999999999998
  0
ATTDEF
  5
26F
330
265
100
AcDbEntity
  8
title
 62
     7
100
AcDbText
 10
1.231442370514484
 20
0.7005637793954894
 30
0.0
 40
0.1
  1
N.T.S.
  7
L100
100
AcDbAttributeDefinition
  3
SCALE
  2
SCALE
 70
     0
  0
LWPOLYLINE
  5
270
330
265
100
AcDbEntity
  8
title
 62
     3
100
AcDbPolyline
 90
        2
 70
     0
 43
0.04
 39
0.03
 10
0.9489423705144833
 20
0.8842270964783672
 10
8.261024353775903
 20
0.8842270964783672
  0
ENDBLK
  5
272
330
265
100
AcDbEntity
  8
0
100
AcDbBlockEnd
  0
ENDSEC
  0
SECTION
  2
ENTITIES
  0
CIRCLE
  5
10A
330
1E
100
AcDbEntity
  8
text_bubbles
100
AcDbCircle
 10
4.418220173282479
 20
5.478610189230373
 30
0.0
 40
0.15625
  0
TEXT
  5
10B
330
1E
100
AcDbEntity
  8
text_bubbles
100
AcDbText
 10
4.367624935187241
 20
5.416110189230373
 30
0.0
 40
0.125
  1
1
  7
ROMANS
 72
     4
 11
4.418220173282479
 21
5.478610189230373
 31
0.0
100
AcDbText
  0
CIRCLE
  5
10C
330
1E
100
AcDbEntity
  8
text_bubbles
100
AcDbCircle
 10
4.418220173282479
 20
5.120016349857091
 30
0.0
 40
0.15625
  0
TEXT
  5
10D
330
1E
100
AcDbEntity
  8
text_bubbles
100
AcDbText
 10
4.35869636375867
 20
5.057516349857091
 30
0.0
 40
0.125
  1
2
  7
ROMANS
 72
     4
 11
4.418220173282479
 21
5.120016349857091
 31
0.0
100
AcDbText
  0
CIRCLE
  5
10E
330
1E
100
AcDbEntity
  8
text_bubbles
100
AcDbCircle
 10
4.42683571506445
 20
4.547322539806863
 30
0.0
 40
0.15625
  0
TEXT
  5
10F
330
1E
100
AcDbEntity
  8
text_bubbles
100
AcDbText
 10
4.367311905540641
 20
4.484822539806863
 30
0.0
 40
0.125
  1
3
  7
ROMANS
 72
     4
 11
4.42683571506445
 21
4.547322539806863
 31
0.0
100
AcDbText
  0
CIRCLE
  5
110
330
1E
100
AcDbEntity
  8
text_bubbles
100
AcDbCircle
 10
4.418220173282479
 20
4.125897206350101
 30
0.0
 40
0.15625
  0
TEXT
  5
111
330
1E
100
AcDbEntity
  8
text_bubbles
100
AcDbText
 10
4.355720173282479
 20
4.063397206350101
 30
0.0
 40
0.125
  1
4
  7
ROMANS
 72
     4
 11
4.418220173282479
 21
4.125897206350101
 31
0.0
100
AcDbText
  0
CIRCLE
  5
112
330
1E
100
AcDbEntity
  8
text_bubbles
100
AcDbCircle
 10
4.418220173282479
 20
3.775642058220371
 30
0.0
 40
0.15625
  0
TEXT
  5
113
330
1E
100
AcDbEntity
  8
text_bubbles
100
AcDbText
 10
4.35869636375867
 20
3.713142058220371
 30
0.0
 40
0.125
  1
5
  7
ROMANS
 72
     4
 11
4.418220173282479
 21
3.775642058220371
 31
0.0
100
AcDbText
  0
CIRCLE
  5
114
330
1E
100
AcDbEntity
  8
text_bubbles
100
AcDbCircle
 10
4.418220173282479
 20
3.41762470626266
 30
0.0
 40
0.15625
  0
TEXT
  5
115
330
1E
100
AcDbEntity
  8
text_bubbles
100
AcDbText
 10
4.355720173282479
 20
3.35512470626266
 30
0.0
 40
0.125
  1
6
  7
ROMANS
 72
     4
 11
4.418220173282479
 21
3.41762470626266
 31
0.0
100
AcDbText
  0
CIRCLE
  5
11B
330
1E
100
AcDbEntity
  8
text_bubbles
100
AcDbCircle
 10
3.588249345650492
 20
1.80347095916251
 30
0.0
 40
0.15625
  0
TEXT
  5
11C
330
1E
100
AcDbEntity
  8
text_bubbles
100
AcDbText
 10
3.528725536126683
 20
1.74097095916251
 30
0.0
 40
0.125
  1
3
  7
ROMANS
 72
     4
 11
3.588249345650492
 21
1.80347095916251
 31
0.0
100
AcDbText
  0
CIRCLE
  5
11D
330
1E
100
AcDbEntity
  8
text_bubbles
100
AcDbCircle
 10
4.665544895021538
 20
1.803884257173425
 30
0.0
 40
0.15625
  0
TEXT
  5
11E
330
1E
100
AcDbEntity
  8
text_bubbles
100
AcDbText
 10
4.606021085497729
 20
1.741384257173425
 30
0.0
 40
0.125
  1
7
  7
ROMANS
 72
     4
 11
4.665544895021538
 21
1.803884257173425
 31
0.0
100
AcDbText
  0
CIRCLE
  5
11F
330
1E
100
AcDbEntity
  8
text_bubbles
100
AcDbCircle
 10
2.829549934577273
 20
1.803744500292894
 30
0.0
 40
0.15625
  0
TEXT
  5
120
330
1E
100
AcDbEntity
  8
text_bubbles
100
AcDbText
 10
2.770026125053464
 20
1.741244500292894
 30
0.0
 40
0.125
  1
5
  7
ROMANS
 72
     4
 11
2.829549934577273
 21
1.803744500292894
 31
0.0
100
AcDbText
  0
TEXT
  5
127
330
1E
100
AcDbEntity
  8
text_bubbles
100
AcDbText
 10
0.6563833327298038
 20
3.727274398326072
 30
0.0
 40
0.125
  1
3
  7
ROMANS
 72
     4
 11
0.7159071422536134
 21
3.789774398326072
 31
0.0
100
AcDbText
  0
CIRCLE
  5
128
330
1E
100
AcDbEntity
  8
text_bubbles
100
AcDbCircle
 10
0.7159071422536134
 20
3.789774398326072
 30
0.0
 40
0.15625
  0
TEXT
  5
129
330
1E
100
AcDbEntity
  8
text_bubbles
100
AcDbText
 10
0.6563833327298038
 20
5.012785388808097
 30
0.0
 40
0.125
  1
2
  7
ROMANS
 72
     4
 11
0.7159071422536134
 21
5.075285388808097
 31
0.0
100
AcDbText
  0
CIRCLE
  5
12A
330
1E
100
AcDbEntity
  8
text_bubbles
100
AcDbCircle
 10
0.7159071422536134
 20
5.075285388808097
 30
0.0
 40
0.15625
  0
TEXT
  5
12D
330
1E
100
AcDbEntity
  8
text_bubbles
100
AcDbText
 10
4.252459832317176
 20
1.74125502874357
 30
0.0
 40
0.125
  1
5
  7
ROMANS
 72
     4
 11
4.311983641840986
 21
1.80375502874357
 31
0.0
100
AcDbText
  0
CIRCLE
  5
12E
330
1E
100
AcDbEntity
  8
text_bubbles
100
AcDbCircle
 10
4.311983641840986
 20
1.80375502874357
 30
0.0
 40
0.15625
  0
CIRCLE
  5
12F
330
1E
100
AcDbEntity
  8
text_bubbles
100
AcDbCircle
 10
0.7159071422536134
 20
5.541069538776902
 30
0.0
 40
0.15625
  0
TEXT
  5
130
330
1E
100
AcDbEntity
  8
text_bubbles
100
AcDbText
 10
0.6653119041583752
 20
5.478569538776902
 30
0.0
 40
0.125
  1
1
  7
ROMANS
 72
     4
 11
0.7159071422536134
 21
5.541069538776902
 31
0.0
100
AcDbText
  0
TEXT
  5
133
330
1E
100
AcDbEntity
  8
text_leaders
100
AcDbText
 10
4.760000000000001
 20
5.564249207376819
 30
0.0
 40
0.125
  1
FINISH GRADE/TOP OF MULCH
  7
ROMANS
100
AcDbText
  0
TEXT
  5
134
330
1E
100
AcDbEntity
  8
text_leaders
100
AcDbText
 10
4.760000000000001
 20
4.896335977253028
 30
0.0
 40
0.125
  1
  RAIN BIRD 1806
  7
ROMANS
100
AcDbText
  0
TEXT
  5
135
330
1E
100
AcDbEntity
  8
text_leaders
100
AcDbText
 10
4.760000000000001
 20
5.081541166194861
 30
0.0
 40
0.125
  1
POP-UP SPRAY SPRINKLER:
  7
ROMANS
100
AcDbText
  0
LINE
  5
141
330
1E
100
AcDbEntity
  8
image
100
AcDbLine
 10
2.337697083802058
 20
3.42115639413445
 30
0.0
 11
2.504530234049994
 21
3.42115639413445
 31
0.0
  0
LWPOLYLINE
  5
142
330
1E
100
AcDbEntity
  8
image
100
AcDbPolyline
 90
        2
 70
     0
 43
0.0
 10
2.349727560073423
 20
3.440479473232284
 10
2.492216032321856
 20
3.440479473232284
  0
LINE
  5
146
330
1E
100
AcDbEntity
  8
image
100
AcDbLine
 10
2.504530234049993
 20
3.467941052104118
 30
0.0
 11
2.504530234049994
 21
3.100097288830757
 31
0.0
  0
LINE
  5
147
330
1E
100
AcDbEntity
  8
image
100
AcDbLine
 10
2.337697083802058
 20
3.467941052104118
 30
0.0
 11
2.337697083802058
 21
3.100097288830757
 31
0.0
  0
LWPOLYLINE
  5
148
330
1E
100
AcDbEntity
  8
image
100
AcDbPolyline
 90
        2
 70
     0
 43
0.0
 10
2.699759896723575
 20
2.954575019455444
 10
2.670247000353834
 20
2.81517647688214
  0
LINE
  5
14C
330
1E
100
AcDbEntity
  8
image
100
AcDbLine
 10
2.721105390742197
 20
2.962248232864808
 30
0.0
 11
2.686550107801691
 21
2.799032938107999
 31
0.0
  0
LINE
  5
14D
330
1E
100
AcDbEntity
  8
image
100
AcDbLine
 10
3.686527083209988
 20
2.757341164912409
 30
0.0
 11
3.651971800269482
 21
2.5941258701556
 31
0.0
  0
LWPOLYLINE
  5
14E
330
1E
100
AcDbEntity
  8
image
100
AcDbPolyline
 90
        2
 70
     0
 43
0.0
 10
3.70331790327595
 20
2.741453834848466
 10
3.673805006906208
 20
2.602055292275162
  0
LWPOLYLINE
  5
152
330
1E
100
AcDbEntity
  8
image
100
AcDbPolyline
 90
        2
 70
     0
 43
0.0
 10
2.349727560073423
 20
3.119333914776232
 10
2.492216032321856
 20
3.119333914776232
  0
LINE
  5
156
330
1E
100
AcDbEntity
  8
image
100
AcDbLine
 10
2.337697083802058
 20
3.139884986135297
 30
0.0
 11
2.504530234049994
 21
3.139884986135297
 31
0.0
  0
LWPOLYLINE
  5
157
330
1E
100
AcDbEntity
  8
image
100
AcDbPolyline
 90
        4
 70
     0
 43
0.0
 10
1.796597316440745
 20
2.711888063958301
 42
0.6332430429610296
 10
1.796597316440745
 20
2.612410852502446
 42
-0.6332430429610812
 10
1.796597316440745
 20
2.512933641046591
 42
-0.6134111328532366
 10
1.796597316440747
 20
2.612410852502445
 42
-0.6134111328532366
  0
LWPOLYLINE
  5
15D
330
1E
100
AcDbEntity
  8
image
100
AcDbPolyline
 90
        4
 70
     0
 43
0.0
 10
4.601898187686517
 20
2.713321798670927
 42
-0.6332430429610296
 10
4.601898187686517
 20
2.613844587215072
 42
0.6332430429610812
 10
4.601898187686517
 20
2.514367375759217
 42
0.6134111328532366
 10
4.601898187686515
 20
2.613844587215071
 42
0.6134111328532366
  0
ARC
  5
163
330
1E
100
AcDbEntity
  8
image
100
AcDbCircle
 10
2.421494841468657
 20
2.943592953724656
 30
0.0
 40
0.0983684976157295
100
AcDbArc
 50
179.379115872957
 51
0.2371380430744057
  0
LINE
  5
164
330
1E
100
AcDbEntity
  8
image
100
AcDbLine
 10
3.690194552909176
 20
2.585857722177621
 30
0.0
 11
2.647512933309796
 21
2.806610063040076
 31
0.0
  0
LINE
  5
165
330
1E
100
AcDbEntity
  8
image
100
AcDbLine
 10
3.725078007954081
 20
2.749003192803624
 30
0.0
 11
2.682396388354701
 21
2.969755533666079
 31
0.0
  0
LINE
  5
166
330
1E
100
AcDbEntity
  8
image
100
AcDbLine
 10
2.323943845252239
 20
3.100097288830756
 30
0.0
 11
2.519551108419216
 21
3.100097288830756
 31
0.0
  0
LINE
  5
167
330
1E
100
AcDbEntity
  8
image
100
AcDbLine
 10
2.323943845252239
 20
3.100097288830756
 30
0.0
 11
2.323126343852928
 21
2.943592953724656
 31
0.0
  0
LINE
  5
168
330
1E
100
AcDbEntity
  8
image
100
AcDbLine
 10
2.519551108419216
 20
3.100097288830756
 30
0.0
 11
2.519863339084386
 21
2.943592953724656
 31
0.0
  0
LINE
  5
169
330
1E
100
AcDbEntity
  8
image
100
AcDbLine
 10
4.225373934337723
 20
2.737838080659785
 30
0.0
 11
4.225373934337721
 21
2.490768401263157
 31
0.0
  0
LINE
  5
16A
330
1E
100
AcDbEntity
  8
image
100
AcDbLine
 10
3.726814776526451
 20
2.758220127188914
 30
0.0
 11
3.967378292427719
 21
2.707155584202828
 31
0.0
  0
LINE
  5
16B
330
1E
100
AcDbEntity
  8
image
100
AcDbLine
 10
3.68788707440693
 20
2.576160228749889
 30
0.0
 11
3.928374467798901
 21
2.524739670495556
 31
0.0
  0
LINE
  5
16C
330
1E
100
AcDbEntity
  8
image
100
AcDbLine
 10
3.967378292427719
 20
2.707155584202828
 30
0.0
 11
3.978868390765565
 21
2.685467632378403
 31
0.0
  0
LINE
  5
16D
330
1E
100
AcDbEntity
  8
image
100
AcDbLine
 10
3.928374467798901
 20
2.524739670495556
 30
0.0
 11
3.948944290924199
 21
2.537344961646708
 31
0.0
  0
LINE
  5
16E
330
1E
100
AcDbEntity
  8
image
100
AcDbLine
 10
3.948944290924199
 20
2.537344961646708
 30
0.0
 11
3.978868390765565
 21
2.685467632378403
 31
0.0
  0
ARC
  5
16F
330
1E
100
AcDbEntity
  8
image
100
AcDbCircle
 10
3.945701560911047
 20
2.615084070641933
 30
0.0
 40
0.077806711569825
100
AcDbArc
 50
272.3885930691139
 51
64.76879059918148
  0
LINE
  5
170
330
1E
100
AcDbEntity
  8
image
100
AcDbLine
 10
2.645544585520326
 20
2.797255255525233
 30
0.0
 11
2.416333744974473
 21
2.845359942948466
 31
0.0
  0
LINE
  5
171
330
1E
100
AcDbEntity
  8
image
100
AcDbLine
 10
2.683878369188098
 20
2.979441132150306
 30
0.0
 11
2.519728796415503
 21
3.014233734847366
 31
0.0
  0
LINE
  5
172
330
1E
100
AcDbEntity
  8
image
100
AcDbLine
 10
2.683878369188098
 20
2.979441132150306
 30
0.0
 11
2.645544585520326
 21
2.797255255525234
 31
0.0
  0
LINE
  5
173
330
1E
100
AcDbEntity
  8
image
100
AcDbLine
 10
3.726814776526451
 20
2.758220127188914
 30
0.0
 11
3.68788707440693
 21
2.57616022874989
 31
0.0
  0
LINE
  5
174
330
1E
100
AcDbEntity
  8
image
100
AcDbLine
 10
4.225373934337723
 20
2.490768401263157
 30
0.0
 11
3.664808887494137
 21
2.490768401263157
 31
0.0
  0
LINE
  5
175
330
1E
100
AcDbEntity
  8
image
100
AcDbLine
 10
3.664808887494137
 20
2.59123227272055
 30
0.0
 11
3.664808887494137
 21
2.490768401263158
 31
0.0
  0
LINE
  5
176
330
1E
100
AcDbEntity
  8
image
100
AcDbLine
 10
3.967378292427721
 20
2.707155584202829
 30
0.0
 11
3.928374467798901
 21
2.524739670495556
 31
0.0
  0
LINE
  5
177
330
1E
100
AcDbEntity
  8
image
100
AcDbLine
 10
4.601898187686517
 20
2.713321798670927
 30
0.0
 11
4.225373934337723
 21
2.713321798670927
 31
0.0
  0
LINE
  5
178
330
1E
100
AcDbEntity
  8
image
100
AcDbLine
 10
4.601898187686517
 20
2.514367375759217
 30
0.0
 11
4.225373934337721
 21
2.514367375759217
 31
0.0
  0
LINE
  5
179
330
1E
100
AcDbEntity
  8
image
100
AcDbLine
 10
3.664808887494137
 20
2.512933641046591
 30
0.0
 11
1.796597316440745
 21
2.512933641046591
 31
0.0
  0
LINE
  5
17A
330
1E
100
AcDbEntity
  8
image
100
AcDbLine
 10
3.094914247508372
 20
2.711888063958302
 30
0.0
 11
1.796597316440745
 21
2.711888063958301
 31
0.0
  0
LINE
  5
17B
330
1E
100
AcDbEntity
  8
image
100
AcDbLine
 10
3.822833980607967
 20
2.737838080659786
 30
0.0
 11
4.225373934337723
 21
2.737838080659787
 31
0.0
  0
CIRCLE
  5
17C
330
1E
100
AcDbEntity
  8
text_bubbles
100
AcDbCircle
 10
3.935796563451078
 20
1.80375502874357
 30
0.0
 40
0.15625
  0
TEXT
  5
17D
330
1E
100
AcDbEntity
  8
text_bubbles
100
AcDbText
 10
3.873296563451078
 20
1.74125502874357
 30
0.0
 40
0.125
  1
6
  7
ROMANS
 72
     4
 11
3.935796563451078
 21
1.80375502874357
 31
0.0
100
AcDbText
  0
CIRCLE
  5
182
330
1E
100
AcDbEntity
  8
text_bubbles
100
AcDbCircle
 10
0.7159071422536134
 20
3.449657701191062
 30
0.0
 40
0.15625
  0
TEXT
  5
183
330
1E
100
AcDbEntity
  8
text_bubbles
100
AcDbText
 10
0.6534071422536134
 20
3.387157701191062
 30
0.0
 40
0.125
  1
4
  7
ROMANS
 72
     4
 11
0.7159071422536134
 21
3.449657701191062
 31
0.0
100
AcDbText
  0
TEXT
  5
188
330
1E
100
AcDbEntity
  8
text_leaders
100
AcDbText
 10
4.760000000000001
 20
1.805191905946225
 30
0.0
 40
0.125
  1
PVC SCH 40 TEE OR ELL
  7
ROMANS
100
AcDbText
  0
TEXT
  5
189
330
1E
100
AcDbEntity
  8
text_leaders
100
AcDbText
 10
4.760000000000001
 20
2.163833783875351
 30
0.0
 40
0.125
  1
PVC LATERAL PIPE
  7
ROMANS
100
AcDbText
  0
TEXT
  5
18C
330
1E
100
AcDbEntity
  8
text_leaders
100
AcDbText
 10
4.760000000000001
 20
2.804101118216927
 30
0.0
 40
0.125
  1
PVC SCH 40 STREET ELL
  7
ROMANS
100
AcDbText
  0
TEXT
  5
18E
330
1E
100
AcDbEntity
  8
text_leaders
100
AcDbText
 10
4.760000000000001
 20
3.077645063401954
 30
0.0
 40
0.125
  1
  (LENGTH AS REQUIRED)
  7
ROMANS
100
AcDbText
  0
TEXT
  5
18F
330
1E
100
AcDbEntity
  8
text_leaders
100
AcDbText
 10
4.760000000000001
 20
3.272149060409521
 30
0.0
 40
0.125
  1
PVC SCH 80 NIPPLE
  7
ROMANS
100
AcDbText
  0
TEXT
  5
193
330
1E
100
AcDbEntity
  8
text_leaders
100
AcDbText
 10
4.760000000000001
 20
4.110260816241147
 30
0.0
 40
0.125
  1
  (LENGTH AS REQUIRED)
  7
ROMANS
100
AcDbText
  0
TEXT
  5
198
330
1E
100
AcDbEntity
  8
text_leaders
100
AcDbText
 10
4.760000000000001
 20
4.290216804053102
 30
0.0
 40
0.125
  1
PVC SCH 80 NIPPLE
  7
ROMANS
100
AcDbText
  0
TEXT
  5
199
330
1E
100
AcDbEntity
  8
text_leaders
100
AcDbText
 10
4.760000000000001
 20
3.900616991880548
 30
0.0
 40
0.125
  1
PVC SCH 40 ELL
  7
ROMANS
100
AcDbText
  0
TEXT
  5
19A
330
1E
100
AcDbEntity
  8
text_leaders
100
AcDbText
 10
4.760000000000001
 20
3.700195773792132
 30
0.0
 40
0.125
  1
PVC SCH 40 STREET ELL
  7
ROMANS
100
AcDbText
  0
TEXT
  5
1A0
330
1E
100
AcDbEntity
  8
text_bubbles
100
AcDbText
 10
4.760000000000001
 20
2.996564498667342
 30
0.0
 40
0.125
  1
PVC LATERAL PIPE
  7
ROMANS
100
AcDbText
  0
TEXT
  5
1A1
330
1E
100
AcDbEntity
  8
text_bubbles
100
AcDbText
 10
4.760000000000001
 20
3.711250611753629
 30
0.0
 40
0.125
  1
PVC SCH 40 STREET ELL
  7
ROMANS
100
AcDbText
  0
TEXT
  5
1A2
330
1E
100
AcDbEntity
  8
text_bubbles
100
AcDbText
 10
4.760000000000001
 20
4.06
 30
0.0
 40
0.125
  1
PVC SCH 40 ELL
  7
ROMANS
100
AcDbText
  0
TEXT
  5
1A3
330
1E
100
AcDbEntity
  8
text_bubbles
100
AcDbText
 10
4.760000000000001
 20
4.288715363249814
 30
0.0
 40
0.125
  1
  (LENGTH AS REQUIRED)
  7
ROMANS
100
AcDbText
  0
TEXT
  5
1A4
330
1E
100
AcDbEntity
  8
text_bubbles
100
AcDbText
 10
4.760000000000001
 20
4.48
 30
0.0
 40
0.125
  1
PVC SCH 80 NIPPLE
  7
ROMANS
100
AcDbText
  0
TEXT
  5
1A5
330
1E
100
AcDbEntity
  8
text_bubbles
100
AcDbText
 10
4.760000000000001
 20
5.405936745776008
 30
0.0
 40
0.125
  1
FINISH GRADE/TOP OF MULCH
  7
ROMANS
100
AcDbText
  0
TEXT
  5
1A6
330
1E
100
AcDbEntity
  8
text_bubbles
100
AcDbText
 10
4.760000000000001
 20
3.345313886913712
 30
0.0
 40
0.125
  1
PVC SCH 40 TEE OR ELL
  7
ROMANS
100
AcDbText
  0
TEXT
  5
1A7
330
1E
100
AcDbEntity
  8
text_bubbles
100
AcDbText
 10
4.760000000000001
 20
4.888585618148939
 30
0.0
 40
0.125
  1
  RAIN BIRD 1806
  7
ROMANS
100
AcDbText
  0
TEXT
  5
1A8
330
1E
100
AcDbEntity
  8
text_bubbles
100
AcDbText
 10
4.760000000000001
 20
5.04
 30
0.0
 40
0.125
  1
POP-UP SPRAY SPRINKLER:
  7
ROMANS
100
AcDbText
  0
TEXT
  5
1A9
330
1E
100
AcDbEntity
  8
text_bubbles
100
AcDbText
 10
4.35869636375867
 20
3.006145403462033
 30
0.0
 40
0.125
  1
7
  7
ROMANS
 72
     4
 11
4.418220173282479
 21
3.068645403462033
 31
0.0
100
AcDbText
  0
CIRCLE
  5
1AA
330
1E
100
AcDbEntity
  8
text_bubbles
100
AcDbCircle
 10
4.418220173282479
 20
3.068645403462033
 30
0.0
 40
0.15625
  0
LWPOLYLINE
  5
1D4
330
1E
100
AcDbEntity
  8
instruct-callout
100
AcDbPolyline
 90
        4
 70
     1
 43
0.0
 10
11.84072718331551
 20
10.00891746304441
 10
11.84072718331551
 20
8.577431441702172
 10
16.27242397469758
 20
8.577431441702172
 10
16.27242397469758
 20
10.00891746304441
  0
TEXT
  5
1DA
330
1E
100
AcDbEntity
  8
instruct-callout
100
AcDbText
 10
12.17131960325753
 20
10.06603295376161
 30
0.0
 40
0.10000000149
  1
CHOOSING EQUIPMENT CALLOUT METHOD
  7
ROMANS
100
AcDbText
  0
TEXT
  5
1DB
330
1E
100
AcDbEntity
  8
instruct-callout
100
AcDbText
 10
11.93856983421081
 20
9.691921890286732
 30
0.0
 40
0.10000000149
  1
CHOOSE EITHER LEADERS OR BUBBLE CALLOUTS
  7
ROMANS
100
AcDbText
  0
TEXT
  5
1DC
330
1E
100
AcDbEntity
  8
instruct-callout
100
AcDbText
 10
11.93856983421081
 20
9.530021846799732
 30
0.0
 40
0.10000000149
  1
BY TURNING ON THE APPROPRIATE LAYER:
  7
ROMANS
100
AcDbText
  0
TEXT
  5
1DD
330
1E
100
AcDbEntity
  8
instruct-callout
100
AcDbText
 10
12.37491356647363
 20
9.193004552324556
 30
0.0
 40
0.10000000149
  1
TEXT_LEADERS         TEXT_BUBBLES
  7
ROMANS
100
AcDbText
  0
LINE
  5
1DE
330
1E
100
AcDbEntity
  8
instruct-callout
100
AcDbLine
 10
12.68203821843043
 20
8.940533298622941
 30
0.0
 11
12.81830676428905
 21
8.940533298622939
 31
0.0
  0
LINE
  5
1DF
330
1E
100
AcDbEntity
  8
instruct-callout
100
AcDbLine
 10
12.3942678039521
 20
8.820781596816658
 30
0.0
 11
12.68203821843043
 21
8.940533298622941
 31
0.0
  0
SOLID
  5
1E0
330
1E
100
AcDbEntity
  8
instruct-callout
100
AcDbTrace
 10
12.47965380149243
 20
8.823819922678547
 30
0.0
 11
12.4566019166007
 21
8.879214963999393
 31
0.0
 12
12.30194273508402
 22
8.78236178866377
 32
0.0
 13
12.30194273508402
 23
8.78236178866377
 33
0.0
  0
TEXT
  5
1E1
330
1E
100
AcDbEntity
  8
instruct-callout
100
AcDbText
 10
12.84428150130618
 20
8.875782689229041
 30
0.0
 40
0.10000000149
  1
ITEM 1
  7
ROMANS
100
AcDbText
  0
SOLID
  5
1E2
330
1E
100
AcDbEntity
  8
instruct-callout
100
AcDbTrace
 10
14.62212312954185
 20
8.837245957229946
 30
0.0
 11
14.63792542319619
 21
8.779364289015717
 31
0.0
 12
14.45637927172634
 22
8.760898242159814
 32
0.0
 13
14.45637927172634
 23
8.760898242159814
 33
0.0
  0
LINE
  5
1E3
330
1E
100
AcDbEntity
  8
instruct-callout
100
AcDbLine
 10
14.55284871875005
 20
8.787235398250381
 30
0.0
 11
14.8087301356749
 21
8.857093669714998
 31
0.0
  0
TEXT
  5
1E4
330
1E
100
AcDbEntity
  8
instruct-callout
100
AcDbText
 10
14.88884075397835
 20
8.840015114828203
 30
0.0
 40
0.1
  1
1
  7
ROMANS
 72
     4
 11
14.92931694445454
 21
8.890015114828203
 31
0.0
100
AcDbText
  0
CIRCLE
  5
1E5
330
1E
100
AcDbEntity
  8
instruct-callout
100
AcDbCircle
 10
14.92931694445454
 20
8.890015114828203
 30
0.0
 40
0.125
  0
TEXT
  5
1E6
330
1E
100
AcDbEntity
  8
instruct-callout
100
AcDbText
 10
11.8797545305326
 20
8.22620338496676
 30
0.0
 40
0.10000000149
  1
LAYER "INSTRUCT-CALLOUT".
  7
ROMANS
100
AcDbText
  0
TEXT
  5
1E7
330
1E
100
AcDbEntity
  8
instruct-callout
100
AcDbText
 10
11.8797545305326
 20
8.38810342845476
 30
0.0
 40
0.10000000149
  1
TO TURN OFF THIS INSTRUCTION BOX, TURN OFF
  7
ROMANS
100
AcDbText
  0
LEADER
  5
23F
330
1E
100
AcDbEntity
  8
text_leaders
100
AcDbLeader
  3
Standard
 76
     3
 10
4.017390347188547
 20
2.490768401263158
 30
0.0
 10
4.547671385504213
 20
1.854146957075354
 30
0.0
 10
4.734025262982872
 20
1.854146957075354
 30
0.0
211
-1.0
221
0.0
231
0.0
210
0.0
220
0.0
230
-1.0
  0
LEADER
  5
241
330
1E
100
AcDbEntity
  8
text_leaders
100
AcDbLeader
  3
Standard
 76
     3
 10
4.29762143997226
 20
2.514367375759217
 30
0.0
 10
4.547671385504212
 20
2.216369454843527
 30
0.0
 10
4.734025262982871
 20
2.216369454843528
 30
0.0
211
-1.0
221
0.0
231
0.0
210
0.0
220
0.0
230
-1.0
  0
LEADER
  5
242
330
1E
100
AcDbEntity
  8
text_leaders
100
AcDbLeader
  3
Standard
 76
     3
 10
4.023508272480872
 20
2.615084070641933
 30
0.0
 10
4.553141627621172
 20
2.851022075562393
 30
0.0
 10
4.734025262982871
 20
2.851022075562392
 30
0.0
  0
LEADER
  5
243
330
1E
100
AcDbEntity
  8
text_leaders
100
AcDbLeader
  3
Standard
 76
     3
 10
3.329591696293942
 20
2.825823828639862
 30
0.0
 10
4.553141627621172
 20
3.334987311574725
 30
0.0
 10
4.734025262982871
 20
3.334987311574724
 30
0.0
  0
LEADER
  5
244
330
1E
100
AcDbEntity
  8
text_leaders
100
AcDbLeader
  3
Standard
 76
     3
 10
2.504530234049993
 20
3.298806529115216
 30
0.0
 10
4.553141627621174
 20
4.360133288270055
 30
0.0
 10
4.734025262982871
 20
4.360133288270055
 30
0.0
  0
LEADER
  5
245
330
1E
100
AcDbEntity
  8
text_leaders
100
AcDbLeader
  3
Standard
 76
     3
 10
2.672843235015546
 20
2.981780102837157
 30
0.0
 10
4.553141627621174
 20
3.764240429157801
 30
0.0
 10
4.734025262982871
 20
3.7642404291578
 30
0.0
  0
LEADER
  5
248
330
1E
100
AcDbEntity
  8
text_leaders
100
AcDbLeader
  3
Standard
 76
     3
 10
2.519604000704021
 20
3.073585248890471
 30
0.0
 10
4.553141627621174
 20
3.968766833315472
 30
0.0
 10
4.734025262982871
 20
3.968766833315471
 30
0.0
  0
LEADER
  5
24E
330
1E
100
AcDbEntity
  8
text_leaders
100
AcDbLeader
  3
Standard
 76
     3
 10
2.627828782382153
 20
4.314429601266857
 30
0.0
 10
4.547671385504211
 20
5.155096412981608
 30
0.0
 10
4.734025262982871
 20
5.155096412981607
 30
0.0
  0
LEADER
  5
24F
330
1E
100
AcDbEntity
  8
text_leaders
100
AcDbLeader
  3
Standard
 76
     3
 10
3.854600114133155
 20
6.076802910745991
 30
0.0
 10
4.547671385504212
 20
5.628999816770719
 30
0.0
 10
4.734025262982871
 20
5.628999816770718
 30
0.0
  0
LEADER
  5
255
330
1E
100
AcDbEntity
  8
text_bubbles
100
AcDbLeader
  3
Standard
 76
     2
 10
2.323424182674922
 20
3.000611898088905
 30
0.0
 10
0.8721571422536133
 20
3.449657701191062
 30
0.0
  0
LEADER
  5
256
330
1E
100
AcDbEntity
  8
text_bubbles
100
AcDbLeader
  3
Standard
 76
     2
 10
3.764201493254164
 20
2.490768401263157
 30
0.0
 10
3.897933242317456
 20
1.955348008174453
 30
0.0
  0
LEADER
  5
257
330
1E
100
AcDbEntity
  8
text_bubbles
100
AcDbLeader
  3
Standard
 76
     2
 10
1.167632068974923
 20
6.076802910745993
 30
0.0
 10
0.8721571422536133
 20
5.541069538776902
 30
0.0
  0
LEADER
  5
258
330
1E
100
AcDbEntity
  8
text_bubbles
100
AcDbLeader
  3
Standard
 76
     2
 10
3.985065673734272
 20
2.547969608810296
 30
0.0
 10
4.274120320707364
 20
1.955348008174453
 30
0.0
  0
LEADER
  5
259
330
1E
100
AcDbEntity
  8
text_bubbles
100
AcDbLeader
  3
Standard
 76
     2
 10
2.578089725621017
 20
2.811412068278533
 30
0.0
 10
2.79189800336527
 20
1.955390121977157
 30
0.0
  0
LEADER
  5
25A
330
1E
100
AcDbEntity
  8
text_bubbles
100
AcDbLeader
  3
Standard
 76
     2
 10
4.485427435212832
 20
2.514367375759217
 30
0.0
 10
4.625182600554063
 20
1.954831094455034
 30
0.0
  0
LEADER
  5
25B
330
1E
100
AcDbEntity
  8
text_bubbles
100
AcDbLeader
  3
Standard
 76
     2
 10
3.38317752017002
 20
2.650858128234317
 30
0.0
 10
3.556611011978984
 20
1.956484286498694
 30
0.0
  0
LEADER
  5
25C
330
1E
100
AcDbEntity
  8
text_bubbles
100
AcDbLeader
  3
Standard
 76
     2
 10
2.337697083802058
 20
3.292905209985559
 30
0.0
 10
0.8721571422536133
 20
3.789774398326072
 30
0.0
  0
LEADER
  5
25D
330
1E
100
AcDbEntity
  8
text_bubbles
100
AcDbLeader
  3
Standard
 76
     2
 10
2.215426355022171
 20
4.616330923260133
 30
0.0
 10
0.8721571422536133
 20
5.075285388808097
 30
0.0
  0
INSERT
  5
274
330
1E
100
AcDbEntity
  8
title
100
AcDbBlockReference
 66
     1
  2
titleblock
 10
0.1064708094271038
 20
-0.1143646667846376
 30
0.0
  0
ATTRIB
  5
275
330
274
100
AcDbEntity
  8
title
100
AcDbText
 10
0.6120264132294459
 20
0.6698624296937297
 30
0.0
 40
0.2
  1
D
  7
L200
 72
     4
 11
0.7129131799415878
 21
0.7698624296937297
 31
0.0
100
AcDbAttribute
  2
D
 70
     0
  0
ATTRIB
  5
276
330
274
100
AcDbEntity
  8
title
100
AcDbText
 10
1.337913179941587
 20
1.229347635962112
 30
0.0
 40
0.2
  1

  7
L200
100
AcDbAttribute
  2
TITLE1
 70
     0
  0
ATTRIB
  5
277
330
274
100
AcDbEntity
  8
title
100
AcDbText
 10
1.337913179941587
 20
0.8698624296937298
 30
0.0
 40
0.2
  1
1806 POP-UP SPRAY SPRINKLER
  7
L200
100
AcDbAttribute
  2
TITLE2
 70
     0
  0
ATTRIB
  5
278
330
274
100
AcDbEntity
  8
title
100
AcDbText
 10
2.820116560595416
 20
0.4784280996736813
 30
0.0
 40
0.2
  1
WITH ROTARY NOZZLE
  7
L200
100
AcDbAttribute
  2
TITLE3
 70
     0
  0
ATTRIB
  5
279
330
274
100
AcDbEntity
  8
title
100
AcDbText
 10
2.820116560595416
 20
0.1548914140321366
 30
0.0
 40
0.2
  1

  7
L200
100
AcDbAttribute
  2
TITLE4
 70
     0
  0
ATTRIB
  5
27A
330
274
100
AcDbEntity
  8
title
 62
     7
100
AcDbText
 10
7.79987611558396
 20
0.8552381247600022
 30
0.0
 40
0.08
  1
6-24-08
  7
L80
 72
     2
 11
8.367495163203008
 21
0.8552381247600022
 31
0.0
100
AcDbAttribute
  2
REVISED
 70
     0
  0
ATTRIB
  5
27B
330
274
100
AcDbEntity
  8
title
 62
     7
100
AcDbText
 10
0.3704131799415877
 20
-0.0296530187639163
 30
0.0
 40
0.08
  1
S-1806Rotary-SJ.DWG
  7
L80
100
AcDbAttribute
  2
DWG-NAME
 70
     0
  0
ATTRIB
  5
27C
330
274
100
AcDbEntity
  8
title
 62
     7
100
AcDbText
 10
1.337913179941587
 20
0.5861991126108518
 30
0.0
 40
0.1
  1
N.T.S.
  7
L100
100
AcDbAttribute
  2
SCALE
 70
     0
  0
SEQEND
  5
27D
330
274
100
AcDbEntity
  8
image
  0
TEXT
  5
339
330
1E
100
AcDbEntity
  8
instruct-option
100
AcDbText
 10
11.90722252644247
 20
7.012608208010976
 30
0.0
 40
0.1
  1
  OPTION-SAM
  7
ROMANS
100
AcDbText
  0
TEXT
  5
33A
330
1E
100
AcDbEntity
  8
instruct-option
100
AcDbText
 10
11.90722252644247
 20
7.216683164264776
 30
0.0
 40
0.1
  1
%%uSAM SERIES%%u
  7
ROMANS
100
AcDbText
  0
TEXT
  5
33B
330
1E
100
AcDbEntity
  8
instruct-option
100
AcDbText
 10
11.88377100218218
 20
7.434680234512762
 30
0.0
 40
0.1
  1
BY TURNING ON THE APPROPRIATE LAYER:
  7
ROMANS
100
AcDbText
  0
TEXT
  5
33C
330
1E
100
AcDbEntity
  8
instruct-option
100
AcDbText
 10
11.88377100218218
 20
7.574680234512762
 30
0.0
 40
0.1
  1
CHOOSE ONE OF THE FOLLOWING OPTIONS
  7
ROMANS
100
AcDbText
  0
TEXT
  5
33F
330
1E
100
AcDbEntity
  8
instruct-option
100
AcDbText
 10
12.02784606601802
 20
7.829318534195838
 30
0.0
 40
0.1
  1
CHOOSING OPTIONAL FEATURES
  7
ROMANS
100
AcDbText
  0
TEXT
  5
340
330
1E
100
AcDbEntity
  8
instruct-option
100
AcDbText
 10
11.86638704020311
 20
6.545661816887399
 30
0.0
 40
0.1
  1
TO TURN OFF THIS INSTRUCTION BOX, TURN OFF
  7
ROMANS
100
AcDbText
  0
TEXT
  5
341
330
1E
100
AcDbEntity
  8
instruct-option
100
AcDbText
 10
11.86638704020311
 20
6.375741245460197
 30
0.0
 40
0.1
  1
LAYER "INSTRUCT-OPTION".
  7
ROMANS
100
AcDbText
  0
LINE
  5
352
330
1E
100
AcDbEntity
  8
instruct-option
100
AcDbLine
 10
16.26435372696147
 20
6.710591584121929
 30
0.0
 11
16.26435372696147
 21
7.794199907622217
 31
0.0
  0
LINE
  5
353
330
1E
100
AcDbEntity
  8
instruct-option
100
AcDbLine
 10
16.26435372696147
 20
7.794199907622217
 30
0.0
 11
11.81768693155059
 21
7.794199907622219
 31
0.0
  0
LINE
  5
354
330
1E
100
AcDbEntity
  8
instruct-option
100
AcDbLine
 10
11.8176869315506
 20
6.710591584121929
 30
0.0
 11
16.26435372696147
 21
6.710591584121928
 31
0.0
  0
LINE
  5
355
330
1E
100
AcDbEntity
  8
instruct-option
100
AcDbLine
 10
11.81768693155059
 20
7.794199907622219
 30
0.0
 11
11.8176869315506
 21
6.71059158412193
 31
0.0
  0
TEXT
  5
364
330
1E
100
AcDbEntity
  8
option-sam
100
AcDbText
 10
6.562598292549683
 20
4.895778615198771
 30
0.0
 40
0.125
  1
-SAM
  7
ROMANS
100
AcDbText
  0
LWPOLYLINE
  5
51B
330
1E
100
AcDbEntity
  8
image
100
AcDbPolyline
 90
        2
 70
     0
 43
0.0
 10
2.794158604624282
 20
4.703718474677812
 42
0.414213562373093
 10
2.822214076655005
 20
4.731773946708536
 42
0.414213562373093
  0
LWPOLYLINE
  5
51C
330
1E
100
AcDbEntity
  8
image
100
AcDbPolyline
 90
        2
 70
   128
 43
0.0
 10
2.822214076655005
 20
4.950279889860722
 42
0.4142135623730951
 10
2.794158604624282
 20
4.978335361891446
 42
0.4142135623730951
  0
ARC
  5
51D
330
1E
100
AcDbEntity
  8
image
100
AcDbCircle
 10
3.771922263059689
 20
6.916295915864579
 30
0.0
 40
0.1566980695398199
100
AcDbArc
 50
98.53076560994793
 51
187.7294390983636
  0
ARC
  5
51E
330
1E
100
AcDbEntity
  8
image
100
AcDbCircle
 10
3.59340325422386
 20
7.050185172491451
 30
0.0
 40
0.1566980695398199
100
AcDbArc
 50
278.5307656099479
 51
7.729439098363579
  0
ARC
  5
51F
330
1E
100
AcDbEntity
  8
image
100
AcDbCircle
 10
3.34942727548156
 20
6.810672168970047
 30
0.0
 40
0.1566980695398199
100
AcDbArc
 50
98.53076560994793
 51
187.7294390983636
  0
ARC
  5
520
330
1E
100
AcDbEntity
  8
image
100
AcDbCircle
 10
3.170908266645732
 20
6.944561425596919
 30
0.0
 40
0.1566980695398199
100
AcDbArc
 50
278.5307656099479
 51
7.729439098363579
  0
ARC
  5
521
330
1E
100
AcDbEntity
  8
image
100
AcDbCircle
 10
3.462032931232836
 20
6.580673967764398
 30
0.0
 40
0.1566980695398199
100
AcDbArc
 50
159.7199718669748
 51
248.9186453553905
  0
ARC
  5
522
330
1E
100
AcDbEntity
  8
image
100
AcDbCircle
 10
3.258685377026754
 20
6.488776515382803
 30
0.0
 40
0.1566980695398199
100
AcDbArc
 50
339.7199718669747
 51
68.91864535539044
  0
ARC
  5
523
330
1E
100
AcDbEntity
  8
image
100
AcDbCircle
 10
3.780724241967566
 20
6.678642485351883
 30
0.0
 40
0.1566980695398199
100
AcDbArc
 50
98.53076560994793
 51
187.7294390983636
  0
ARC
  5
524
330
1E
100
AcDbEntity
  8
image
100
AcDbCircle
 10
3.602205233131737
 20
6.812531741978754
 30
0.0
 40
0.1566980695398199
100
AcDbArc
 50
278.5307656099479
 51
7.729439098363579
  0
ARC
  5
525
330
1E
100
AcDbEntity
  8
image
100
AcDbCircle
 10
2.967018762772103
 20
6.934293722550875
 30
0.0
 40
0.1566980695398199
100
AcDbArc
 50
143.5307656099477
 51
232.7294390983635
  0
ARC
  5
526
330
1E
100
AcDbEntity
  8
image
100
AcDbCircle
 10
2.746112759764701
 20
6.902735722121247
 30
0.0
 40
0.1566980695398199
100
AcDbArc
 50
323.5307656099477
 51
52.72943909836342
  0
ARC
  5
527
330
1E
100
AcDbEntity
  8
image
100
AcDbCircle
 10
3.111773844968864
 20
6.256147497773755
 30
0.0
 40
0.1566980695398199
100
AcDbArc
 50
98.53076560994793
 51
187.7294390983636
  0
ARC
  5
528
330
1E
100
AcDbEntity
  8
image
100
AcDbCircle
 10
2.933254836133035
 20
6.390036754400626
 30
0.0
 40
0.1566980695398199
100
AcDbArc
 50
278.5307656099479
 51
7.729439098363579
  0
ARC
  5
529
330
1E
100
AcDbEntity
  8
image
100
AcDbCircle
 10
3.455051022376093
 20
6.132919793063466
 30
0.0
 40
0.1566980695398199
100
AcDbArc
 50
98.53076560994793
 51
187.7294390983636
  0
ARC
  5
52A
330
1E
100
AcDbEntity
  8
image
100
AcDbCircle
 10
3.276532013540264
 20
6.266809049690339
 30
0.0
 40
0.1566980695398199
100
AcDbArc
 50
278.5307656099479
 51
7.729439098363579
  0
ARC
  5
52B
330
1E
100
AcDbEntity
  8
image
100
AcDbCircle
 10
3.012229967606181
 20
6.700024009171867
 30
0.0
 40
0.1566980695398199
100
AcDbArc
 50
339.7199718669747
 51
68.91864535539044
  0
ARC
  5
52C
330
1E
100
AcDbEntity
  8
image
100
AcDbCircle
 10
3.215577521812262
 20
6.791921461553462
 30
0.0
 40
0.1566980695398199
100
AcDbArc
 50
159.7199718669748
 51
248.9186453553905
  0
ARC
  5
52D
330
1E
100
AcDbEntity
  8
image
100
AcDbCircle
 10
3.029833925421935
 20
6.981687334223953
 30
0.0
 40
0.1566980695398199
100
AcDbArc
 50
339.7199718669747
 51
68.91864535539044
  0
ARC
  5
52E
330
1E
100
AcDbEntity
  8
image
100
AcDbCircle
 10
3.233181479628018
 20
7.073584786605547
 30
0.0
 40
0.1566980695398199
100
AcDbArc
 50
159.7199718669748
 51
248.9186453553905
  0
ARC
  5
52F
330
1E
100
AcDbEntity
  8
image
100
AcDbCircle
 10
3.469932870815819
 20
6.356746831764638
 30
0.0
 40
0.1566980695398199
100
AcDbArc
 50
339.7199718669747
 51
68.91864535539044
  0
ARC
  5
530
330
1E
100
AcDbEntity
  8
image
100
AcDbCircle
 10
3.673280425021902
 20
6.448644284146232
 30
0.0
 40
0.1566980695398199
100
AcDbArc
 50
159.7199718669748
 51
248.9186453553905
  0
ARC
  5
531
330
1E
100
AcDbEntity
  8
image
100
AcDbCircle
 10
3.417120997368552
 20
6.286331000501617
 30
0.0
 40
0.1566980695398199
100
AcDbArc
 50
339.7199718669747
 51
68.91864535539044
  0
ARC
  5
532
330
1E
100
AcDbEntity
  8
image
100
AcDbCircle
 10
3.620468551574635
 20
6.378228452883211
 30
0.0
 40
0.1566980695398199
100
AcDbArc
 50
159.7199718669748
 51
248.9186453553905
  0
ARC
  5
533
330
1E
100
AcDbEntity
  8
image
100
AcDbCircle
 10
3.584358596618228
 20
6.744033903711255
 30
0.0
 40
0.1566980695398199
100
AcDbArc
 50
339.7199718669747
 51
68.91864535539044
  0
ARC
  5
534
330
1E
100
AcDbEntity
  8
image
100
AcDbCircle
 10
3.78770615082431
 20
6.835931356092849
 30
0.0
 40
0.1566980695398199
100
AcDbArc
 50
159.7199718669748
 51
248.9186453553905
  0
ARC
  5
535
330
1E
100
AcDbEntity
  8
image
100
AcDbCircle
 10
3.285091313750388
 20
6.708825988079745
 30
0.0
 40
0.1566980695398199
100
AcDbArc
 50
339.7199718669747
 51
68.91864535539044
  0
ARC
  5
536
330
1E
100
AcDbEntity
  8
image
100
AcDbCircle
 10
3.48843886795647
 20
6.800723440461339
 30
0.0
 40
0.1566980695398199
100
AcDbArc
 50
159.7199718669748
 51
248.9186453553905
  0
ARC
  5
537
330
1E
100
AcDbEntity
  8
image
100
AcDbCircle
 10
3.417120997368552
 20
6.964083376408197
 30
0.0
 40
0.1566980695398199
100
AcDbArc
 50
339.7199718669747
 51
68.91864535539044
  0
ARC
  5
538
330
1E
100
AcDbEntity
  8
image
100
AcDbCircle
 10
3.620468551574635
 20
7.055980828789791
 30
0.0
 40
0.1566980695398199
100
AcDbArc
 50
159.7199718669748
 51
248.9186453553905
  0
ARC
  5
539
330
1E
100
AcDbEntity
  8
image
100
AcDbCircle
 10
3.12665569340859
 20
6.761637861527011
 30
0.0
 40
0.1566980695398199
100
AcDbArc
 50
339.7199718669747
 51
68.91864535539044
  0
ARC
  5
53A
330
1E
100
AcDbEntity
  8
image
100
AcDbCircle
 10
3.330003247614672
 20
6.853535313908605
 30
0.0
 40
0.1566980695398199
100
AcDbArc
 50
159.7199718669748
 51
248.9186453553905
  0
ARC
  5
53B
330
1E
100
AcDbEntity
  8
image
100
AcDbCircle
 10
2.886410944607062
 20
6.469096770950748
 30
0.0
 40
0.1566980695398199
100
AcDbArc
 50
339.7199718669747
 51
68.91864535539044
  0
ARC
  5
53C
330
1E
100
AcDbEntity
  8
image
100
AcDbCircle
 10
3.089758498813143
 20
6.560994223332342
 30
0.0
 40
0.1566980695398199
100
AcDbArc
 50
159.7199718669748
 51
248.9186453553905
  0
ARC
  5
53D
330
1E
100
AcDbEntity
  8
image
100
AcDbCircle
 10
3.065041841053447
 20
6.347944852856761
 30
0.0
 40
0.1566980695398199
100
AcDbArc
 50
339.7199718669747
 51
68.91864535539044
  0
ARC
  5
53E
330
1E
100
AcDbEntity
  8
image
100
AcDbCircle
 10
3.268389395259529
 20
6.439842305238355
 30
0.0
 40
0.1566980695398199
100
AcDbArc
 50
159.7199718669748
 51
248.9186453553905
  0
ARC
  5
53F
330
1E
100
AcDbEntity
  8
image
100
AcDbCircle
 10
3.12665569340859
 20
6.497578494290681
 30
0.0
 40
0.1566980695398199
100
AcDbArc
 50
339.7199718669747
 51
68.91864535539044
  0
ARC
  5
540
330
1E
100
AcDbEntity
  8
image
100
AcDbCircle
 10
3.330003247614672
 20
6.589475946672275
 30
0.0
 40
0.1566980695398199
100
AcDbArc
 50
159.7199718669748
 51
248.9186453553905
  0
ARC
  5
541
330
1E
100
AcDbEntity
  8
image
100
AcDbCircle
 10
3.487536828631573
 20
6.550390367737947
 30
0.0
 40
0.1566980695398199
100
AcDbArc
 50
339.7199718669747
 51
68.91864535539044
  0
ARC
  5
542
330
1E
100
AcDbEntity
  8
image
100
AcDbCircle
 10
3.690884382837657
 20
6.642287820119541
 30
0.0
 40
0.1566980695398199
100
AcDbArc
 50
159.7199718669748
 51
248.9186453553905
  0
ARC
  5
543
330
1E
100
AcDbEntity
  8
image
100
AcDbCircle
 10
3.637170470065494
 20
6.321538916133127
 30
0.0
 40
0.1566980695398199
100
AcDbArc
 50
339.7199718669747
 51
68.91864535539044
  0
ARC
  5
544
330
1E
100
AcDbEntity
  8
image
100
AcDbCircle
 10
3.840518024271577
 20
6.413436368514722
 30
0.0
 40
0.1566980695398199
100
AcDbArc
 50
159.7199718669748
 51
248.9186453553905
  0
ARC
  5
545
330
1E
100
AcDbEntity
  8
image
100
AcDbCircle
 10
2.904548380106498
 20
6.911537701029124
 30
0.0
 40
0.1566980695398199
100
AcDbArc
 50
323.5307656099477
 51
52.72943909836342
  0
ARC
  5
546
330
1E
100
AcDbEntity
  8
image
100
AcDbCircle
 10
3.125454383113901
 20
6.943095701458752
 30
0.0
 40
0.1566980695398199
100
AcDbArc
 50
143.5307656099477
 51
232.7294390983635
  0
ARC
  5
547
330
1E
100
AcDbEntity
  8
image
100
AcDbCircle
 10
3.362251283316138
 20
6.823517911950348
 30
0.0
 40
0.1566980695398199
100
AcDbArc
 50
323.5307656099477
 51
52.72943909836342
  0
ARC
  5
548
330
1E
100
AcDbEntity
  8
image
100
AcDbCircle
 10
3.583157286323541
 20
6.855075912379976
 30
0.0
 40
0.1566980695398199
100
AcDbArc
 50
143.5307656099477
 51
232.7294390983635
  0
ARC
  5
549
330
1E
100
AcDbEntity
  8
image
100
AcDbCircle
 10
3.23902357860585
 20
7.025963426831534
 30
0.0
 40
0.1566980695398199
100
AcDbArc
 50
323.5307656099477
 51
52.72943909836342
  0
ARC
  5
54A
330
1E
100
AcDbEntity
  8
image
100
AcDbCircle
 10
3.459929581613253
 20
7.057521427261162
 30
0.0
 40
0.1566980695398199
100
AcDbArc
 50
143.5307656099477
 51
232.7294390983635
  0
ARC
  5
54B
330
1E
100
AcDbEntity
  8
image
100
AcDbCircle
 10
3.485478988026425
 20
7.105181237002433
 30
0.0
 40
0.1566980695398199
100
AcDbArc
 50
323.5307656099477
 51
52.72943909836342
  0
ARC
  5
54C
330
1E
100
AcDbEntity
  8
image
100
AcDbCircle
 10
3.706384991033826
 20
7.136739237432061
 30
0.0
 40
0.1566980695398199
100
AcDbArc
 50
143.5307656099477
 51
232.7294390983635
  0
ARC
  5
54D
330
1E
100
AcDbEntity
  8
image
100
AcDbCircle
 10
3.626310650552468
 20
6.541854586898263
 30
0.0
 40
0.1566980695398199
100
AcDbArc
 50
323.5307656099477
 51
52.72943909836342
  0
ARC
  5
54E
330
1E
100
AcDbEntity
  8
image
100
AcDbCircle
 10
3.847216653559869
 20
6.57341258732789
 30
0.0
 40
0.1566980695398199
100
AcDbArc
 50
143.5307656099477
 51
232.7294390983635
  0
ARC
  5
54F
330
1E
100
AcDbEntity
  8
image
100
AcDbCircle
 10
3.485478988026425
 20
6.224983346214666
 30
0.0
 40
0.1566980695398199
100
AcDbArc
 50
323.5307656099477
 51
52.72943909836342
  0
ARC
  5
550
330
1E
100
AcDbEntity
  8
image
100
AcDbCircle
 10
3.706384991033826
 20
6.256541346644294
 30
0.0
 40
0.1566980695398199
100
AcDbArc
 50
143.5307656099477
 51
232.7294390983635
  0
ARC
  5
551
330
1E
100
AcDbEntity
  8
image
100
AcDbCircle
 10
3.327043367684626
 20
6.1721714727674
 30
0.0
 40
0.1566980695398199
100
AcDbArc
 50
323.5307656099477
 51
52.72943909836342
  0
ARC
  5
552
330
1E
100
AcDbEntity
  8
image
100
AcDbCircle
 10
3.547949370692029
 20
6.203729473197029
 30
0.0
 40
0.1566980695398199
100
AcDbArc
 50
143.5307656099477
 51
232.7294390983635
  0
ARC
  5
553
330
1E
100
AcDbEntity
  8
image
100
AcDbCircle
 10
3.036578063724663
 20
6.189775430583156
 30
0.0
 40
0.1566980695398199
100
AcDbArc
 50
323.5307656099477
 51
52.72943909836342
  0
ARC
  5
554
330
1E
100
AcDbEntity
  8
image
100
AcDbCircle
 10
3.257484066732067
 20
6.221333431012784
 30
0.0
 40
0.1566980695398199
100
AcDbArc
 50
143.5307656099477
 51
232.7294390983635
  0
ARC
  5
555
330
1E
100
AcDbEntity
  8
image
100
AcDbCircle
 10
3.221419620790095
 20
6.330607093109199
 30
0.0
 40
0.1566980695398199
100
AcDbArc
 50
323.5307656099477
 51
52.72943909836342
  0
ARC
  5
556
330
1E
100
AcDbEntity
  8
image
100
AcDbCircle
 10
3.442325623797497
 20
6.362165093538826
 30
0.0
 40
0.1566980695398199
100
AcDbArc
 50
143.5307656099477
 51
232.7294390983635
  0
ARC
  5
557
330
1E
100
AcDbEntity
  8
image
100
AcDbCircle
 10
3.344647325500382
 20
6.55065656580614
 30
0.0
 40
0.1566980695398199
100
AcDbArc
 50
323.5307656099477
 51
52.72943909836342
  0
ARC
  5
558
330
1E
100
AcDbEntity
  8
image
100
AcDbCircle
 10
3.565553328507784
 20
6.582214566235768
 30
0.0
 40
0.1566980695398199
100
AcDbArc
 50
143.5307656099477
 51
232.7294390983635
  0
ARC
  5
559
330
1E
100
AcDbEntity
  8
image
100
AcDbCircle
 10
3.415063156763403
 20
6.709092186147938
 30
0.0
 40
0.1566980695398199
100
AcDbArc
 50
323.5307656099477
 51
52.72943909836342
  0
ARC
  5
55A
330
1E
100
AcDbEntity
  8
image
100
AcDbCircle
 10
3.635969159770806
 20
6.740650186577566
 30
0.0
 40
0.1566980695398199
100
AcDbArc
 50
143.5307656099477
 51
232.7294390983635
  0
ARC
  5
55B
330
1E
100
AcDbEntity
  8
image
100
AcDbCircle
 10
3.459073051302791
 20
6.797111975226714
 30
0.0
 40
0.1566980695398199
100
AcDbArc
 50
323.5307656099477
 51
52.72943909836342
  0
ARC
  5
55C
330
1E
100
AcDbEntity
  8
image
100
AcDbCircle
 10
3.679979054310195
 20
6.828669975656342
 30
0.0
 40
0.1566980695398199
100
AcDbArc
 50
143.5307656099477
 51
232.7294390983635
  0
ARC
  5
55D
330
1E
100
AcDbEntity
  8
image
100
AcDbCircle
 10
3.142201810619196
 20
6.665082291608549
 30
0.0
 40
0.1566980695398199
100
AcDbArc
 50
323.5307656099477
 51
52.72943909836342
  0
ARC
  5
55E
330
1E
100
AcDbEntity
  8
image
100
AcDbCircle
 10
3.363107813626598
 20
6.696640292038178
 30
0.0
 40
0.1566980695398199
100
AcDbArc
 50
143.5307656099477
 51
232.7294390983635
  0
ARC
  5
55F
330
1E
100
AcDbEntity
  8
image
100
AcDbCircle
 10
3.001370148093153
 20
6.541854586898263
 30
0.0
 40
0.1566980695398199
100
AcDbArc
 50
323.5307656099477
 51
52.72943909836342
  0
ARC
  5
560
330
1E
100
AcDbEntity
  8
image
100
AcDbCircle
 10
3.222276151100555
 20
6.57341258732789
 30
0.0
 40
0.1566980695398199
100
AcDbArc
 50
143.5307656099477
 51
232.7294390983635
  0
ARC
  5
561
330
1E
100
AcDbEntity
  8
image
100
AcDbCircle
 10
2.922152337922254
 20
6.189775430583156
 30
0.0
 40
0.1566980695398199
100
AcDbArc
 50
323.5307656099477
 51
52.72943909836342
  0
ARC
  5
562
330
1E
100
AcDbEntity
  8
image
100
AcDbCircle
 10
3.143058340929657
 20
6.221333431012784
 30
0.0
 40
0.1566980695398199
100
AcDbArc
 50
143.5307656099477
 51
232.7294390983635
  0
ARC
  5
563
330
1E
100
AcDbEntity
  8
image
100
AcDbCircle
 10
2.772518696488333
 20
6.207379388398911
 30
0.0
 40
0.1566980695398199
100
AcDbArc
 50
323.5307656099477
 51
52.72943909836342
  0
ARC
  5
564
330
1E
100
AcDbEntity
  8
image
100
AcDbCircle
 10
2.993424699495736
 20
6.238937388828539
 30
0.0
 40
0.1566980695398199
100
AcDbArc
 50
143.5307656099477
 51
232.7294390983635
  0
ARC
  5
565
330
1E
100
AcDbEntity
  8
image
100
AcDbCircle
 10
2.816528591027722
 20
6.330607093109199
 30
0.0
 40
0.1566980695398199
100
AcDbArc
 50
323.5307656099477
 51
52.72943909836342
  0
ARC
  5
566
330
1E
100
AcDbEntity
  8
image
100
AcDbCircle
 10
3.037434594035125
 20
6.362165093538826
 30
0.0
 40
0.1566980695398199
100
AcDbArc
 50
143.5307656099477
 51
232.7294390983635
  0
ARC
  5
567
330
1E
100
AcDbEntity
  8
image
100
AcDbCircle
 10
2.904548380106498
 20
6.726696143963693
 30
0.0
 40
0.1566980695398199
100
AcDbArc
 50
323.5307656099477
 51
52.72943909836342
  0
ARC
  5
568
330
1E
100
AcDbEntity
  8
image
100
AcDbCircle
 10
3.125454383113901
 20
6.758254144393322
 30
0.0
 40
0.1566980695398199
100
AcDbArc
 50
143.5307656099477
 51
232.7294390983635
  0
ARC
  5
569
330
1E
100
AcDbEntity
  8
image
100
AcDbCircle
 10
3.626310650552468
 20
6.885131764305492
 30
0.0
 40
0.1566980695398199
100
AcDbArc
 50
323.5307656099477
 51
52.72943909836342
  0
ARC
  5
56A
330
1E
100
AcDbEntity
  8
image
100
AcDbCircle
 10
3.847216653559869
 20
6.916689764735119
 30
0.0
 40
0.1566980695398199
100
AcDbArc
 50
143.5307656099477
 51
232.7294390983635
  0
ARC
  5
56B
330
1E
100
AcDbEntity
  8
image
100
AcDbCircle
 10
3.098191916079807
 20
7.04356738464729
 30
0.0
 40
0.1566980695398199
100
AcDbArc
 50
323.5307656099477
 51
52.72943909836342
  0
ARC
  5
56C
330
1E
100
AcDbEntity
  8
image
100
AcDbCircle
 10
3.31909791908721
 20
7.075125385076917
 30
0.0
 40
0.1566980695398199
100
AcDbArc
 50
143.5307656099477
 51
232.7294390983635
  0
ARC
  5
56D
330
1E
100
AcDbEntity
  8
image
100
AcDbCircle
 10
3.582300756013079
 20
6.198577409491034
 30
0.0
 40
0.1566980695398199
100
AcDbArc
 50
323.5307656099477
 51
52.72943909836342
  0
ARC
  5
56E
330
1E
100
AcDbEntity
  8
image
100
AcDbCircle
 10
3.803206759020482
 20
6.230135409920661
 30
0.0
 40
0.1566980695398199
100
AcDbArc
 50
143.5307656099477
 51
232.7294390983635
  0
ARC
  5
56F
330
1E
100
AcDbEntity
  8
image
100
AcDbCircle
 10
3.327863724550369
 20
6.439779901928631
 30
0.0
 40
0.1566980695398199
100
AcDbArc
 50
296.0563205359582
 51
25.25499402437389
  0
ARC
  5
570
330
1E
100
AcDbEntity
  8
image
100
AcDbCircle
 10
3.53841459442449
 20
6.365863051677321
 30
0.0
 40
0.1566980695398199
100
AcDbArc
 50
116.0563205359582
 51
205.254994024374
  0
ARC
  5
571
330
1E
100
AcDbEntity
  8
image
100
AcDbCircle
 10
3.159618814363007
 20
6.278850119373449
 30
0.0
 40
0.1566980695398199
100
AcDbArc
 50
296.0563205359582
 51
25.25499402437389
  0
ARC
  5
572
330
1E
100
AcDbEntity
  8
image
100
AcDbCircle
 10
3.370169684237128
 20
6.204933269122139
 30
0.0
 40
0.1566980695398199
100
AcDbArc
 50
116.0563205359582
 51
205.254994024374
  0
ARC
  5
573
330
1E
100
AcDbEntity
  8
image
100
AcDbCircle
 10
3.137673826077699
 20
6.432464911812487
 30
0.0
 40
0.1566980695398199
100
AcDbArc
 50
296.0563205359582
 51
25.25499402437389
  0
ARC
  5
574
330
1E
100
AcDbEntity
  8
image
100
AcDbCircle
 10
3.348224695951818
 20
6.358548061561176
 30
0.0
 40
0.1566980695398199
100
AcDbArc
 50
116.0563205359582
 51
205.254994024374
  0
ARC
  5
575
330
1E
100
AcDbEntity
  8
image
100
AcDbCircle
 10
2.804841503750526
 20
6.757981971980922
 30
0.0
 40
0.1566980695398199
100
AcDbArc
 50
296.0563205359582
 51
25.25499402437389
  0
ARC
  5
576
330
1E
100
AcDbEntity
  8
image
100
AcDbCircle
 10
3.015392373624647
 20
6.684065121729612
 30
0.0
 40
0.1566980695398199
100
AcDbArc
 50
116.0563205359582
 51
205.254994024374
  0
ARC
  5
577
330
1E
100
AcDbEntity
  8
image
100
AcDbCircle
 10
3.554628603498553
 20
6.527559783322367
 30
0.0
 40
0.1566980695398199
100
AcDbArc
 50
296.0563205359582
 51
25.25499402437389
  0
ARC
  5
578
330
1E
100
AcDbEntity
  8
image
100
AcDbCircle
 10
3.765179473372672
 20
6.453642933071057
 30
0.0
 40
0.1566980695398199
100
AcDbArc
 50
116.0563205359582
 51
205.254994024374
  0
ARC
  5
579
330
1E
100
AcDbEntity
  8
image
100
AcDbCircle
 10
3.232768775314034
 20
6.739694496690561
 30
0.0
 40
0.1566980695398199
100
AcDbArc
 50
296.0563205359582
 51
25.25499402437389
  0
ARC
  5
57A
330
1E
100
AcDbEntity
  8
image
100
AcDbCircle
 10
3.443319645188155
 20
6.66577764643925
 30
0.0
 40
0.1566980695398199
100
AcDbArc
 50
116.0563205359582
 51
205.254994024374
  0
ARC
  5
57B
330
1E
100
AcDbEntity
  8
image
100
AcDbCircle
 10
3.291288744074856
 20
6.933541734768394
 30
0.0
 40
0.1566980695398199
100
AcDbArc
 50
296.0563205359582
 51
25.25499402437389
  0
ARC
  5
57C
330
1E
100
AcDbEntity
  8
image
100
AcDbCircle
 10
3.501839613948976
 20
6.859624884517083
 30
0.0
 40
0.1566980695398199
100
AcDbArc
 50
116.0563205359582
 51
205.254994024374
  0
ARC
  5
57D
330
1E
100
AcDbEntity
  8
image
100
AcDbCircle
 10
3.024291386603607
 20
6.948171715000682
 30
0.0
 40
0.1566980695398199
100
AcDbArc
 50
296.0563205359582
 51
25.25499402437389
  0
ARC
  5
57E
330
1E
100
AcDbEntity
  8
image
100
AcDbCircle
 10
3.234842256477727
 20
6.874254864749373
 30
0.0
 40
0.1566980695398199
100
AcDbArc
 50
116.0563205359582
 51
205.254994024374
  0
ARC
  5
57F
330
1E
100
AcDbEntity
  8
image
100
AcDbCircle
 10
2.859703974463797
 20
7.134703962962371
 30
0.0
 40
0.1566980695398199
100
AcDbArc
 50
296.0563205359582
 51
25.25499402437389
  0
ARC
  5
580
330
1E
100
AcDbEntity
  8
image
100
AcDbCircle
 10
3.070254844337917
 20
7.060787112711061
 30
0.0
 40
0.1566980695398199
100
AcDbArc
 50
116.0563205359582
 51
205.254994024374
  0
ARC
  5
581
330
1E
100
AcDbEntity
  8
image
100
AcDbCircle
 10
2.845073982273592
 20
6.977431675465261
 30
0.0
 40
0.1566980695398199
100
AcDbArc
 50
296.0563205359582
 51
25.25499402437389
  0
ARC
  5
582
330
1E
100
AcDbEntity
  8
image
100
AcDbCircle
 10
3.055624852147711
 20
6.90351482521395
 30
0.0
 40
0.1566980695398199
100
AcDbArc
 50
116.0563205359582
 51
205.254994024374
  0
ARC
  5
583
330
1E
100
AcDbEntity
  8
image
100
AcDbCircle
 10
2.753636531084807
 20
6.538532268496584
 30
0.0
 40
0.1566980695398199
100
AcDbArc
 50
296.0563205359582
 51
25.25499402437389
  0
ARC
  5
584
330
1E
100
AcDbEntity
  8
image
100
AcDbCircle
 10
2.964187400958928
 20
6.464615418245274
 30
0.0
 40
0.1566980695398199
100
AcDbArc
 50
116.0563205359582
 51
205.254994024374
  0
ARC
  5
585
330
1E
100
AcDbEntity
  8
image
100
AcDbCircle
 10
3.430273669881806
 20
6.597052189425741
 30
0.0
 40
0.1566980695398199
100
AcDbArc
 50
296.0563205359582
 51
25.25499402437389
  0
ARC
  5
586
330
1E
100
AcDbEntity
  8
image
100
AcDbCircle
 10
3.640824539755926
 20
6.52313533917443
 30
0.0
 40
0.1566980695398199
100
AcDbArc
 50
116.0563205359582
 51
205.254994024374
  0
ARC
  5
587
330
1E
100
AcDbEntity
  8
image
100
AcDbCircle
 10
2.023960707464558
 20
6.916295915864579
 30
0.0
 40
0.1566980695398199
100
AcDbArc
 50
98.53076560994793
 51
187.7294390983636
  0
ARC
  5
588
330
1E
100
AcDbEntity
  8
image
100
AcDbCircle
 10
1.84544169862873
 20
7.050185172491451
 30
0.0
 40
0.1566980695398199
100
AcDbArc
 50
278.5307656099479
 51
7.729439098363579
  0
ARC
  5
589
330
1E
100
AcDbEntity
  8
image
100
AcDbCircle
 10
1.601465719886429
 20
6.810672168970047
 30
0.0
 40
0.1566980695398199
100
AcDbArc
 50
98.53076560994793
 51
187.7294390983636
  0
ARC
  5
58A
330
1E
100
AcDbEntity
  8
image
100
AcDbCircle
 10
1.422946711050601
 20
6.944561425596919
 30
0.0
 40
0.1566980695398199
100
AcDbArc
 50
278.5307656099479
 51
7.729439098363579
  0
ARC
  5
58B
330
1E
100
AcDbEntity
  8
image
100
AcDbCircle
 10
1.714071375637705
 20
6.580673967764398
 30
0.0
 40
0.1566980695398199
100
AcDbArc
 50
159.7199718669748
 51
248.9186453553905
  0
ARC
  5
58C
330
1E
100
AcDbEntity
  8
image
100
AcDbCircle
 10
1.510723821431624
 20
6.488776515382803
 30
0.0
 40
0.1566980695398199
100
AcDbArc
 50
339.7199718669747
 51
68.91864535539044
  0
ARC
  5
58D
330
1E
100
AcDbEntity
  8
image
100
AcDbCircle
 10
2.032762686372435
 20
6.678642485351883
 30
0.0
 40
0.1566980695398199
100
AcDbArc
 50
98.53076560994793
 51
187.7294390983636
  0
ARC
  5
58E
330
1E
100
AcDbEntity
  8
image
100
AcDbCircle
 10
1.854243677536606
 20
6.812531741978754
 30
0.0
 40
0.1566980695398199
100
AcDbArc
 50
278.5307656099479
 51
7.729439098363579
  0
ARC
  5
58F
330
1E
100
AcDbEntity
  8
image
100
AcDbCircle
 10
1.219057207176972
 20
6.934293722550875
 30
0.0
 40
0.1566980695398199
100
AcDbArc
 50
143.5307656099477
 51
232.7294390983635
  0
ARC
  5
590
330
1E
100
AcDbEntity
  8
image
100
AcDbCircle
 10
0.9981512041695699
 20
6.902735722121247
 30
0.0
 40
0.1566980695398199
100
AcDbArc
 50
323.5307656099477
 51
52.72943909836342
  0
ARC
  5
591
330
1E
100
AcDbEntity
  8
image
100
AcDbCircle
 10
1.363812289373733
 20
6.256147497773755
 30
0.0
 40
0.1566980695398199
100
AcDbArc
 50
98.53076560994793
 51
187.7294390983636
  0
ARC
  5
592
330
1E
100
AcDbEntity
  8
image
100
AcDbCircle
 10
1.185293280537904
 20
6.390036754400626
 30
0.0
 40
0.1566980695398199
100
AcDbArc
 50
278.5307656099479
 51
7.729439098363579
  0
ARC
  5
593
330
1E
100
AcDbEntity
  8
image
100
AcDbCircle
 10
1.707089466780962
 20
6.132919793063466
 30
0.0
 40
0.1566980695398199
100
AcDbArc
 50
98.53076560994793
 51
187.7294390983636
  0
ARC
  5
594
330
1E
100
AcDbEntity
  8
image
100
AcDbCircle
 10
1.528570457945133
 20
6.266809049690339
 30
0.0
 40
0.1566980695398199
100
AcDbArc
 50
278.5307656099479
 51
7.729439098363579
  0
ARC
  5
595
330
1E
100
AcDbEntity
  8
image
100
AcDbCircle
 10
1.264268412011049
 20
6.700024009171867
 30
0.0
 40
0.1566980695398199
100
AcDbArc
 50
339.7199718669747
 51
68.91864535539044
  0
ARC
  5
596
330
1E
100
AcDbEntity
  8
image
100
AcDbCircle
 10
1.467615966217131
 20
6.791921461553462
 30
0.0
 40
0.1566980695398199
100
AcDbArc
 50
159.7199718669748
 51
248.9186453553905
  0
ARC
  5
597
330
1E
100
AcDbEntity
  8
image
100
AcDbCircle
 10
1.281872369826805
 20
6.981687334223953
 30
0.0
 40
0.1566980695398199
100
AcDbArc
 50
339.7199718669747
 51
68.91864535539044
  0
ARC
  5
598
330
1E
100
AcDbEntity
  8
image
100
AcDbCircle
 10
1.485219924032888
 20
7.073584786605547
 30
0.0
 40
0.1566980695398199
100
AcDbArc
 50
159.7199718669748
 51
248.9186453553905
  0
ARC
  5
599
330
1E
100
AcDbEntity
  8
image
100
AcDbCircle
 10
1.721971315220688
 20
6.356746831764638
 30
0.0
 40
0.1566980695398199
100
AcDbArc
 50
339.7199718669747
 51
68.91864535539044
  0
ARC
  5
59A
330
1E
100
AcDbEntity
  8
image
100
AcDbCircle
 10
1.925318869426771
 20
6.448644284146232
 30
0.0
 40
0.1566980695398199
100
AcDbArc
 50
159.7199718669748
 51
248.9186453553905
  0
ARC
  5
59B
330
1E
100
AcDbEntity
  8
image
100
AcDbCircle
 10
1.669159441773421
 20
6.286331000501617
 30
0.0
 40
0.1566980695398199
100
AcDbArc
 50
339.7199718669747
 51
68.91864535539044
  0
ARC
  5
59C
330
1E
100
AcDbEntity
  8
image
100
AcDbCircle
 10
1.872506995979505
 20
6.378228452883211
 30
0.0
 40
0.1566980695398199
100
AcDbArc
 50
159.7199718669748
 51
248.9186453553905
  0
ARC
  5
59D
330
1E
100
AcDbEntity
  8
image
100
AcDbCircle
 10
1.836397041023098
 20
6.744033903711255
 30
0.0
 40
0.1566980695398199
100
AcDbArc
 50
339.7199718669747
 51
68.91864535539044
  0
ARC
  5
59E
330
1E
100
AcDbEntity
  8
image
100
AcDbCircle
 10
2.039744595229179
 20
6.835931356092849
 30
0.0
 40
0.1566980695398199
100
AcDbArc
 50
159.7199718669748
 51
248.9186453553905
  0
ARC
  5
59F
330
1E
100
AcDbEntity
  8
image
100
AcDbCircle
 10
1.537129758155257
 20
6.708825988079745
 30
0.0
 40
0.1566980695398199
100
AcDbArc
 50
339.7199718669747
 51
68.91864535539044
  0
ARC
  5
5A0
330
1E
100
AcDbEntity
  8
image
100
AcDbCircle
 10
1.740477312361339
 20
6.800723440461339
 30
0.0
 40
0.1566980695398199
100
AcDbArc
 50
159.7199718669748
 51
248.9186453553905
  0
ARC
  5
5A1
330
1E
100
AcDbEntity
  8
image
100
AcDbCircle
 10
1.669159441773421
 20
6.964083376408197
 30
0.0
 40
0.1566980695398199
100
AcDbArc
 50
339.7199718669747
 51
68.91864535539044
  0
ARC
  5
5A2
330
1E
100
AcDbEntity
  8
image
100
AcDbCircle
 10
1.872506995979505
 20
7.055980828789791
 30
0.0
 40
0.1566980695398199
100
AcDbArc
 50
159.7199718669748
 51
248.9186453553905
  0
ARC
  5
5A3
330
1E
100
AcDbEntity
  8
image
100
AcDbCircle
 10
1.378694137813458
 20
6.761637861527011
 30
0.0
 40
0.1566980695398199
100
AcDbArc
 50
339.7199718669747
 51
68.91864535539044
  0
ARC
  5
5A4
330
1E
100
AcDbEntity
  8
image
100
AcDbCircle
 10
1.582041692019541
 20
6.853535313908605
 30
0.0
 40
0.1566980695398199
100
AcDbArc
 50
159.7199718669748
 51
248.9186453553905
  0
ARC
  5
5A5
330
1E
100
AcDbEntity
  8
image
100
AcDbCircle
 10
1.13844938901193
 20
6.469096770950748
 30
0.0
 40
0.1566980695398199
100
AcDbArc
 50
339.7199718669747
 51
68.91864535539044
  0
ARC
  5
5A6
330
1E
100
AcDbEntity
  8
image
100
AcDbCircle
 10
1.341796943218012
 20
6.560994223332342
 30
0.0
 40
0.1566980695398199
100
AcDbArc
 50
159.7199718669748
 51
248.9186453553905
  0
ARC
  5
5A7
330
1E
100
AcDbEntity
  8
image
100
AcDbCircle
 10
1.317080285458316
 20
6.347944852856761
 30
0.0
 40
0.1566980695398199
100
AcDbArc
 50
339.7199718669747
 51
68.91864535539044
  0
ARC
  5
5A8
330
1E
100
AcDbEntity
  8
image
100
AcDbCircle
 10
1.520427839664398
 20
6.439842305238355
 30
0.0
 40
0.1566980695398199
100
AcDbArc
 50
159.7199718669748
 51
248.9186453553905
  0
ARC
  5
5A9
330
1E
100
AcDbEntity
  8
image
100
AcDbCircle
 10
1.378694137813458
 20
6.497578494290681
 30
0.0
 40
0.1566980695398199
100
AcDbArc
 50
339.7199718669747
 51
68.91864535539044
  0
ARC
  5
5AA
330
1E
100
AcDbEntity
  8
image
100
AcDbCircle
 10
1.582041692019541
 20
6.589475946672275
 30
0.0
 40
0.1566980695398199
100
AcDbArc
 50
159.7199718669748
 51
248.9186453553905
  0
ARC
  5
5AB
330
1E
100
AcDbEntity
  8
image
100
AcDbCircle
 10
1.739575273036443
 20
6.550390367737947
 30
0.0
 40
0.1566980695398199
100
AcDbArc
 50
339.7199718669747
 51
68.91864535539044
  0
ARC
  5
5AC
330
1E
100
AcDbEntity
  8
image
100
AcDbCircle
 10
1.942922827242526
 20
6.642287820119541
 30
0.0
 40
0.1566980695398199
100
AcDbArc
 50
159.7199718669748
 51
248.9186453553905
  0
ARC
  5
5AD
330
1E
100
AcDbEntity
  8
image
100
AcDbCircle
 10
1.889208914470363
 20
6.321538916133127
 30
0.0
 40
0.1566980695398199
100
AcDbArc
 50
339.7199718669747
 51
68.91864535539044
  0
ARC
  5
5AE
330
1E
100
AcDbEntity
  8
image
100
AcDbCircle
 10
2.092556468676446
 20
6.413436368514722
 30
0.0
 40
0.1566980695398199
100
AcDbArc
 50
159.7199718669748
 51
248.9186453553905
  0
ARC
  5
5AF
330
1E
100
AcDbEntity
  8
image
100
AcDbCircle
 10
1.156586824511367
 20
6.911537701029124
 30
0.0
 40
0.1566980695398199
100
AcDbArc
 50
323.5307656099477
 51
52.72943909836342
  0
ARC
  5
5B0
330
1E
100
AcDbEntity
  8
image
100
AcDbCircle
 10
1.377492827518771
 20
6.943095701458752
 30
0.0
 40
0.1566980695398199
100
AcDbArc
 50
143.5307656099477
 51
232.7294390983635
  0
ARC
  5
5B1
330
1E
100
AcDbEntity
  8
image
100
AcDbCircle
 10
1.614289727721007
 20
6.823517911950348
 30
0.0
 40
0.1566980695398199
100
AcDbArc
 50
323.5307656099477
 51
52.72943909836342
  0
ARC
  5
5B2
330
1E
100
AcDbEntity
  8
image
100
AcDbCircle
 10
1.83519573072841
 20
6.855075912379976
 30
0.0
 40
0.1566980695398199
100
AcDbArc
 50
143.5307656099477
 51
232.7294390983635
  0
ARC
  5
5B3
330
1E
100
AcDbEntity
  8
image
100
AcDbCircle
 10
1.491062023010719
 20
7.025963426831534
 30
0.0
 40
0.1566980695398199
100
AcDbArc
 50
323.5307656099477
 51
52.72943909836342
  0
ARC
  5
5B4
330
1E
100
AcDbEntity
  8
image
100
AcDbCircle
 10
1.711968026018122
 20
7.057521427261162
 30
0.0
 40
0.1566980695398199
100
AcDbArc
 50
143.5307656099477
 51
232.7294390983635
  0
ARC
  5
5B5
330
1E
100
AcDbEntity
  8
image
100
AcDbCircle
 10
1.737517432431294
 20
7.105181237002433
 30
0.0
 40
0.1566980695398199
100
AcDbArc
 50
323.5307656099477
 51
52.72943909836342
  0
ARC
  5
5B6
330
1E
100
AcDbEntity
  8
image
100
AcDbCircle
 10
1.958423435438696
 20
7.136739237432061
 30
0.0
 40
0.1566980695398199
100
AcDbArc
 50
143.5307656099477
 51
232.7294390983635
  0
ARC
  5
5B7
330
1E
100
AcDbEntity
  8
image
100
AcDbCircle
 10
1.878349094957337
 20
6.541854586898263
 30
0.0
 40
0.1566980695398199
100
AcDbArc
 50
323.5307656099477
 51
52.72943909836342
  0
ARC
  5
5B8
330
1E
100
AcDbEntity
  8
image
100
AcDbCircle
 10
2.099255097964738
 20
6.57341258732789
 30
0.0
 40
0.1566980695398199
100
AcDbArc
 50
143.5307656099477
 51
232.7294390983635
  0
ARC
  5
5B9
330
1E
100
AcDbEntity
  8
image
100
AcDbCircle
 10
1.737517432431294
 20
6.224983346214666
 30
0.0
 40
0.1566980695398199
100
AcDbArc
 50
323.5307656099477
 51
52.72943909836342
  0
ARC
  5
5BA
330
1E
100
AcDbEntity
  8
image
100
AcDbCircle
 10
1.958423435438696
 20
6.256541346644294
 30
0.0
 40
0.1566980695398199
100
AcDbArc
 50
143.5307656099477
 51
232.7294390983635
  0
ARC
  5
5BB
330
1E
100
AcDbEntity
  8
image
100
AcDbCircle
 10
1.579081812089496
 20
6.1721714727674
 30
0.0
 40
0.1566980695398199
100
AcDbArc
 50
323.5307656099477
 51
52.72943909836342
  0
ARC
  5
5BC
330
1E
100
AcDbEntity
  8
image
100
AcDbCircle
 10
1.799987815096898
 20
6.203729473197029
 30
0.0
 40
0.1566980695398199
100
AcDbArc
 50
143.5307656099477
 51
232.7294390983635
  0
ARC
  5
5BD
330
1E
100
AcDbEntity
  8
image
100
AcDbCircle
 10
1.288616508129532
 20
6.189775430583156
 30
0.0
 40
0.1566980695398199
100
AcDbArc
 50
323.5307656099477
 51
52.72943909836342
  0
ARC
  5
5BE
330
1E
100
AcDbEntity
  8
image
100
AcDbCircle
 10
1.509522511136936
 20
6.221333431012784
 30
0.0
 40
0.1566980695398199
100
AcDbArc
 50
143.5307656099477
 51
232.7294390983635
  0
ARC
  5
5BF
330
1E
100
AcDbEntity
  8
image
100
AcDbCircle
 10
1.473458065194964
 20
6.330607093109199
 30
0.0
 40
0.1566980695398199
100
AcDbArc
 50
323.5307656099477
 51
52.72943909836342
  0
ARC
  5
5C0
330
1E
100
AcDbEntity
  8
image
100
AcDbCircle
 10
1.694364068202366
 20
6.362165093538826
 30
0.0
 40
0.1566980695398199
100
AcDbArc
 50
143.5307656099477
 51
232.7294390983635
  0
ARC
  5
5C1
330
1E
100
AcDbEntity
  8
image
100
AcDbCircle
 10
1.596685769905252
 20
6.55065656580614
 30
0.0
 40
0.1566980695398199
100
AcDbArc
 50
323.5307656099477
 51
52.72943909836342
  0
ARC
  5
5C2
330
1E
100
AcDbEntity
  8
image
100
AcDbCircle
 10
1.817591772912653
 20
6.582214566235768
 30
0.0
 40
0.1566980695398199
100
AcDbArc
 50
143.5307656099477
 51
232.7294390983635
  0
ARC
  5
5C3
330
1E
100
AcDbEntity
  8
image
100
AcDbCircle
 10
1.667101601168272
 20
6.709092186147938
 30
0.0
 40
0.1566980695398199
100
AcDbArc
 50
323.5307656099477
 51
52.72943909836342
  0
ARC
  5
5C4
330
1E
100
AcDbEntity
  8
image
100
AcDbCircle
 10
1.888007604175675
 20
6.740650186577566
 30
0.0
 40
0.1566980695398199
100
AcDbArc
 50
143.5307656099477
 51
232.7294390983635
  0
ARC
  5
5C5
330
1E
100
AcDbEntity
  8
image
100
AcDbCircle
 10
1.71111149570766
 20
6.797111975226714
 30
0.0
 40
0.1566980695398199
100
AcDbArc
 50
323.5307656099477
 51
52.72943909836342
  0
ARC
  5
5C6
330
1E
100
AcDbEntity
  8
image
100
AcDbCircle
 10
1.932017498715064
 20
6.828669975656342
 30
0.0
 40
0.1566980695398199
100
AcDbArc
 50
143.5307656099477
 51
232.7294390983635
  0
ARC
  5
5C7
330
1E
100
AcDbEntity
  8
image
100
AcDbCircle
 10
1.394240255024065
 20
6.665082291608549
 30
0.0
 40
0.1566980695398199
100
AcDbArc
 50
323.5307656099477
 51
52.72943909836342
  0
ARC
  5
5C8
330
1E
100
AcDbEntity
  8
image
100
AcDbCircle
 10
1.615146258031467
 20
6.696640292038178
 30
0.0
 40
0.1566980695398199
100
AcDbArc
 50
143.5307656099477
 51
232.7294390983635
  0
ARC
  5
5C9
330
1E
100
AcDbEntity
  8
image
100
AcDbCircle
 10
1.253408592498022
 20
6.541854586898263
 30
0.0
 40
0.1566980695398199
100
AcDbArc
 50
323.5307656099477
 51
52.72943909836342
  0
ARC
  5
5CA
330
1E
100
AcDbEntity
  8
image
100
AcDbCircle
 10
1.474314595505425
 20
6.57341258732789
 30
0.0
 40
0.1566980695398199
100
AcDbArc
 50
143.5307656099477
 51
232.7294390983635
  0
ARC
  5
5CB
330
1E
100
AcDbEntity
  8
image
100
AcDbCircle
 10
1.174190782327124
 20
6.189775430583156
 30
0.0
 40
0.1566980695398199
100
AcDbArc
 50
323.5307656099477
 51
52.72943909836342
  0
ARC
  5
5CC
330
1E
100
AcDbEntity
  8
image
100
AcDbCircle
 10
1.395096785334526
 20
6.221333431012784
 30
0.0
 40
0.1566980695398199
100
AcDbArc
 50
143.5307656099477
 51
232.7294390983635
  0
ARC
  5
5CD
330
1E
100
AcDbEntity
  8
image
100
AcDbCircle
 10
1.024557140893203
 20
6.207379388398911
 30
0.0
 40
0.1566980695398199
100
AcDbArc
 50
323.5307656099477
 51
52.72943909836342
  0
ARC
  5
5CE
330
1E
100
AcDbEntity
  8
image
100
AcDbCircle
 10
1.245463143900606
 20
6.238937388828539
 30
0.0
 40
0.1566980695398199
100
AcDbArc
 50
143.5307656099477
 51
232.7294390983635
  0
ARC
  5
5CF
330
1E
100
AcDbEntity
  8
image
100
AcDbCircle
 10
1.068567035432591
 20
6.330607093109199
 30
0.0
 40
0.1566980695398199
100
AcDbArc
 50
323.5307656099477
 51
52.72943909836342
  0
ARC
  5
5D0
330
1E
100
AcDbEntity
  8
image
100
AcDbCircle
 10
1.289473038439994
 20
6.362165093538826
 30
0.0
 40
0.1566980695398199
100
AcDbArc
 50
143.5307656099477
 51
232.7294390983635
  0
ARC
  5
5D1
330
1E
100
AcDbEntity
  8
image
100
AcDbCircle
 10
1.156586824511367
 20
6.726696143963693
 30
0.0
 40
0.1566980695398199
100
AcDbArc
 50
323.5307656099477
 51
52.72943909836342
  0
ARC
  5
5D2
330
1E
100
AcDbEntity
  8
image
100
AcDbCircle
 10
1.377492827518771
 20
6.758254144393322
 30
0.0
 40
0.1566980695398199
100
AcDbArc
 50
143.5307656099477
 51
232.7294390983635
  0
ARC
  5
5D3
330
1E
100
AcDbEntity
  8
image
100
AcDbCircle
 10
1.878349094957337
 20
6.885131764305492
 30
0.0
 40
0.1566980695398199
100
AcDbArc
 50
323.5307656099477
 51
52.72943909836342
  0
ARC
  5
5D4
330
1E
100
AcDbEntity
  8
image
100
AcDbCircle
 10
2.099255097964738
 20
6.916689764735119
 30
0.0
 40
0.1566980695398199
100
AcDbArc
 50
143.5307656099477
 51
232.7294390983635
  0
ARC
  5
5D5
330
1E
100
AcDbEntity
  8
image
100
AcDbCircle
 10
1.350230360484676
 20
7.04356738464729
 30
0.0
 40
0.1566980695398199
100
AcDbArc
 50
323.5307656099477
 51
52.72943909836342
  0
ARC
  5
5D6
330
1E
100
AcDbEntity
  8
image
100
AcDbCircle
 10
1.57113636349208
 20
7.075125385076917
 30
0.0
 40
0.1566980695398199
100
AcDbArc
 50
143.5307656099477
 51
232.7294390983635
  0
ARC
  5
5D7
330
1E
100
AcDbEntity
  8
image
100
AcDbCircle
 10
1.834339200417948
 20
6.198577409491034
 30
0.0
 40
0.1566980695398199
100
AcDbArc
 50
323.5307656099477
 51
52.72943909836342
  0
ARC
  5
5D8
330
1E
100
AcDbEntity
  8
image
100
AcDbCircle
 10
2.055245203425351
 20
6.230135409920661
 30
0.0
 40
0.1566980695398199
100
AcDbArc
 50
143.5307656099477
 51
232.7294390983635
  0
ARC
  5
5D9
330
1E
100
AcDbEntity
  8
image
100
AcDbCircle
 10
1.579902168955238
 20
6.439779901928631
 30
0.0
 40
0.1566980695398199
100
AcDbArc
 50
296.0563205359582
 51
25.25499402437389
  0
ARC
  5
5DA
330
1E
100
AcDbEntity
  8
image
100
AcDbCircle
 10
1.790453038829359
 20
6.365863051677321
 30
0.0
 40
0.1566980695398199
100
AcDbArc
 50
116.0563205359582
 51
205.254994024374
  0
ARC
  5
5DB
330
1E
100
AcDbEntity
  8
image
100
AcDbCircle
 10
1.411657258767876
 20
6.278850119373449
 30
0.0
 40
0.1566980695398199
100
AcDbArc
 50
296.0563205359582
 51
25.25499402437389
  0
ARC
  5
5DC
330
1E
100
AcDbEntity
  8
image
100
AcDbCircle
 10
1.622208128641997
 20
6.204933269122139
 30
0.0
 40
0.1566980695398199
100
AcDbArc
 50
116.0563205359582
 51
205.254994024374
  0
ARC
  5
5DD
330
1E
100
AcDbEntity
  8
image
100
AcDbCircle
 10
1.389712270482568
 20
6.432464911812487
 30
0.0
 40
0.1566980695398199
100
AcDbArc
 50
296.0563205359582
 51
25.25499402437389
  0
ARC
  5
5DE
330
1E
100
AcDbEntity
  8
image
100
AcDbCircle
 10
1.600263140356687
 20
6.358548061561176
 30
0.0
 40
0.1566980695398199
100
AcDbArc
 50
116.0563205359582
 51
205.254994024374
  0
ARC
  5
5DF
330
1E
100
AcDbEntity
  8
image
100
AcDbCircle
 10
1.056879948155396
 20
6.757981971980922
 30
0.0
 40
0.1566980695398199
100
AcDbArc
 50
296.0563205359582
 51
25.25499402437389
  0
ARC
  5
5E0
330
1E
100
AcDbEntity
  8
image
100
AcDbCircle
 10
1.267430818029516
 20
6.684065121729612
 30
0.0
 40
0.1566980695398199
100
AcDbArc
 50
116.0563205359582
 51
205.254994024374
  0
ARC
  5
5E1
330
1E
100
AcDbEntity
  8
image
100
AcDbCircle
 10
1.806667047903423
 20
6.527559783322367
 30
0.0
 40
0.1566980695398199
100
AcDbArc
 50
296.0563205359582
 51
25.25499402437389
  0
ARC
  5
5E2
330
1E
100
AcDbEntity
  8
image
100
AcDbCircle
 10
2.017217917777542
 20
6.453642933071057
 30
0.0
 40
0.1566980695398199
100
AcDbArc
 50
116.0563205359582
 51
205.254994024374
  0
ARC
  5
5E3
330
1E
100
AcDbEntity
  8
image
100
AcDbCircle
 10
1.484807219718904
 20
6.739694496690561
 30
0.0
 40
0.1566980695398199
100
AcDbArc
 50
296.0563205359582
 51
25.25499402437389
  0
ARC
  5
5E4
330
1E
100
AcDbEntity
  8
image
100
AcDbCircle
 10
1.695358089593024
 20
6.66577764643925
 30
0.0
 40
0.1566980695398199
100
AcDbArc
 50
116.0563205359582
 51
205.254994024374
  0
ARC
  5
5E5
330
1E
100
AcDbEntity
  8
image
100
AcDbCircle
 10
1.543327188479725
 20
6.933541734768394
 30
0.0
 40
0.1566980695398199
100
AcDbArc
 50
296.0563205359582
 51
25.25499402437389
  0
ARC
  5
5E6
330
1E
100
AcDbEntity
  8
image
100
AcDbCircle
 10
1.753878058353845
 20
6.859624884517083
 30
0.0
 40
0.1566980695398199
100
AcDbArc
 50
116.0563205359582
 51
205.254994024374
  0
ARC
  5
5E7
330
1E
100
AcDbEntity
  8
image
100
AcDbCircle
 10
1.276329831008476
 20
6.948171715000682
 30
0.0
 40
0.1566980695398199
100
AcDbArc
 50
296.0563205359582
 51
25.25499402437389
  0
ARC
  5
5E8
330
1E
100
AcDbEntity
  8
image
100
AcDbCircle
 10
1.486880700882597
 20
6.874254864749373
 30
0.0
 40
0.1566980695398199
100
AcDbArc
 50
116.0563205359582
 51
205.254994024374
  0
ARC
  5
5E9
330
1E
100
AcDbEntity
  8
image
100
AcDbCircle
 10
1.111742418868666
 20
7.134703962962371
 30
0.0
 40
0.1566980695398199
100
AcDbArc
 50
296.0563205359582
 51
25.25499402437389
  0
ARC
  5
5EA
330
1E
100
AcDbEntity
  8
image
100
AcDbCircle
 10
1.322293288742786
 20
7.060787112711061
 30
0.0
 40
0.1566980695398199
100
AcDbArc
 50
116.0563205359582
 51
205.254994024374
  0
ARC
  5
5EB
330
1E
100
AcDbEntity
  8
image
100
AcDbCircle
 10
1.097112426678461
 20
6.977431675465261
 30
0.0
 40
0.1566980695398199
100
AcDbArc
 50
296.0563205359582
 51
25.25499402437389
  0
ARC
  5
5EC
330
1E
100
AcDbEntity
  8
image
100
AcDbCircle
 10
1.30766329655258
 20
6.90351482521395
 30
0.0
 40
0.1566980695398199
100
AcDbArc
 50
116.0563205359582
 51
205.254994024374
  0
ARC
  5
5ED
330
1E
100
AcDbEntity
  8
image
100
AcDbCircle
 10
1.005674975489677
 20
6.538532268496584
 30
0.0
 40
0.1566980695398199
100
AcDbArc
 50
296.0563205359582
 51
25.25499402437389
  0
ARC
  5
5EE
330
1E
100
AcDbEntity
  8
image
100
AcDbCircle
 10
1.216225845363797
 20
6.464615418245274
 30
0.0
 40
0.1566980695398199
100
AcDbArc
 50
116.0563205359582
 51
205.254994024374
  0
ARC
  5
5EF
330
1E
100
AcDbEntity
  8
image
100
AcDbCircle
 10
1.682312114286675
 20
6.597052189425741
 30
0.0
 40
0.1566980695398199
100
AcDbArc
 50
296.0563205359582
 51
25.25499402437389
  0
ARC
  5
5F0
330
1E
100
AcDbEntity
  8
image
100
AcDbCircle
 10
1.892862984160796
 20
6.52313533917443
 30
0.0
 40
0.1566980695398199
100
AcDbArc
 50
116.0563205359582
 51
205.254994024374
  0
LINE
  5
5F1
330
1E
100
AcDbEntity
  8
image
100
AcDbLine
 10
2.876696768941055
 20
4.82369857496968
 30
0.0
 11
2.876696768941055
 21
4.763155745484415
 31
0.0
  0
LINE
  5
5F2
330
1E
100
AcDbEntity
  8
image
100
AcDbLine
 10
2.862703386564912
 20
4.82369857496968
 30
0.0
 11
2.876696768941055
 21
4.82369857496968
 31
0.0
  0
LINE
  5
5F3
330
1E
100
AcDbEntity
  8
image
100
AcDbLine
 10
2.862703386564912
 20
4.868500268788776
 30
0.0
 11
2.862703386564912
 21
4.82369857496968
 31
0.0
  0
LINE
  5
5F4
330
1E
100
AcDbEntity
  8
image
100
AcDbLine
 10
2.876696768941055
 20
4.868500268788776
 30
0.0
 11
2.862703386564912
 21
4.868500268788776
 31
0.0
  0
LINE
  5
5F5
330
1E
100
AcDbEntity
  8
image
100
AcDbLine
 10
2.876696768941055
 20
4.763155745484415
 30
0.0
 11
2.822214076655011
 21
4.763155745484415
 31
0.0
  0
LINE
  5
5F6
330
1E
100
AcDbEntity
  8
image
100
AcDbLine
 10
2.876696768941055
 20
4.922988815325515
 30
0.0
 11
2.876696768941055
 21
4.868500268788776
 31
0.0
  0
LINE
  5
5F7
330
1E
100
AcDbEntity
  8
image
100
AcDbLine
 10
2.822214076655011
 20
4.922988815325515
 30
0.0
 11
2.876696768941055
 21
4.922988815325515
 31
0.0
  0
ARC
  5
5F8
330
1E
100
AcDbEntity
  8
image
100
AcDbCircle
 10
2.764581242352148
 20
4.841026918284629
 30
0.0
 40
0.2021270577682911
100
AcDbArc
 50
137.2096684487524
 51
222.7903315512476
  0
LINE
  5
5F9
330
1E
100
AcDbEntity
  8
image
100
AcDbLine
 10
2.822214076655011
 20
4.950279889860722
 30
0.0
 11
2.822214076655011
 21
4.731773946708536
 31
0.0
  0
LINE
  5
5FA
330
1E
100
AcDbEntity
  8
image
100
AcDbLine
 10
2.616251411244778
 20
4.703718474677809
 30
0.0
 11
2.79415860462428
 21
4.703718474677812
 31
0.0
  0
LINE
  5
5FB
330
1E
100
AcDbEntity
  8
image
100
AcDbLine
 10
2.616251411244778
 20
4.978335361891445
 30
0.0
 11
2.79415860462428
 21
4.978335361891445
 31
0.0
  0
LINE
  5
5FC
330
1E
100
AcDbEntity
  8
image
100
AcDbLine
 10
2.616251411244778
 20
5.85104765728638
 30
0.0
 11
2.204273626185842
 21
5.85104765728638
 31
0.0
  0
LINE
  5
5FD
330
1E
100
AcDbEntity
  8
image
100
AcDbLine
 10
2.204273626185842
 20
5.869404191542002
 30
0.0
 11
2.616251411244778
 21
5.869404191542002
 31
0.0
  0
LINE
  5
5FE
330
1E
100
AcDbEntity
  8
image
100
AcDbLine
 10
2.204273626185842
 20
5.894353640081882
 30
0.0
 11
2.204273626185842
 21
5.463824762435389
 31
0.0
  0
LINE
  5
5FF
330
1E
100
AcDbEntity
  8
image
100
AcDbLine
 10
2.616251411244778
 20
5.463824762435389
 30
0.0
 11
2.616251411244778
 21
4.97833536189143
 31
0.0
  0
LINE
  5
600
330
1E
100
AcDbEntity
  8
image
100
AcDbLine
 10
2.616251411244778
 20
5.894353640081882
 30
0.0
 11
2.616251411244778
 21
5.463824762435389
 31
0.0
  0
LINE
  5
601
330
1E
100
AcDbEntity
  8
image
100
AcDbLine
 10
2.204273626185842
 20
5.894353640081882
 30
0.0
 11
2.131197638299702
 21
5.894353640081882
 31
0.0
  0
LINE
  5
602
330
1E
100
AcDbEntity
  8
image
100
AcDbLine
 10
2.131197638299702
 20
5.894353640081882
 30
0.0
 11
2.131197638299702
 21
6.030299236328565
 31
0.0
  0
LINE
  5
603
330
1E
100
AcDbEntity
  8
image
100
AcDbLine
 10
2.131197638299702
 20
6.030299236328565
 30
0.0
 11
2.056835616880657
 21
6.030299236328565
 31
0.0
  0
LINE
  5
604
330
1E
100
AcDbEntity
  8
image
100
AcDbLine
 10
2.056835616880657
 20
6.030299236328565
 30
0.0
 11
2.056835616880657
 21
6.076802910745993
 31
0.0
  0
LINE
  5
605
330
1E
100
AcDbEntity
  8
image
100
AcDbLine
 10
2.056835616880654
 20
6.030299236328563
 30
0.0
 11
2.131197638299702
 21
5.894353640081882
 31
0.0
  0
LINE
  5
606
330
1E
100
AcDbEntity
  8
image
100
AcDbLine
 10
2.763689420549968
 20
6.030299236328563
 30
0.0
 11
2.689327399130923
 21
5.894353640081882
 31
0.0
  0
LINE
  5
607
330
1E
100
AcDbEntity
  8
image
100
AcDbLine
 10
2.763689420549968
 20
6.030299236328565
 30
0.0
 11
2.763689420549968
 21
6.076802910745993
 31
0.0
  0
LINE
  5
608
330
1E
100
AcDbEntity
  8
image
100
AcDbLine
 10
2.689327399130923
 20
6.030299236328565
 30
0.0
 11
2.763689420549968
 21
6.030299236328565
 31
0.0
  0
LINE
  5
609
330
1E
100
AcDbEntity
  8
image
100
AcDbLine
 10
2.689327399130923
 20
5.894353640081882
 30
0.0
 11
2.689327399130923
 21
6.030299236328565
 31
0.0
  0
LINE
  5
60A
330
1E
100
AcDbEntity
  8
image
100
AcDbLine
 10
2.616251411244778
 20
5.894353640081882
 30
0.0
 11
2.689327399130923
 21
5.894353640081882
 31
0.0
  0
LINE
  5
60B
330
1E
100
AcDbEntity
  8
image
100
AcDbLine
 10
2.056835616880657
 20
6.076802910745993
 30
0.0
 11
2.763689420549968
 21
6.076802910745993
 31
0.0
  0
LINE
  5
60C
330
1E
100
AcDbEntity
  8
image
100
AcDbLine
 10
2.131197638299702
 20
6.030299236328565
 30
0.0
 11
2.689327399130923
 21
6.030299236328565
 31
0.0
  0
LINE
  5
60D
330
1E
100
AcDbEntity
  8
image
100
AcDbLine
 10
2.204273626185842
 20
5.894353640081882
 30
0.0
 11
2.616251411244778
 21
5.894353640081882
 31
0.0
  0
LINE
  5
60E
330
1E
100
AcDbEntity
  8
image
100
AcDbLine
 10
2.289216933815175
 20
6.030299236328565
 30
0.0
 11
2.289216933815175
 21
5.894353640081882
 31
0.0
  0
LINE
  5
60F
330
1E
100
AcDbEntity
  8
image
100
AcDbLine
 10
2.326397944524701
 20
6.030299236328565
 30
0.0
 11
2.326397944524701
 21
5.894353640081882
 31
0.0
  0
LINE
  5
610
330
1E
100
AcDbEntity
  8
image
100
AcDbLine
 10
2.498525161695114
 20
6.030299236328565
 30
0.0
 11
2.498525161695114
 21
5.894353640081882
 31
0.0
  0
LINE
  5
611
330
1E
100
AcDbEntity
  8
image
100
AcDbLine
 10
2.536998084734548
 20
6.030299236328565
 30
0.0
 11
2.536998084734548
 21
5.894353640081882
 31
0.0
  0
LINE
  5
612
330
1E
100
AcDbEntity
  8
image
100
AcDbLine
 10
2.763689420549968
 20
6.076802910745993
 30
0.0
 11
3.854600114133155
 21
6.076802910745991
 31
0.0
  0
LINE
  5
613
330
1E
100
AcDbEntity
  8
image
100
AcDbLine
 10
2.056835616880661
 20
6.076802910745993
 30
0.0
 11
1.002858564229323
 21
6.076802910745993
 31
0.0
  0
LINE
  5
614
330
1E
100
AcDbEntity
  8
image
100
AcDbLine
 10
2.204273626185842
 20
5.463824762435389
 30
0.0
 11
2.204273626185842
 21
3.591500621557045
 31
0.0
  0
LINE
  5
615
330
1E
100
AcDbEntity
  8
image
100
AcDbLine
 10
2.204273626185842
 20
3.591500621557045
 30
0.0
 11
2.616251411244778
 21
3.591500621557045
 31
0.0
  0
LINE
  5
617
330
1E
100
AcDbEntity
  8
image
100
AcDbLine
 10
2.616251411244778
 20
4.703718474677824
 30
0.0
 11
2.616251411244778
 21
3.467941052104118
 31
0.0
  0
LINE
  5
618
330
1E
100
AcDbEntity
  8
image
100
AcDbLine
 10
2.204273626185842
 20
3.591500621557045
 30
0.0
 11
2.29601331453626
 21
3.467941052104118
 31
0.0
  0
LINE
  5
619
330
1E
100
AcDbEntity
  8
image
100
AcDbLine
 10
2.299871693337827
 20
3.467941052104118
 30
0.0
 11
2.299871693337827
 21
3.591500621557045
 31
0.0
  0
LINE
  5
61A
330
1E
100
AcDbEntity
  8
image
100
AcDbLine
 10
2.519249097734272
 20
3.467941052104118
 30
0.0
 11
2.519249097734272
 21
3.591500621557045
 31
0.0
  0
LINE
  5
61B
330
1E
100
AcDbEntity
  8
image
100
AcDbLine
 10
2.419159884944622
 20
3.591500621557045
 30
0.0
 11
2.419159884944622
 21
3.467941052104118
 31
0.0
  0
LINE
  5
61C
330
1E
100
AcDbEntity
  8
image
100
AcDbLine
 10
2.399063006000166
 20
3.591500621557045
 30
0.0
 11
2.399063006000166
 21
3.467941052104118
 31
0.0
  0
LINE
  5
61D
330
1E
100
AcDbEntity
  8
image
100
AcDbLine
 10
2.29601331453626
 20
3.467941052104118
 30
0.0
 11
2.616251411244778
 21
3.467941052104118
 31
0.0
  0
HATCH
  5
63A
330
1E
100
AcDbEntity
  8
image
100
AcDbHatch
 10
0.0
 20
0.0
 30
0.0
210
0.0
220
0.0
230
1.0
  2
EARTH
 70
     0
 71
     0
 91
        2
 92
        7
 72
     0
 73
     1
 93
       12
 10
2.204273626185842
 20
5.894353640081882
 10
2.131197638299702
 20
5.894353640081882
 10
2.056835616880657
 20
6.030299236328556
 10
2.056835616880657
 20
6.076802910745993
 10
1.338858758392311
 20
6.076802910745993
 10
1.438032323586023
 20
5.89898356789444
 10
1.559503940947946
 20
5.660865641112827
 10
1.718753096048912
 20
5.561694252936626
 10
1.855609173496159
 20
5.42483817548938
 10
2.112170940112127
 20
5.398557229630728
 10
2.204273626185842
 20
5.398557229630728
 10
2.204273626185842
 20
5.463824762435389
 97
        0
 92
        7
 72
     0
 73
     1
 93
       13
 10
3.138536065441871
 20
5.746099845021388
 10
3.319592058140949
 20
5.884185735672001
 10
3.404444871883333
 20
5.969038549414386
 10
3.411839582108639
 20
6.076802910745993
 10
2.763689420549968
 20
6.076802910745993
 10
2.763689420549968
 20
6.030299236328563
 10
2.689327399130923
 20
5.894353640081882
 10
2.616251411244778
 20
5.894353640081882
 10
2.616251411244778
 20
5.463824762435389
 10
2.616251411244778
 20
5.393520818309066
 10
2.707087653010226
 20
5.478456375894096
 10
2.821667378045855
 20
5.590150820838158
 10
2.908700878237459
 20
5.685970285301747
 97
        0
 75
     0
 76
     1
 52
45.0
 41
0.65
 77
     0
 78
     6
 53
45.0
 43
0.0
 44
0.0
 45
0.0
 46
0.229809703885628
 79
     2
 49
0.1625
 49
-0.1625
 53
45.0
 43
-0.0430893194785553
 44
0.0430893194785553
 45
0.0
 46
0.229809703885628
 79
     2
 49
0.1625
 49
-0.1625
 53
45.0
 43
-0.0861786389571105
 44
0.0861786389571105
 45
0.0
 46
0.229809703885628
 79
     2
 49
0.1625
 49
-0.1625
 53
135.0
 43
-0.0861786389571105
 44
0.114904851942814
 45
-0.2298097038856279
 46
0.0
 79
     2
 49
0.1625
 49
-0.1625
 53
135.0
 43
-0.0430893194785552
 44
0.1579941714213692
 45
-0.2298097038856279
 46
0.0
 79
     2
 49
0.1625
 49
-0.1625
 53
135.0
 43
0.0
 44
0.2010834908999244
 45
-0.2298097038856279
 46
0.0
 79
     2
 49
0.1625
 49
-0.1625
 47
0.0063015408172647
 98
        2
 10
2.076444055374677
 20
5.692373352016603
 10
2.82033349491791
 20
5.717579510488196
  0
TEXT
  5
64C
330
1E
100
AcDbEntity
  8
text_bubbles
100
AcDbText
 10
4.760000000000001
 20
4.724486289605502
 30
0.0
 40
0.125
  1
  WITH RAIN BIRD ROTARY NOZZLE
  7
ROMANS
100
AcDbText
  0
TEXT
  5
71F
330
1E
100
AcDbEntity
  8
text_leaders
100
AcDbText
 10
4.760000000000001
 20
4.724486289605502
 30
0.0
 40
0.125
  1
  WITH RAIN BIRD ROTARY NOZZLE
  7
ROMANS
100
AcDbText
  0
ARC
  5
73C
330
1E
100
AcDbEntity
  8
image
100
AcDbCircle
 10
2.410262518715308
 20
5.916047836498425
 30
0.0
 40
0.2165783160917459
100
AcDbArc
 50
47.92336398940312
 51
132.0766360105968
  0
ENDSEC
  0
SECTION
  2
OBJECTS
  0
DICTIONARY
  5
C
330
0
100
AcDbDictionary
281
     1
  3
ACAD_COLOR
350
67B
  3
ACAD_GROUP
350
D
  3
ACAD_LAYOUT
350
19
  3
ACAD_MATERIAL
350
651
  3
ACAD_MLEADERSTYLE
350
6A0
  3
ACAD_MLINESTYLE
350
16
  3
ACAD_PLOTSETTINGS
350
18
  3
ACAD_PLOTSTYLENAME
350
E
  3
ACAD_SCALELIST
350
67E
  3
ACAD_TABLESTYLE
350
67C
  3
ACAD_VISUALSTYLE
350
66A
  3
ACDB_RECOMPOSE_DATA
350
7AA
  3
AcDbVariableDictionary
350
215
1001
BBSI_PltSel
1000
1
1000

1001
BBSI_Bookmarks
1000
1
1000
1
1000
0
1000
1
1000
0
1000
0
1000
0
1000
0
1000
0
1000
0
1000
0
1001
BBSI_Plots
1000

1000
User123
1000
215.900009155273
1000
279.399993896484
1000
1
1000
4
1000
1
1000
0
1000
0
1000
1
1000
0
1000
1
1000
0.581881369946802
1000
0
1000
1
1000
Color.ctb
1000
0
1000
0
1000
1
1000
1
1000
0
1000
0
1000
0.0834025186311008
1000
-0.135299144936523
1000
16.6195391002231
1000
10.3607536526908
1000

1000

  0
DICTIONARY
  5
85A
330
8
100
AcDbDictionary
280
     1
281
     1
  0
DICTIONARY
  5
283
330
2
100
AcDbDictionary
280
     1
281
     1
  3
ACAD_LAYERFILTERS
360
89B
  3
ACAD_LAYERSTATES
360
284
  0
DICTIONARY
  5
67B
102
{ACAD_REACTORS
330
C
102
}
330
C
100
AcDbDictionary
281
     1
  0
DICTIONARY
  5
D
102
{ACAD_REACTORS
330
C
102
}
330
C
100
AcDbDictionary
281
     1
  0
DICTIONARY
  5
19
102
{ACAD_REACTORS
330
C
102
}
330
C
100
AcDbDictionary
281
     1
  3
Layout1
350
1D
  3
Model
350
21
  0
DICTIONARY
  5
651
102
{ACAD_REACTORS
330
C
102
}
330
C
100
AcDbDictionary
281
     1
  3
ByBlock
350
65A
  3
ByLayer
350
652
  3
Global
350
662
  0
DICTIONARY
  5
6A0
102
{ACAD_REACTORS
330
C
102
}
330
C
100
AcDbDictionary
281
     1
  3
Standard
350
7B1
  0
DICTIONARY
  5
16
102
{ACAD_REACTORS
330
C
102
}
330
C
100
AcDbDictionary
281
     1
  3
Standard
350
17
  0
DICTIONARY
  5
18
102
{ACAD_REACTORS
330
C
102
}
330
C
100
AcDbDictionary
281
     1
  0
ACDBDICTIONARYWDFLT
  5
E
102
{ACAD_REACTORS
330
C
102
}
330
C
100
AcDbDictionary
281
     1
  3
Normal
350
F
100
AcDbDictionaryWithDefault
340
F
  0
DICTIONARY
  5
67E
102
{ACAD_REACTORS
330
C
102
}
330
C
100
AcDbDictionary
281
     1
  3
A0
350
67F
  3
A1
350
8A7
  3
A2
350
8A8
  3
A3
350
8A9
  3
A4
350
8AA
  3
A5
350
8AB
  3
A6
350
8AC
  3
A7
350
8AD
  3
A8
350
8AE
  3
A9
350
8AF
  3
B0
350
8B0
  3
B1
350
8B1
  3
B2
350
8B2
  3
B3
350
8B3
  3
B4
350
8B4
  3
B5
350
8B5
  3
B6
350
8B6
  3
B7
350
8B7
  3
B8
350
8B8
  3
B9
350
8B9
  3
C0
350
8BA
  3
C1
350
8BB
  3
C2
350
8BC
  3
C3
350
8BD
  3
C4
350
8BE
  3
C5
350
8BF
  3
C6
350
8C0
  3
C7
350
8C1
  3
C8
350
8C2
  3
C9
350
8C3
  3
D0
350
8C4
  3
D1
350
8C5
  3
D2
350
8C6
  0
DICTIONARY
  5
67C
102
{ACAD_REACTORS
330
C
102
}
330
C
100
AcDbDictionary
281
     1
  3
Standard
350
67D
  0
DICTIONARY
  5
66A
102
{ACAD_REACTORS
330
C
102
}
330
C
100
AcDbDictionary
281
     1
  3
2dWireframe
350
670
  3
3D Hidden
350
672
  3
3dWireframe
350
671
  3
Basic
350
66F
  3
Brighten
350
676
  3
ColorChange
350
67A
  3
Conceptual
350
673
  3
Dim
350
675
  3
Facepattern
350
679
  3
Flat
350
66B
  3
FlatWithEdges
350
66C
  3
Gouraud
350
66D
  3
GouraudWithEdges
350
66E
  3
Linepattern
350
678
  3
Realistic
350
674
  3
Thicken
350
677
  0
XRECORD
  5
7AA
102
{ACAD_REACTORS
330
C
102
}
330
C
100
AcDbXrecord
280
     1
 90
        1
330
67D
  0
DICTIONARY
  5
215
102
{ACAD_REACTORS
330
C
102
}
330
C
100
AcDbDictionary
281
     1
  3
CANNOSCALE
350
7AD
  3
CMLEADERSTYLE
350
7E5
  3
CTABLESTYLE
350
7AB
  3
DIMASSOC
350
218
  3
HIDETEXT
350
217
  3
LAYEREVAL
350
7AF
  3
LIGHTINGUNITS
350
7AE
  3
MSLTSCALE
350
7AC
  3
SORTENTS
350
216
  0
DICTIONARY
  5
89B
102
{ACAD_REACTORS
330
283
102
}
330
283
100
AcDbDictionary
281
     1
  3
_0100-
350
89E
  3
_0280-
350
89D
  3
_Color 253
350
8A1
  3
_Color 8
350
89F
  3
_Color 84
350
8A0
  3
_Contours
350
8A6
  3
_Existing
350
8A2
  3
_Hardscape
350
8A5
  3
_NoXref
350
89C
  3
_Row
350
8A3
  3
_Utility
350
8A4
  0
DICTIONARY
  5
284
102
{ACAD_REACTORS
330
283
102
}
330
283
100
AcDbDictionary
281
     1
  0
LAYOUT
  5
1D
102
{ACAD_REACTORS
330
19
102
}
330
19
100
AcDbPlotSettings
  1

  2
S:\AutoCAD 2002\Plotters\1055B&WDraftShaded.pc3
  4

  6

 40
0.0
 41
0.0
 42
0.0
 43
0.0
 44
0.0
 45
0.0
 46
0.0
 47
0.0
 48
0.0
 49
0.0
140
0.0
141
0.0
142
1.0
143
1.0
 70
   688
 72
     0
 73
     0
 74
     5
  7
8500Color.ctb
 75
    16
147
1.0
 76
     0
 77
     2
 78
   300
148
0.0
149
0.0
100
AcDbLayout
  1
Layout1
 70
     1
 71
     1
 10
0.0
 20
0.0
 11
12.0
 21
9.0
 12
0.0
 22
0.0
 32
0.0
 14
1.000000000000000E+20
 24
1.000000000000000E+20
 34
1.000000000000000E+20
 15
-1.000000000000000E+20
 25
-1.000000000000000E+20
 35
-1.000000000000000E+20
146
0.0
 13
0.0
 23
0.0
 33
0.0
 16
1.0
 26
0.0
 36
0.0
 17
0.0
 27
1.0
 37
0.0
 76
     0
330
1A
  0
LAYOUT
  5
21
102
{ACAD_REACTORS
330
19
102
}
330
19
100
AcDbPlotSettings
  1

  2
8500ColorShaded.pc3
  4
Letter
  6

 40
5.027082920074462
 41
5.027070522308349
 42
5.027099609375
 43
5.027084350585937
 44
279.3999938964844
 45
215.8999938964844
 46
0.0
 47
0.0
 48
10.32427554345824
 49
3.309499280594682
140
16.49464271188265
141
8.013305812965935
142
1.0
143
0.7613820460078329
 70
 11952
 72
     0
 73
     1
 74
     4
  7

 75
     0
147
1.313401078004553
 76
     0
 77
     2
 78
   300
148
-262.2365988038392
149
-84.06128172710493
100
AcDbLayout
  1
Model
 70
     1
 71
     0
 10
0.0
 20
0.0
 11
12.0
 21
9.0
 12
0.0
 22
0.0
 32
0.0
 14
0.0
 24
0.0
 34
0.0
 15
0.0
 25
0.0
 35
0.0
146
0.0
 13
0.0
 23
0.0
 33
0.0
 16
1.0
 26
0.0
 36
0.0
 17
0.0
 27
1.0
 37
0.0
 76
     0
330
1E
331
64F
1001
ACAD_PSEXT
1000
8500ColorShaded.pc3
1000
HP Color LaserJet 8500 PS
1000
BACK
1000

1070
     0
  0
MATERIAL
  5
65A
102
{ACAD_XDICTIONARY
360
65B
102
}
102
{ACAD_REACTORS
330
651
102
}
330
651
100
AcDbMaterial
  1
ByBlock
 72
     0
 43
0.0208333333333333
 43
0.0
 43
0.0
 43
0.0
 43
0.0
 43
0.0208333333333333
 43
0.0
 43
0.0
 43
0.0
 43
0.0
 43
1.0
 43
0.0
 43
0.0
 43
0.0
 43
0.0
 43
1.0
 77
     0
 47
0.0208333333333333
 47
0.0
 47
0.0
 47
0.0
 47
0.0
 47
0.0208333333333333
 47
0.0
 47
0.0
 47
0.0
 47
0.0
 47
1.0
 47
0.0
 47
0.0
 47
0.0
 47
0.0
 47
1.0
171
     0
 49
0.0208333333333333
 49
0.0
 49
0.0
 49
0.0
 49
0.0
 49
0.0208333333333333
 49
0.0
 49
0.0
 49
0.0
 49
0.0
 49
1.0
 49
0.0
 49
0.0
 49
0.0
 49
0.0
 49
1.0
175
     0
142
0.0208333333333333
142
0.0
142
0.0
142
0.0
142
0.0
142
0.0208333333333333
142
0.0
142
0.0
142
0.0
142
0.0
142
1.0
142
0.0
142
0.0
142
0.0
142
0.0
142
1.0
179
     0
144
0.0208333333333333
144
0.0
144
0.0
144
0.0
144
0.0
144
0.0208333333333333
144
0.0
144
0.0
144
0.0
144
0.0
144
1.0
144
0.0
144
0.0
144
0.0
144
0.0
144
1.0
147
0.0208333333333333
147
0.0
147
0.0
147
0.0
147
0.0
147
0.0208333333333333
147
0.0
147
0.0
147
0.0
147
0.0
147
1.0
147
0.0
147
0.0
147
0.0
147
0.0
147
1.0
  0
MATERIAL
  5
652
102
{ACAD_XDICTIONARY
360
653
102
}
102
{ACAD_REACTORS
330
651
102
}
330
651
100
AcDbMaterial
  1
ByLayer
 72
     0
 43
0.0208333333333333
 43
0.0
 43
0.0
 43
0.0
 43
0.0
 43
0.0208333333333333
 43
0.0
 43
0.0
 43
0.0
 43
0.0
 43
1.0
 43
0.0
 43
0.0
 43
0.0
 43
0.0
 43
1.0
 77
     0
 47
0.0208333333333333
 47
0.0
 47
0.0
 47
0.0
 47
0.0
 47
0.0208333333333333
 47
0.0
 47
0.0
 47
0.0
 47
0.0
 47
1.0
 47
0.0
 47
0.0
 47
0.0
 47
0.0
 47
1.0
171
     0
 49
0.0208333333333333
 49
0.0
 49
0.0
 49
0.0
 49
0.0
 49
0.0208333333333333
 49
0.0
 49
0.0
 49
0.0
 49
0.0
 49
1.0
 49
0.0
 49
0.0
 49
0.0
 49
0.0
 49
1.0
175
     0
142
0.0208333333333333
142
0.0
142
0.0
142
0.0
142
0.0
142
0.0208333333333333
142
0.0
142
0.0
142
0.0
142
0.0
142
1.0
142
0.0
142
0.0
142
0.0
142
0.0
142
1.0
179
     0
144
0.0208333333333333
144
0.0
144
0.0
144
0.0
144
0.0
144
0.0208333333333333
144
0.0
144
0.0
144
0.0
144
0.0
144
1.0
144
0.0
144
0.0
144
0.0
144
0.0
144
1.0
147
0.0208333333333333
147
0.0
147
0.0
147
0.0
147
0.0
147
0.0208333333333333
147
0.0
147
0.0
147
0.0
147
0.0
147
1.0
147
0.0
147
0.0
147
0.0
147
0.0
147
1.0
  0
MATERIAL
  5
662
102
{ACAD_XDICTIONARY
360
663
102
}
102
{ACAD_REACTORS
330
651
102
}
330
651
100
AcDbMaterial
  1
Global
 72
     0
 43
0.0208333333333333
 43
0.0
 43
0.0
 43
0.0
 43
0.0
 43
0.0208333333333333
 43
0.0
 43
0.0
 43
0.0
 43
0.0
 43
1.0
 43
0.0
 43
0.0
 43
0.0
 43
0.0
 43
1.0
 77
     0
 47
0.0208333333333333
 47
0.0
 47
0.0
 47
0.0
 47
0.0
 47
0.0208333333333333
 47
0.0
 47
0.0
 47
0.0
 47
0.0
 47
1.0
 47
0.0
 47
0.0
 47
0.0
 47
0.0
 47
1.0
171
     0
 49
0.0208333333333333
 49
0.0
 49
0.0
 49
0.0
 49
0.0
 49
0.0208333333333333
 49
0.0
 49
0.0
 49
0.0
 49
0.0
 49
1.0
 49
0.0
 49
0.0
 49
0.0
 49
0.0
 49
1.0
175
     0
142
0.0208333333333333
142
0.0
142
0.0
142
0.0
142
0.0
142
0.0208333333333333
142
0.0
142
0.0
142
0.0
142
0.0
142
1.0
142
0.0
142
0.0
142
0.0
142
0.0
142
1.0
179
     0
144
0.0208333333333333
144
0.0
144
0.0
144
0.0
144
0.0
144
0.0208333333333333
144
0.0
144
0.0
144
0.0
144
0.0
144
1.0
144
0.0
144
0.0
144
0.0
144
0.0
144
1.0
147
0.0208333333333333
147
0.0
147
0.0
147
0.0
147
0.0
147
0.0208333333333333
147
0.0
147
0.0
147
0.0
147
0.0
147
1.0
147
0.0
147
0.0
147
0.0
147
0.0
147
1.0
  0
MLEADERSTYLE
  5
7B1
102
{ACAD_REACTORS
330
6A0
102
}
330
6A0
100
AcDbMLeaderStyle
170
     2
171
     1
172
     0
 90
        2
 40
0.0
 41
0.0
173
     1
 91
-1056964608
340
13
 92
       -2
290
     1
 42
0.09
291
     1
 43
0.36
  3
Standard
 44
0.18
300

342
11
174
     1
178
     6
175
     1
176
     0
 93
-1056964608
 45
0.18
292
     0
297
     0
 46
0.18
 94
-1056964608
 47
1.0
 49
1.0
140
1.0
293
     1
141
0.0
294
     1
177
     0
142
1.0
295
     0
296
     0
143
0.125
1001
ACAD_MLEADERVER
1070
     2
  0
MLINESTYLE
  5
17
102
{ACAD_REACTORS
330
16
102
}
330
16
100
AcDbMlineStyle
  2
STANDARD
 70
     0
  3

 62
   256
 51
90.0
 52
90.0
 71
     2
 49
0.5
 62
   256
  6
BYLAYER
 49
-0.5
 62
   256
  6
BYLAYER
  0
ACDBPLACEHOLDER
  5
F
102
{ACAD_REACTORS
330
E
102
}
330
E
  0
SCALE
  5
67F
102
{ACAD_REACTORS
330
67E
102
}
330
67E
100
AcDbScale
 70
     0
300
1:1
140
1.0
141
1.0
290
     1
  0
SCALE
  5
8A7
102
{ACAD_REACTORS
330
67E
102
}
330
67E
100
AcDbScale
 70
     0
300
1:2
140
1.0
141
2.0
290
     0
  0
SCALE
  5
8A8
102
{ACAD_REACTORS
330
67E
102
}
330
67E
100
AcDbScale
 70
     0
300
1:4
140
1.0
141
4.0
290
     0
  0
SCALE
  5
8A9
102
{ACAD_REACTORS
330
67E
102
}
330
67E
100
AcDbScale
 70
     0
300
1:5
140
1.0
141
5.0
290
     0
  0
SCALE
  5
8AA
102
{ACAD_REACTORS
330
67E
102
}
330
67E
100
AcDbScale
 70
     0
300
1:8
140
1.0
141
8.0
290
     0
  0
SCALE
  5
8AB
102
{ACAD_REACTORS
330
67E
102
}
330
67E
100
AcDbScale
 70
     0
300
1:10
140
1.0
141
10.0
290
     0
  0
SCALE
  5
8AC
102
{ACAD_REACTORS
330
67E
102
}
330
67E
100
AcDbScale
 70
     0
300
1:16
140
1.0
141
16.0
290
     0
  0
SCALE
  5
8AD
102
{ACAD_REACTORS
330
67E
102
}
330
67E
100
AcDbScale
 70
     0
300
1:20
140
1.0
141
20.0
290
     0
  0
SCALE
  5
8AE
102
{ACAD_REACTORS
330
67E
102
}
330
67E
100
AcDbScale
 70
     0
300
1:30
140
1.0
141
30.0
290
     0
  0
SCALE
  5
8AF
102
{ACAD_REACTORS
330
67E
102
}
330
67E
100
AcDbScale
 70
     0
300
1:40
140
1.0
141
40.0
290
     0
  0
SCALE
  5
8B0
102
{ACAD_REACTORS
330
67E
102
}
330
67E
100
AcDbScale
 70
     0
300
1:50
140
1.0
141
50.0
290
     0
  0
SCALE
  5
8B1
102
{ACAD_REACTORS
330
67E
102
}
330
67E
100
AcDbScale
 70
     0
300
1:100
140
1.0
141
100.0
290
     0
  0
SCALE
  5
8B2
102
{ACAD_REACTORS
330
67E
102
}
330
67E
100
AcDbScale
 70
     0
300
2:1
140
2.0
141
1.0
290
     0
  0
SCALE
  5
8B3
102
{ACAD_REACTORS
330
67E
102
}
330
67E
100
AcDbScale
 70
     0
300
4:1
140
4.0
141
1.0
290
     0
  0
SCALE
  5
8B4
102
{ACAD_REACTORS
330
67E
102
}
330
67E
100
AcDbScale
 70
     0
300
8:1
140
8.0
141
1.0
290
     0
  0
SCALE
  5
8B5
102
{ACAD_REACTORS
330
67E
102
}
330
67E
100
AcDbScale
 70
     0
300
10:1
140
10.0
141
1.0
290
     0
  0
SCALE
  5
8B6
102
{ACAD_REACTORS
330
67E
102
}
330
67E
100
AcDbScale
 70
     0
300
100:1
140
100.0
141
1.0
290
     0
  0
SCALE
  5
8B7
102
{ACAD_REACTORS
330
67E
102
}
330
67E
100
AcDbScale
 70
     0
300
1/128" = 1'-0"
140
0.0078125
141
12.0
290
     0
  0
SCALE
  5
8B8
102
{ACAD_REACTORS
330
67E
102
}
330
67E
100
AcDbScale
 70
     0
300
1/64" = 1'-0"
140
0.015625
141
12.0
290
     0
  0
SCALE
  5
8B9
102
{ACAD_REACTORS
330
67E
102
}
330
67E
100
AcDbScale
 70
     0
300
1/32" = 1'-0"
140
0.03125
141
12.0
290
     0
  0
SCALE
  5
8BA
102
{ACAD_REACTORS
330
67E
102
}
330
67E
100
AcDbScale
 70
     0
300
1/16" = 1'-0"
140
0.0625
141
12.0
290
     0
  0
SCALE
  5
8BB
102
{ACAD_REACTORS
330
67E
102
}
330
67E
100
AcDbScale
 70
     0
300
3/32" = 1'-0"
140
0.09375
141
12.0
290
     0
  0
SCALE
  5
8BC
102
{ACAD_REACTORS
330
67E
102
}
330
67E
100
AcDbScale
 70
     0
300
1/8" = 1'-0"
140
0.125
141
12.0
290
     0
  0
SCALE
  5
8BD
102
{ACAD_REACTORS
330
67E
102
}
330
67E
100
AcDbScale
 70
     0
300
3/16" = 1'-0"
140
0.1875
141
12.0
290
     0
  0
SCALE
  5
8BE
102
{ACAD_REACTORS
330
67E
102
}
330
67E
100
AcDbScale
 70
     0
300
1/4" = 1'-0"
140
0.25
141
12.0
290
     0
  0
SCALE
  5
8BF
102
{ACAD_REACTORS
330
67E
102
}
330
67E
100
AcDbScale
 70
     0
300
3/8" = 1'-0"
140
0.375
141
12.0
290
     0
  0
SCALE
  5
8C0
102
{ACAD_REACTORS
330
67E
102
}
330
67E
100
AcDbScale
 70
     0
300
1/2" = 1'-0"
140
0.5
141
12.0
290
     0
  0
SCALE
  5
8C1
102
{ACAD_REACTORS
330
67E
102
}
330
67E
100
AcDbScale
 70
     0
300
3/4" = 1'-0"
140
0.75
141
12.0
290
     0
  0
SCALE
  5
8C2
102
{ACAD_REACTORS
330
67E
102
}
330
67E
100
AcDbScale
 70
     0
300
1" = 1'-0"
140
1.0
141
12.0
290
     0
  0
SCALE
  5
8C3
102
{ACAD_REACTORS
330
67E
102
}
330
67E
100
AcDbScale
 70
     0
300
1-1/2" = 1'-0"
140
1.5
141
12.0
290
     0
  0
SCALE
  5
8C4
102
{ACAD_REACTORS
330
67E
102
}
330
67E
100
AcDbScale
 70
     0
300
3" = 1'-0"
140
3.0
141
12.0
290
     0
  0
SCALE
  5
8C5
102
{ACAD_REACTORS
330
67E
102
}
330
67E
100
AcDbScale
 70
     0
300
6" = 1'-0"
140
6.0
141
12.0
290
     0
  0
SCALE
  5
8C6
102
{ACAD_REACTORS
330
67E
102
}
330
67E
100
AcDbScale
 70
     0
300
1'-0" = 1'-0"
140
12.0
141
12.0
290
     0
  0
TABLESTYLE
  5
67D
102
{ACAD_XDICTIONARY
360
7A8
102
}
102
{ACAD_REACTORS
330
67C
102
}
330
67C
100
AcDbTableStyle
  3
Standard
 70
     0
 71
     0
 40
0.06
 41
0.06
280
     0
281
     0
  7
STANDARD
140
0.18
170
     2
 62
     0
 63
     7
283
     0
274
    -2
284
     1
 64
     0
275
    -2
285
     1
 65
     0
276
    -2
286
     1
 66
     0
277
    -2
287
     1
 67
     0
278
    -2
288
     1
 68
     0
279
    -2
289
     1
 69
     0
  7
STANDARD
140
0.25
170
     5
 62
     0
 63
     7
283
     0
274
    -2
284
     1
 64
     0
275
    -2
285
     1
 65
     0
276
    -2
286
     1
 66
     0
277
    -2
287
     1
 67
     0
278
    -2
288
     1
 68
     0
279
    -2
289
     1
 69
     0
  7
STANDARD
140
0.18
170
     5
 62
     0
 63
     7
283
     0
274
    -2
284
     1
 64
     0
275
    -2
285
     1
 65
     0
276
    -2
286
     1
 66
     0
277
    -2
287
     1
 67
     0
278
    -2
288
     1
 68
     0
279
    -2
289
     1
 69
     0
  0
VISUALSTYLE
  5
670
102
{ACAD_REACTORS
330
66A
102
}
330
66A
100
AcDbVisualStyle
  2
2dWireframe
 70
     4
 71
     0
 72
     2
 73
     0
 90
        0
 40
-0.6
 41
-30.0
 62
     5
 63
     7
421
 16777215
 74
     1
 91
        4
 64
     7
 65
   257
 75
     1
175
     1
 42
1.0
 92
        0
 66
   257
 43
1.0
 76
     1
 77
     6
 78
     2
 67
     7
 79
     5
170
     0
171
     0
290
     0
174
     0
 93
        1
 44
0.0
173
     0
291
     0
 45
0.0
1001
ACAD
1000
AcDbSavedByObjectVersion
1070
     0
  0
VISUALSTYLE
  5
672
102
{ACAD_REACTORS
330
66A
102
}
330
66A
100
AcDbVisualStyle
  2
3D Hidden
 70
     6
 71
     1
 72
     2
 73
     2
 90
        0
 40
-0.6
 41
-30.0
 62
     5
 63
     7
421
 16777215
 74
     2
 91
        2
 64
     7
 65
   257
 75
     2
175
     1
 42
40.0
 92
        0
 66
   257
 43
1.0
 76
     1
 77
     6
 78
     2
 67
     7
 79
     3
170
     0
171
     0
290
     0
174
     0
 93
        1
 44
0.0
173
     0
291
     0
 45
0.0
1001
ACAD
1000
AcDbSavedByObjectVersion
1070
     0
  0
VISUALSTYLE
  5
671
102
{ACAD_REACTORS
330
66A
102
}
330
66A
100
AcDbVisualStyle
  2
3dWireframe
 70
     5
 71
     0
 72
     2
 73
     0
 90
        0
 40
-0.6
 41
-30.0
 62
     5
 63
     7
421
 16777215
 74
     1
 91
        4
 64
     7
 65
   257
 75
     1
175
     1
 42
1.0
 92
        0
 66
   257
 43
1.0
 76
     1
 77
     6
 78
     2
 67
     7
 79
     5
170
     0
171
     0
290
     0
174
     0
 93
        1
 44
0.0
173
     0
291
     0
 45
0.0
1001
ACAD
1000
AcDbSavedByObjectVersion
1070
     0
  0
VISUALSTYLE
  5
66F
102
{ACAD_REACTORS
330
66A
102
}
330
66A
100
AcDbVisualStyle
  2
Basic
 70
     7
 71
     1
 72
     0
 73
     1
 90
        0
 40
-0.6
 41
-30.0
 62
     5
 63
     7
421
 16777215
 74
     0
 91
        4
 64
     7
 65
   257
 75
     1
175
     1
 42
1.0
 92
        8
 66
     7
 43
1.0
 76
     1
 77
     6
 78
     2
 67
     7
 79
     5
170
     0
171
     0
290
     0
174
     0
 93
        1
 44
0.0
173
     0
291
     1
 45
0.0
1001
ACAD
1000
AcDbSavedByObjectVersion
1070
     0
  0
VISUALSTYLE
  5
676
102
{ACAD_REACTORS
330
66A
102
}
330
66A
100
AcDbVisualStyle
  2
Brighten
 70
    12
 71
     2
 72
     2
 73
     0
 90
        0
 40
-0.6
 41
-30.0
 62
     5
 63
     7
421
 16777215
 74
     1
 91
        4
 64
     7
 65
   257
 75
     1
175
     1
 42
1.0
 92
        8
 66
     7
 43
1.0
 76
     1
 77
     6
 78
     2
 67
     7
 79
     5
170
     0
171
     0
290
     0
174
     0
 93
        1
 44
50.0
173
     0
291
     1
 45
0.0
1001
ACAD
1000
AcDbSavedByObjectVersion
1070
     0
  0
VISUALSTYLE
  5
67A
102
{ACAD_REACTORS
330
66A
102
}
330
66A
100
AcDbVisualStyle
  2
ColorChange
 70
    16
 71
     2
 72
     2
 73
     3
 90
        0
 40
-0.6
 41
-30.0
 62
     5
 63
     8
421
  8421504
 74
     1
 91
        4
 64
     7
 65
   257
 75
     1
175
     1
 42
1.0
 92
        8
 66
     8
424
  8421504
 43
1.0
 76
     1
 77
     6
 78
     2
 67
     7
 79
     5
170
     0
171
     0
290
     0
174
     0
 93
        1
 44
0.0
173
     0
291
     1
 45
0.0
1001
ACAD
1000
AcDbSavedByObjectVersion
1070
     0
  0
VISUALSTYLE
  5
673
102
{ACAD_REACTORS
330
66A
102
}
330
66A
100
AcDbVisualStyle
  2
Conceptual
 70
     9
 71
     3
 72
     2
 73
     0
 90
        0
 40
-0.6
 41
-30.0
 62
     5
 63
     7
421
 16777215
 74
     2
 91
        2
 64
     7
 65
   257
 75
     1
175
     1
 42
40.0
 92
        8
 66
     7
 43
1.0
 76
     1
 77
     6
 78
     2
 67
     7
 79
     3
170
     0
171
     0
290
     0
174
     0
 93
        1
 44
0.0
173
     0
291
     0
 45
0.0
1001
ACAD
1000
AcDbSavedByObjectVersion
1070
     0
  0
VISUALSTYLE
  5
675
102
{ACAD_REACTORS
330
66A
102
}
330
66A
100
AcDbVisualStyle
  2
Dim
 70
    11
 71
     2
 72
     2
 73
     0
 90
        0
 40
-0.6
 41
-30.0
 62
     5
 63
     7
421
 16777215
 74
     1
 91
        4
 64
     7
 65
   257
 75
     1
175
     1
 42
1.0
 92
        8
 66
     7
 43
1.0
 76
     1
 77
     6
 78
     2
 67
     7
 79
     5
170
     0
171
     0
290
     0
174
     0
 93
        1
 44
-50.0
173
     0
291
     1
 45
0.0
1001
ACAD
1000
AcDbSavedByObjectVersion
1070
     0
  0
VISUALSTYLE
  5
679
102
{ACAD_REACTORS
330
66A
102
}
330
66A
100
AcDbVisualStyle
  2
Facepattern
 70
    15
 71
     2
 72
     2
 73
     0
 90
        0
 40
-0.6
 41
-30.0
 62
     5
 63
     7
421
 16777215
 74
     1
 91
        4
 64
     7
 65
   257
 75
     1
175
     1
 42
1.0
 92
        8
 66
     7
 43
1.0
 76
     1
 77
     6
 78
     2
 67
     7
 79
     5
170
     0
171
     0
290
     0
174
     0
 93
        1
 44
0.0
173
     0
291
     1
 45
0.0
1001
ACAD
1000
AcDbSavedByObjectVersion
1070
     0
  0
VISUALSTYLE
  5
66B
102
{ACAD_REACTORS
330
66A
102
}
330
66A
100
AcDbVisualStyle
  2
Flat
 70
     0
 71
     2
 72
     1
 73
     1
 90
        2
 40
-0.6
 41
30.0
 62
     5
 63
     7
421
 16777215
 74
     0
 91
        4
 64
     7
 65
   257
 75
     1
175
     1
 42
1.0
 92
        8
 66
     7
 43
1.0
 76
     1
 77
     6
 78
     2
 67
     7
 79
     5
170
     0
171
     0
290
     0
174
     0
 93
       13
 44
0.0
173
     0
291
     1
 45
0.0
1001
ACAD
1000
AcDbSavedByObjectVersion
1070
     0
  0
VISUALSTYLE
  5
66C
102
{ACAD_REACTORS
330
66A
102
}
330
66A
100
AcDbVisualStyle
  2
FlatWithEdges
 70
     1
 71
     2
 72
     1
 73
     1
 90
        2
 40
-0.6
 41
30.0
 62
     5
 63
     7
421
 16777215
 74
     1
 91
        4
 64
     7
 65
   257
 75
     1
175
     1
 42
1.0
 92
        0
 66
   257
 43
1.0
 76
     1
 77
     6
 78
     2
 67
     7
 79
     5
170
     0
171
     0
290
     0
174
     0
 93
       13
 44
0.0
173
     0
291
     1
 45
0.0
1001
ACAD
1000
AcDbSavedByObjectVersion
1070
     0
  0
VISUALSTYLE
  5
66D
102
{ACAD_REACTORS
330
66A
102
}
330
66A
100
AcDbVisualStyle
  2
Gouraud
 70
     2
 71
     2
 72
     2
 73
     1
 90
        2
 40
-0.6
 41
30.0
 62
     5
 63
     7
421
 16777215
 74
     0
 91
        4
 64
     7
 65
   257
 75
     1
175
     1
 42
1.0
 92
        0
 66
     7
 43
1.0
 76
     1
 77
     6
 78
     2
 67
     7
 79
     5
170
     0
171
     0
290
     0
174
     0
 93
       13
 44
0.0
173
     0
291
     1
 45
0.0
1001
ACAD
1000
AcDbSavedByObjectVersion
1070
     0
  0
VISUALSTYLE
  5
66E
102
{ACAD_REACTORS
330
66A
102
}
330
66A
100
AcDbVisualStyle
  2
GouraudWithEdges
 70
     3
 71
     2
 72
     2
 73
     1
 90
        2
 40
-0.6
 41
30.0
 62
     5
 63
     7
421
 16777215
 74
     1
 91
        4
 64
     7
 65
   257
 75
     1
175
     1
 42
1.0
 92
        0
 66
   257
 43
1.0
 76
     1
 77
     6
 78
     2
 67
     7
 79
     5
170
     0
171
     0
290
     0
174
     0
 93
       13
 44
0.0
173
     0
291
     1
 45
0.0
1001
ACAD
1000
AcDbSavedByObjectVersion
1070
     0
  0
VISUALSTYLE
  5
678
102
{ACAD_REACTORS
330
66A
102
}
330
66A
100
AcDbVisualStyle
  2
Linepattern
 70
    14
 71
     2
 72
     2
 73
     0
 90
        0
 40
-0.6
 41
-30.0
 62
     5
 63
     7
421
 16777215
 74
     1
 91
        4
 64
     7
 65
   257
 75
     7
175
     7
 42
1.0
 92
        8
 66
     7
 43
1.0
 76
     1
 77
     6
 78
     2
 67
     7
 79
     5
170
     0
171
     0
290
     0
174
     0
 93
        1
 44
0.0
173
     0
291
     1
 45
0.0
1001
ACAD
1000
AcDbSavedByObjectVersion
1070
     0
  0
VISUALSTYLE
  5
674
102
{ACAD_REACTORS
330
66A
102
}
330
66A
100
AcDbVisualStyle
  2
Realistic
 70
     8
 71
     2
 72
     2
 73
     0
 90
        0
 40
-0.6
 41
-30.0
 62
     5
 63
     7
421
 16777215
 74
     1
 91
        0
 64
     7
 65
   257
 75
     1
175
     1
 42
1.0
 92
        8
 66
     8
424
  7895160
 43
1.0
 76
     1
 77
     6
 78
     2
 67
     7
 79
     5
170
     0
171
     0
290
     0
174
     0
 93
       13
 44
0.0
173
     0
291
     0
 45
0.0
1001
ACAD
1000
AcDbSavedByObjectVersion
1070
     0
  0
VISUALSTYLE
  5
677
102
{ACAD_REACTORS
330
66A
102
}
330
66A
100
AcDbVisualStyle
  2
Thicken
 70
    13
 71
     2
 72
     2
 73
     0
 90
        0
 40
-0.6
 41
-30.0
 62
     5
 63
     7
421
 16777215
 74
     1
 91
        4
 64
     7
 65
   257
 75
     1
175
     1
 42
1.0
 92
       12
 66
     7
 43
1.0
 76
     1
 77
     6
 78
     2
 67
     7
 79
     5
170
     0
171
     0
290
     0
174
     0
 93
        1
 44
0.0
173
     0
291
     1
 45
0.0
1001
ACAD
1000
AcDbSavedByObjectVersion
1070
     0
  0
DICTIONARYVAR
  5
7AD
102
{ACAD_REACTORS
330
215
102
}
330
215
100
DictionaryVariables
280
     0
  1
1:1
  0
DICTIONARYVAR
  5
7E5
102
{ACAD_REACTORS
330
215
102
}
330
215
100
DictionaryVariables
280
     0
  1
STANDARD
  0
DICTIONARYVAR
  5
7AB
102
{ACAD_REACTORS
330
215
102
}
330
215
100
DictionaryVariables
280
     0
  1
STANDARD
  0
DICTIONARYVAR
  5
218
102
{ACAD_REACTORS
330
215
102
}
330
215
100
DictionaryVariables
280
     0
  1
1
  0
DICTIONARYVAR
  5
217
102
{ACAD_REACTORS
330
215
102
}
330
215
100
DictionaryVariables
280
     0
  1
1
  0
DICTIONARYVAR
  5
7AF
102
{ACAD_REACTORS
330
215
102
}
330
215
100
DictionaryVariables
280
     0
  1
0
  0
DICTIONARYVAR
  5
7AE
102
{ACAD_REACTORS
330
215
102
}
330
215
100
DictionaryVariables
280
     0
  1
0
  0
DICTIONARYVAR
  5
7AC
102
{ACAD_REACTORS
330
215
102
}
330
215
100
DictionaryVariables
280
     0
  1
0
  0
DICTIONARYVAR
  5
216
102
{ACAD_REACTORS
330
215
102
}
330
215
100
DictionaryVariables
280
     0
  1
1
  0
XRECORD
  5
89E
102
{ACAD_REACTORS
330
89B
102
}
330
89B
100
AcDbXrecord
280
     1
  1
_0100-
  1
*0100-*
  1
*
  1
*
 70
     0
  1
*
  1
*
  0
XRECORD
  5
89D
102
{ACAD_REACTORS
330
89B
102
}
330
89B
100
AcDbXrecord
280
     1
  1
_0280-
  1
*0280-*
  1
*
  1
*
 70
     0
  1
*
  1
*
  0
XRECORD
  5
8A1
102
{ACAD_REACTORS
330
89B
102
}
330
89B
100
AcDbXrecord
280
     1
  1
_Color 253
  1
*
  1
253
  1
*
 70
     0
  1
*
  1
*
  0
XRECORD
  5
89F
102
{ACAD_REACTORS
330
89B
102
}
330
89B
100
AcDbXrecord
280
     1
  1
_Color 8
  1
*
  1
8
  1
*
 70
     0
  1
*
  1
*
  0
XRECORD
  5
8A0
102
{ACAD_REACTORS
330
89B
102
}
330
89B
100
AcDbXrecord
280
     1
  1
_Color 84
  1
*
  1
84
  1
*
 70
     0
  1
*
  1
*
  0
XRECORD
  5
8A6
102
{ACAD_REACTORS
330
89B
102
}
330
89B
100
AcDbXrecord
280
     1
  1
_Contours
  1
*contour*,*cont-*,*cp cont*,*p-cont*
  1
*
  1
*
 70
     0
  1
*
  1
*
  0
XRECORD
  5
8A2
102
{ACAD_REACTORS
330
89B
102
}
330
89B
100
AcDbXrecord
280
     1
  1
_Existing
  1
*exist*
  1
*
  1
*
 70
     0
  1
*
  1
*
  0
XRECORD
  5
8A5
102
{ACAD_REACTORS
330
89B
102
}
330
89B
100
AcDbXrecord
280
     1
  1
_Hardscape
  1
*sidewalk*,*sw*,*curb*,*walk*,*-lip*,*tbc*
  1
*
  1
*
 70
     0
  1
*
  1
*
  0
XRECORD
  5
89C
102
{ACAD_REACTORS
330
89B
102
}
330
89B
100
AcDbXrecord
280
     1
  1
_NoXref
  1
~*|*
  1
*
  1
*
 70
     0
  1
*
  1
*
  0
XRECORD
  5
8A3
102
{ACAD_REACTORS
330
89B
102
}
330
89B
100
AcDbXrecord
280
     1
  1
_Row
  1
*row*
  1
*
  1
*
 70
     0
  1
*
  1
*
  0
XRECORD
  5
8A4
102
{ACAD_REACTORS
330
89B
102
}
330
89B
100
AcDbXrecord
280
     1
  1
_Utility
  1
*ut-*,*utility*,*wat*
  1
*
  1
*
 70
     0
  1
*
  1
*
  0
DICTIONARY
  5
65B
330
65A
100
AcDbDictionary
280
     1
281
     1
  3
ACAD_XREC_ROUNDTRIP
360
8C9
  3
BUMPTILE
360
65D
  3
DIFFUSETILE
360
65C
  3
OPACITYTILE
360
660
  3
REFLECTIONTILE
360
65F
  3
REFRACTIONTILE
360
661
  3
SPECULARTILE
360
65E
  0
DICTIONARY
  5
653
330
652
100
AcDbDictionary
280
     1
281
     1
  3
ACAD_XREC_ROUNDTRIP
360
8C8
  3
BUMPTILE
360
655
  3
DIFFUSETILE
360
654
  3
OPACITYTILE
360
658
  3
REFLECTIONTILE
360
657
  3
REFRACTIONTILE
360
659
  3
SPECULARTILE
360
656
  0
DICTIONARY
  5
663
330
662
100
AcDbDictionary
280
     1
281
     1
  3
ACAD_XREC_ROUNDTRIP
360
8CA
  3
BUMPTILE
360
665
  3
DIFFUSETILE
360
664
  3
OPACITYTILE
360
668
  3
REFLECTIONTILE
360
667
  3
REFRACTIONTILE
360
669
  3
SPECULARTILE
360
666
  0
DICTIONARY
  5
7A8
330
67D
100
AcDbDictionary
280
     1
281
     1
  3
ACAD_ROUNDTRIP_2008_TABLESTYLE_CELLSTYLEMAP
360
8C7
  3
ACAD_XREC_ROUNDTRIP
360
8CB
  0
XRECORD
  5
8C9
102
{ACAD_REACTORS
330
65B
102
}
330
65B
100
AcDbXrecord
280
     1
102
MATERIAL
148
0.0
149
0.0
149
0.0
 93
        0
 94
      127
282
     0
 72
     0
 77
     0
171
     0
175
     0
179
     0
273
     0
  0
XRECORD
  5
65D
102
{ACAD_REACTORS
330
65B
102
}
330
65B
100
AcDbXrecord
280
     1
270
     1
271
     1
  0
XRECORD
  5
65C
102
{ACAD_REACTORS
330
65B
102
}
330
65B
100
AcDbXrecord
280
     1
270
     1
271
     1
  0
XRECORD
  5
660
102
{ACAD_REACTORS
330
65B
102
}
330
65B
100
AcDbXrecord
280
     1
270
     1
271
     1
  0
XRECORD
  5
65F
102
{ACAD_REACTORS
330
65B
102
}
330
65B
100
AcDbXrecord
280
     1
270
     1
271
     1
  0
XRECORD
  5
661
102
{ACAD_REACTORS
330
65B
102
}
330
65B
100
AcDbXrecord
280
     1
270
     1
271
     1
  0
XRECORD
  5
65E
102
{ACAD_REACTORS
330
65B
102
}
330
65B
100
AcDbXrecord
280
     1
270
     1
271
     1
  0
XRECORD
  5
8C8
102
{ACAD_REACTORS
330
653
102
}
330
653
100
AcDbXrecord
280
     1
102
MATERIAL
148
0.0
149
0.0
149
0.0
 93
        0
 94
      127
282
     0
 72
     0
 77
     0
171
     0
175
     0
179
     0
273
     0
  0
XRECORD
  5
655
102
{ACAD_REACTORS
330
653
102
}
330
653
100
AcDbXrecord
280
     1
270
     1
271
     1
  0
XRECORD
  5
654
102
{ACAD_REACTORS
330
653
102
}
330
653
100
AcDbXrecord
280
     1
270
     1
271
     1
  0
XRECORD
  5
658
102
{ACAD_REACTORS
330
653
102
}
330
653
100
AcDbXrecord
280
     1
270
     1
271
     1
  0
XRECORD
  5
657
102
{ACAD_REACTORS
330
653
102
}
330
653
100
AcDbXrecord
280
     1
270
     1
271
     1
  0
XRECORD
  5
659
102
{ACAD_REACTORS
330
653
102
}
330
653
100
AcDbXrecord
280
     1
270
     1
271
     1
  0
XRECORD
  5
656
102
{ACAD_REACTORS
330
653
102
}
330
653
100
AcDbXrecord
280
     1
270
     1
271
     1
  0
XRECORD
  5
8CA
102
{ACAD_REACTORS
330
663
102
}
330
663
100
AcDbXrecord
280
     1
102
MATERIAL
148
0.0
149
0.0
149
0.0
 93
        0
 94
      127
282
     0
 72
     0
 77
     0
171
     0
175
     0
179
     0
273
     0
  0
XRECORD
  5
665
102
{ACAD_REACTORS
330
663
102
}
330
663
100
AcDbXrecord
280
     1
270
     1
271
     1
  0
XRECORD
  5
664
102
{ACAD_REACTORS
330
663
102
}
330
663
100
AcDbXrecord
280
     1
270
     1
271
     1
  0
XRECORD
  5
668
102
{ACAD_REACTORS
330
663
102
}
330
663
100
AcDbXrecord
280
     1
270
     1
271
     1
  0
XRECORD
  5
667
102
{ACAD_REACTORS
330
663
102
}
330
663
100
AcDbXrecord
280
     1
270
     1
271
     1
  0
XRECORD
  5
669
102
{ACAD_REACTORS
330
663
102
}
330
663
100
AcDbXrecord
280
     1
270
     1
271
     1
  0
XRECORD
  5
666
102
{ACAD_REACTORS
330
663
102
}
330
663
100
AcDbXrecord
280
     1
270
     1
271
     1
  0
CELLSTYLEMAP
  5
8C7
102
{ACAD_REACTORS
330
7A8
102
}
330
7A8
100
AcDbCellStyleMap
 90
        3
300
CELLSTYLE
  1
TABLEFORMAT_BEGIN
 90
        5
170
     1
 91
        0
 92
    32768
 62
   257
 93
        1
300
CONTENTFORMAT
  1
CONTENTFORMAT_BEGIN
 90
        0
 91
        0
 92
      512
 93
        0
300

 40
0.0
140
1.0
 94
        5
 62
     0
340
11
144
0.25
309
CONTENTFORMAT_END
171
     0
 94
        0
309
TABLEFORMAT_END
  1
CELLSTYLE_BEGIN
 90
        1
 91
        1
300
_TITLE
309
CELLSTYLE_END
300
CELLSTYLE
  1
TABLEFORMAT_BEGIN
 90
        5
170
     1
 91
        0
 92
        0
 62
   257
 93
        1
300
CONTENTFORMAT
  1
CONTENTFORMAT_BEGIN
 90
        0
 91
        0
 92
      512
 93
        0
300

 40
0.0
140
1.0
 94
        5
 62
     0
340
11
144
0.18
309
CONTENTFORMAT_END
171
     0
 94
        0
309
TABLEFORMAT_END
  1
CELLSTYLE_BEGIN
 90
        2
 91
        1
300
_HEADER
309
CELLSTYLE_END
300
CELLSTYLE
  1
TABLEFORMAT_BEGIN
 90
        5
170
     1
 91
        0
 92
        0
 62
   257
 93
        1
300
CONTENTFORMAT
  1
CONTENTFORMAT_BEGIN
 90
        0
 91
        0
 92
      512
 93
        0
300

 40
0.0
140
1.0
 94
        2
 62
     0
340
11
144
0.18
309
CONTENTFORMAT_END
171
     0
 94
        0
309
TABLEFORMAT_END
  1
CELLSTYLE_BEGIN
 90
        3
 91
        2
300
_DATA
309
CELLSTYLE_END
  0
XRECORD
  5
8CB
102
{ACAD_REACTORS
330
7A8
102
}
330
7A8
100
AcDbXrecord
280
     1
102
ACAD_ROUNDTRIP_PRE2007_TABLESTYLE
 90
      512
 91
        0
  1

 92
      512
 93
        0
  2

 94
      512
 95
        0
  3

  0
ENDSEC
  0
EOF
