  0
SECTION
  2
HEADER
  9
$ACADVER
  1
AC1015
  9
$ACADMAINTVER
 70
    13
  9
$DWGCODEPAGE
  3
ANSI_1252
  9
$INSBASE
 10
0.0
 20
0.0
 30
0.0
  9
$EXTMIN
 10
-0.0003659142237856
 20
-0.0002744427750602
 30
-0.0000003773018962
  9
$EXTMAX
 10
16.49011247224494
 20
10.4401703593366
 30
0.0300016840751409
  9
$LIMMIN
 10
0.0
 20
0.0
  9
$LIMMAX
 10
12.0
 20
9.0
  9
$ORTHOMODE
 70
     1
  9
$REGENMODE
 70
     1
  9
$FILLMODE
 70
     1
  9
$QTEXTMODE
 70
     0
  9
$MIRRTEXT
 70
     0
  9
$LTSCALE
 40
1.0
  9
$ATTMODE
 70
     1
  9
$TEXTSIZE
 40
0.1
  9
$TRACEWID
 40
0.05
  9
$TEXTSTYLE
  7
L200
  9
$CLAYER
  8
TITLE
  9
$CELTYPE
  6
ByLayer
  9
$CECOLOR
 62
   256
  9
$CELTSCALE
 40
1.0
  9
$DISPSILH
 70
     0
  9
$DIMSCALE
 40
1.0
  9
$DIMASZ
 40
0.1
  9
$DIMEXO
 40
0.0625
  9
$DIMDLI
 40
0.38
  9
$DIMRND
 40
0.0
  9
$DIMDLE
 40
0.0
  9
$DIMEXE
 40
0.18
  9
$DIMTP
 40
0.0
  9
$DIMTM
 40
0.0
  9
$DIMTXT
 40
0.18
  9
$DIMCEN
 40
0.09
  9
$DIMTSZ
 40
0.0
  9
$DIMTOL
 70
     0
  9
$DIMLIM
 70
     0
  9
$DIMTIH
 70
     1
  9
$DIMTOH
 70
     1
  9
$DIMSE1
 70
     0
  9
$DIMSE2
 70
     0
  9
$DIMTAD
 70
     0
  9
$DIMZIN
 70
     0
  9
$DIMBLK
  1

  9
$DIMASO
 70
     1
  9
$DIMSHO
 70
     0
  9
$DIMPOST
  1

  9
$DIMAPOST
  1

  9
$DIMALT
 70
     0
  9
$DIMALTD
 70
     2
  9
$DIMALTF
 40
25.4
  9
$DIMLFAC
 40
1.0
  9
$DIMTOFL
 70
     0
  9
$DIMTVP
 40
0.0
  9
$DIMTIX
 70
     0
  9
$DIMSOXD
 70
     0
  9
$DIMSAH
 70
     0
  9
$DIMBLK1
  1

  9
$DIMBLK2
  1

  9
$DIMSTYLE
  2
Standard
  9
$DIMCLRD
 70
     0
  9
$DIMCLRE
 70
     0
  9
$DIMCLRT
 70
     0
  9
$DIMTFAC
 40
1.0
  9
$DIMGAP
 40
0.09
  9
$DIMJUST
 70
     0
  9
$DIMSD1
 70
     0
  9
$DIMSD2
 70
     0
  9
$DIMTOLJ
 70
     1
  9
$DIMTZIN
 70
     0
  9
$DIMALTZ
 70
     0
  9
$DIMALTTZ
 70
     0
  9
$DIMUPT
 70
     0
  9
$DIMDEC
 70
     4
  9
$DIMTDEC
 70
     4
  9
$DIMALTU
 70
     2
  9
$DIMALTTD
 70
     2
  9
$DIMTXSTY
  7
STANDARD
  9
$DIMAUNIT
 70
     0
  9
$DIMADEC
 70
     0
  9
$DIMALTRND
 40
0.0
  9
$DIMAZIN
 70
     0
  9
$DIMDSEP
 70
    46
  9
$DIMATFIT
 70
     3
  9
$DIMFRAC
 70
     0
  9
$DIMLDRBLK
  1

  9
$DIMLUNIT
 70
     2
  9
$DIMLWD
 70
    -2
  9
$DIMLWE
 70
    -2
  9
$DIMTMOVE
 70
     2
  9
$LUNITS
 70
     2
  9
$LUPREC
 70
     4
  9
$SKETCHINC
 40
0.1
  9
$FILLETRAD
 40
0.0
  9
$AUNITS
 70
     0
  9
$AUPREC
 70
     0
  9
$MENU
  1
acad
  9
$ELEVATION
 40
0.0
  9
$PELEVATION
 40
0.0
  9
$THICKNESS
 40
0.0
  9
$LIMCHECK
 70
     0
  9
$CHAMFERA
 40
0.0
  9
$CHAMFERB
 40
0.0
  9
$CHAMFERC
 40
0.0
  9
$CHAMFERD
 40
0.0
  9
$SKPOLY
 70
     0
  9
$TDCREATE
 40
2450450.382087268
  9
$TDUCREATE
 40
2450450.673753935
  9
$TDUPDATE
 40
2453021.563248090
  9
$TDUUPDATE
 40
2453021.854914757
  9
$TDINDWG
 40
0.6512520139
  9
$TDUSRTIMER
 40
0.6512520139
  9
$USRTIMER
 70
     1
  9
$ANGBASE
 50
0.0
  9
$ANGDIR
 70
     0
  9
$PDMODE
 70
     0
  9
$PDSIZE
 40
0.0
  9
$PLINEWID
 40
0.018
  9
$SPLFRAME
 70
     0
  9
$SPLINETYPE
 70
     6
  9
$SPLINESEGS
 70
     8
  9
$HANDSEED
  5
2F6
  9
$SURFTAB1
 70
     6
  9
$SURFTAB2
 70
     6
  9
$SURFTYPE
 70
     6
  9
$SURFU
 70
     6
  9
$SURFV
 70
     6
  9
$UCSBASE
  2

  9
$UCSNAME
  2

  9
$UCSORG
 10
0.0
 20
0.0
 30
0.0
  9
$UCSXDIR
 10
1.0
 20
0.0
 30
0.0
  9
$UCSYDIR
 10
0.0
 20
1.0
 30
0.0
  9
$UCSORTHOREF
  2

  9
$UCSORTHOVIEW
 70
     0
  9
$UCSORGTOP
 10
0.0
 20
0.0
 30
0.0
  9
$UCSORGBOTTOM
 10
0.0
 20
0.0
 30
0.0
  9
$UCSORGLEFT
 10
0.0
 20
0.0
 30
0.0
  9
$UCSORGRIGHT
 10
0.0
 20
0.0
 30
0.0
  9
$UCSORGFRONT
 10
0.0
 20
0.0
 30
0.0
  9
$UCSORGBACK
 10
0.0
 20
0.0
 30
0.0
  9
$PUCSBASE
  2

  9
$PUCSNAME
  2

  9
$PUCSORG
 10
0.0
 20
0.0
 30
0.0
  9
$PUCSXDIR
 10
1.0
 20
0.0
 30
0.0
  9
$PUCSYDIR
 10
0.0
 20
1.0
 30
0.0
  9
$PUCSORTHOREF
  2

  9
$PUCSORTHOVIEW
 70
     0
  9
$PUCSORGTOP
 10
0.0
 20
0.0
 30
0.0
  9
$PUCSORGBOTTOM
 10
0.0
 20
0.0
 30
0.0
  9
$PUCSORGLEFT
 10
0.0
 20
0.0
 30
0.0
  9
$PUCSORGRIGHT
 10
0.0
 20
0.0
 30
0.0
  9
$PUCSORGFRONT
 10
0.0
 20
0.0
 30
0.0
  9
$PUCSORGBACK
 10
0.0
 20
0.0
 30
0.0
  9
$USERI1
 70
     0
  9
$USERI2
 70
     0
  9
$USERI3
 70
     0
  9
$USERI4
 70
     0
  9
$USERI5
 70
     0
  9
$USERR1
 40
1.0
  9
$USERR2
 40
1.0
  9
$USERR3
 40
0.0
  9
$USERR4
 40
0.0
  9
$USERR5
 40
0.0
  9
$WORLDVIEW
 70
     1
  9
$SHADEDGE
 70
     3
  9
$SHADEDIF
 70
    70
  9
$TILEMODE
 70
     1
  9
$MAXACTVP
 70
    16
  9
$PINSBASE
 10
0.0
 20
0.0
 30
0.0
  9
$PLIMCHECK
 70
     0
  9
$PEXTMIN
 10
1.000000000000000E+20
 20
1.000000000000000E+20
 30
1.000000000000000E+20
  9
$PEXTMAX
 10
-1.000000000000000E+20
 20
-1.000000000000000E+20
 30
-1.000000000000000E+20
  9
$PLIMMIN
 10
0.0
 20
0.0
  9
$PLIMMAX
 10
12.0
 20
9.0
  9
$UNITMODE
 70
     0
  9
$VISRETAIN
 70
     0
  9
$PLINEGEN
 70
     1
  9
$PSLTSCALE
 70
     0
  9
$TREEDEPTH
 70
  3020
  9
$CMLSTYLE
  2
Standard
  9
$CMLJUST
 70
     0
  9
$CMLSCALE
 40
1.0
  9
$PROXYGRAPHICS
 70
     1
  9
$MEASUREMENT
 70
     0
  9
$CELWEIGHT
370
    -1
  9
$ENDCAPS
280
     0
  9
$JOINSTYLE
280
     0
  9
$LWDISPLAY
290
     0
  9
$INSUNITS
 70
     0
  9
$HYPERLINKBASE
  1

  9
$STYLESHEET
  1
8500ColorShaded.ctb
  9
$XEDIT
290
     1
  9
$CEPSNTYPE
380
     0
  9
$PSTYLEMODE
290
     1
  9
$FINGERPRINTGUID
  2
{F8001074-C320-4A67-8977-AB6ABBF184D2}
  9
$VERSIONGUID
  2
{1B178A16-5267-414A-A7EA-C74B3EFFE2CB}
  9
$EXTNAMES
290
     1
  9
$PSVPSCALE
 40
0.0
  9
$OLESTARTUP
290
     0
  0
ENDSEC
  0
SECTION
  2
CLASSES
  0
CLASS
  1
ACDBDICTIONARYWDFLT
  2
AcDbDictionaryWithDefault
  3
AutoCAD 2000
 90
        0
280
     0
281
     0
  0
CLASS
  1
ACDBPLACEHOLDER
  2
AcDbPlaceHolder
  3
AutoCAD 2000
 90
        0
280
     0
281
     0
  0
CLASS
  1
LAYOUT
  2
AcDbLayout
  3
AutoCAD 2000
 90
        0
280
     0
281
     0
  0
CLASS
  1
DICTIONARYVAR
  2
AcDbDictionaryVar
  3
AutoCAD 2000
 90
        0
280
     0
281
     0
  0
CLASS
  1
PLOTSETTINGS
  2
AcDbPlotSettings
  3
AutoCAD 2000
 90
    32768
280
     0
281
     0
  0
ENDSEC
  0
SECTION
  2
TABLES
  0
TABLE
  2
VPORT
  5
19
330
0
100
AcDbSymbolTable
 70
     4
  0
VPORT
  5
2F5
330
19
100
AcDbSymbolTableRecord
100
AcDbViewportTableRecord
  2
*Active
 70
     0
 10
0.0
 20
0.0
 11
1.0
 21
1.0
 12
8.244873279010581
 22
5.219947958280769
 13
0.0
 23
0.0
 14
1.0
 24
1.0
 15
0.0
 25
0.0
 16
0.0
 26
0.0
 36
1.0
 17
0.0
 27
0.0
 37
0.0
 40
10.5267294698977
 41
1.609655172413793
 42
50.0
 43
0.0
 44
0.0
 50
0.0
 51
0.0
 71
     0
 72
  1000
 73
     1
 74
     0
 75
     0
 76
     0
 77
     0
 78
     1
281
     0
 65
     1
110
0.0
120
0.0
130
0.0
111
1.0
121
0.0
131
0.0
112
0.0
122
1.0
132
0.0
 79
     0
146
0.0
  0
ENDTAB
  0
TABLE
  2
LTYPE
  5
14
330
0
100
AcDbSymbolTable
 70
     3
  0
LTYPE
  5
15
330
14
100
AcDbSymbolTableRecord
100
AcDbLinetypeTableRecord
  2
ByBlock
 70
     0
  3

 72
    65
 73
     0
 40
0.0
  0
LTYPE
  5
16
330
14
100
AcDbSymbolTableRecord
100
AcDbLinetypeTableRecord
  2
ByLayer
 70
     0
  3

 72
    65
 73
     0
 40
0.0
  0
LTYPE
  5
8
330
14
100
AcDbSymbolTableRecord
100
AcDbLinetypeTableRecord
  2
CONTINUOUS
 70
     0
  3
Solid line
 72
    65
 73
     0
 40
0.0
  0
ENDTAB
  0
TABLE
  2
LAYER
  5
10
102
{ACAD_XDICTIONARY
360
2A1
102
}
330
0
100
AcDbSymbolTable
 70
     4
  0
LAYER
  5
4
330
10
100
AcDbSymbolTableRecord
100
AcDbLayerTableRecord
  2
0
 70
     0
 62
     7
  6
CONTINUOUS
370
    -3
390
5
  0
LAYER
  5
37
330
10
100
AcDbSymbolTableRecord
100
AcDbLayerTableRecord
  2
TITLE
 70
     0
 62
     7
  6
CONTINUOUS
370
    -3
390
5
  0
LAYER
  5
22
330
10
100
AcDbSymbolTableRecord
100
AcDbLayerTableRecord
  2
IMAGE
 70
     0
 62
     7
  6
CONTINUOUS
370
    -3
390
5
  0
LAYER
  5
2B
330
10
100
AcDbSymbolTableRecord
100
AcDbLayerTableRecord
  2
TEXT_BUBBLES
 70
     0
 62
     7
  6
CONTINUOUS
370
    -3
390
5
  0
ENDTAB
  0
TABLE
  2
STYLE
  5
11
330
0
100
AcDbSymbolTable
 70
     5
  0
STYLE
  5
12
330
11
100
AcDbSymbolTableRecord
100
AcDbTextStyleTableRecord
  2
STANDARD
 70
     0
 40
0.0
 41
1.0
 50
0.0
 71
     0
 42
0.2
  3
txt
  4

  0
STYLE
  5
3A
330
11
100
AcDbSymbolTableRecord
100
AcDbTextStyleTableRecord
  2
L100
 70
     0
 40
0.07
 41
1.0
 50
0.0
 71
     0
 42
0.07
  3
SIMPLEX
  4

  0
STYLE
  5
23
330
11
100
AcDbSymbolTableRecord
100
AcDbTextStyleTableRecord
  2
L200
 70
     0
 40
0.2
 41
1.0
 50
0.0
 71
     0
 42
0.1
  3
ARIAL.TTF
  4

1001
ACAD
1000
Arial
1071
       34
  0
STYLE
  5
3D
330
11
100
AcDbSymbolTableRecord
100
AcDbTextStyleTableRecord
  2
L80
 70
     0
 40
0.08
 41
1.0
 50
0.0
 71
     0
 42
0.08
  3
ROMANS
  4

  0
STYLE
  5
2A
330
11
100
AcDbSymbolTableRecord
100
AcDbTextStyleTableRecord
  2
ROMANS
 70
     0
 40
0.0
 41
1.0
 50
0.0
 71
     0
 42
0.1
  3
romans
  4

  0
ENDTAB
  0
TABLE
  2
VIEW
  5
17
330
0
100
AcDbSymbolTable
 70
     1
  0
VIEW
  5
298
330
17
100
AcDbSymbolTableRecord
100
AcDbViewTableRecord
  2
PS1
 70
     0
 40
10.44
 10
8.244999999999999
 20
5.22
 41
16.49
 11
0.0
 21
0.0
 31
1.0
 12
0.0
 22
0.0
 32
0.0
 42
50.0
 43
0.0
 44
0.0
 50
0.0
 71
     0
281
     0
 72
     1
110
0.0
120
0.0
130
0.0
111
1.0
121
0.0
131
0.0
112
0.0
122
1.0
132
0.0
 79
     0
146
0.0
  0
ENDTAB
  0
TABLE
  2
UCS
  5
18
330
0
100
AcDbSymbolTable
 70
     0
  0
ENDTAB
  0
TABLE
  2
APPID
  5
1B
330
0
100
AcDbSymbolTable
 70
     2
  0
APPID
  5
1C
330
1B
100
AcDbSymbolTableRecord
100
AcDbRegAppTableRecord
  2
ACAD
 70
     0
  0
APPID
  5
291
330
1B
100
AcDbSymbolTableRecord
100
AcDbRegAppTableRecord
  2
DCO15
 70
     0
  0
ENDTAB
  0
TABLE
  2
DIMSTYLE
  5
1D
330
0
100
AcDbSymbolTable
 70
     1
100
AcDbDimStyleTable
 71
     0
  0
DIMSTYLE
105
25
330
1D
100
AcDbSymbolTableRecord
100
AcDbDimStyleTableRecord
  2
Standard
 70
     0
340
12
  0
ENDTAB
  0
TABLE
  2
BLOCK_RECORD
  5
1
330
0
100
AcDbSymbolTable
 70
     4
  0
BLOCK_RECORD
  5
2
330
1
100
AcDbSymbolTableRecord
100
AcDbBlockTableRecord
  2
*Model_Space
340
A
  0
BLOCK_RECORD
  5
C
330
1
100
AcDbSymbolTableRecord
100
AcDbBlockTableRecord
  2
*Paper_Space
340
F
  0
BLOCK_RECORD
  5
41
330
1
100
AcDbSymbolTableRecord
100
AcDbBlockTableRecord
  2
TITLBLK
340
0
102
{BLKREFS
331
35
102
}
  0
BLOCK_RECORD
  5
2C
330
1
100
AcDbSymbolTableRecord
100
AcDbBlockTableRecord
  2
bubble
340
0
310
2800000020000000200000000100080000000000000400000000000000000000000000000000000000000000000080000080000000808000800000008000800080800000C0C0C000C0DCC000F0CAA6000020400000206000002080000020A0000020C0000020E00000400000004020000040400000406000004080000040A0
310
000040C0000040E00000600000006020000060400000606000006080000060A0000060C0000060E00000800000008020000080400000806000008080000080A0000080C0000080E00000A0000000A0200000A0400000A0600000A0800000A0A00000A0C00000A0E00000C0000000C0200000C0400000C0600000C0800000C0
310
A00000C0C00000C0E00000E0000000E0200000E0400000E0600000E0800000E0A00000E0C00000E0E00040000000400020004000400040006000400080004000A0004000C0004000E00040200000402020004020400040206000402080004020A0004020C0004020E000404000004040200040404000404060004040800040
310
40A0004040C0004040E00040600000406020004060400040606000406080004060A0004060C0004060E00040800000408020004080400040806000408080004080A0004080C0004080E00040A0000040A0200040A0400040A0600040A0800040A0A00040A0C00040A0E00040C0000040C0200040C0400040C0600040C08000
310
40C0A00040C0C00040C0E00040E0000040E0200040E0400040E0600040E0800040E0A00040E0C00040E0E00080000000800020008000400080006000800080008000A0008000C0008000E00080200000802020008020400080206000802080008020A0008020C0008020E00080400000804020008040400080406000804080
310
008040A0008040C0008040E00080600000806020008060400080606000806080008060A0008060C0008060E00080800000808020008080400080806000808080008080A0008080C0008080E00080A0000080A0200080A0400080A0600080A0800080A0A00080A0C00080A0E00080C0000080C0200080C0400080C0600080C0
310
800080C0A00080C0C00080C0E00080E0000080E0200080E0400080E0600080E0800080E0A00080E0C00080E0E000C0000000C0002000C0004000C0006000C0008000C000A000C000C000C000E000C0200000C0202000C0204000C0206000C0208000C020A000C020C000C020E000C0400000C0402000C0404000C0406000C0
310
408000C040A000C040C000C040E000C0600000C0602000C0604000C0606000C0608000C060A000C060C000C060E000C0800000C0802000C0804000C0806000C0808000C080A000C080C000C080E000C0A00000C0A02000C0A04000C0A06000C0A08000C0A0A000C0A0C000C0A0E000C0C00000C0C02000C0C04000C0C06000
310
C0C08000C0C0A000F0FBFF00A4A0A000808080000000FF0000FF000000FFFF00FF000000FF00FF00FFFF0000FFFFFF0008080808080808080808080808080808080808080808080808080808080808080808080808080808080808080808080808080808080808080808080808080808080808080808080808080808FDFDFD
310
08080808080808080808080808080808080808080808080808080808FD080808FDFDFDFDFDFD0808080808080808080808080808080808080808FDFD08080808080808080808FDFDFDFD080808080808080808080808080808FD08080808080808080808080808080808FD08080808080808080808080808FD080808080808
310
0808080808080808080808FD0808080808080808080808FDFD08080808080808080808080808080808080808FD080808080808080808FD080808080808080808080808080808080808080808FD0808080808080808FD08FD0808080808080808FD0808FD0808080808080808FDFD08080808080808FD0808FD080808080808
310
FD08080808FD080808080808FD08FD08080808080808FD0808FD080808080808FD08080808FD080808080808FD0808FD080808080808FD080808FD08080808FD080808080808FD08080808FD080808FD080808080808FD08080808FD0808FD0808080808080808FD0808FD0808080808FD0808080808FD08080808FD0808FD
310
0808080808080808FD0808FD0808080808FD0808080808FD0808080808FDFD08080808080808080808FDFD08080808080808FD08080808FD0808080808FDFD08080808080808080808FDFD08080808080808FD08080808FD08080808FD0808FD0808080808080808FD0808FD0808080808FD0808080808FD08080808FD0808
310
FD0808080808080808FD0808FD0808080808FD0808080808FD080808FD08080808FD080808080808FD08080808FD080808FD080808080808FD0808FD080808080808FD08080808FD080808080808FD0808FD080808080808FD0808FD080808080808FD08080808FD080808080808FD08FD08080808080808FD08FD08080808
310
08080808FD0808FD0808080808080808FDFD0808080808080808FD080808080808080808080808080808080808080808FD08080808080808080808FDFD08080808080808080808080808080808080808FD080808080808080808080808FD0808080808080808080808080808080808FD0808080808080808080808080808FD
310
08080808080808080808080808080808FD080808080808080808080808080808FDFD0808080808080808080808FDFDFD080808080808080808080808080808080808FD08080808FDFDFDFDFDFD08080808080808080808080808080808080808080808FDFDFDFD080808080808080808080808080808080808080808080808
310
0808080808080808080808080808080808080808080808080808080808080808080808080808080808080808080808080808080808080808
102
{BLKREFS
331
281
331
27E
331
27B
331
278
331
51
331
28
331
EC
331
180
331
2CA
331
2CF
102
}
  0
BLOCK_RECORD
  5
244
330
1
100
AcDbSymbolTableRecord
100
AcDbBlockTableRecord
  2
32767
340
0
102
{BLKREFS
331
243
102
}
  0
BLOCK_RECORD
  5
242
330
1
100
AcDbSymbolTableRecord
100
AcDbBlockTableRecord
  2
7
340
0
102
{BLKREFS
331
259
331
257
331
25A
331
251
331
250
331
24F
331
24A
331
241
102
}
  0
ENDTAB
  0
ENDSEC
  0
SECTION
  2
BLOCKS
  0
BLOCK
  5
3
330
2
100
AcDbEntity
  8
0
100
AcDbBlockBegin
  2
*Model_Space
 70
     0
 10
0.0
 20
0.0
 30
0.0
  3
*Model_Space
  1

  0
ENDBLK
  5
9
330
2
100
AcDbEntity
  8
0
100
AcDbBlockEnd
  0
BLOCK
  5
D
330
C
100
AcDbEntity
 67
     1
  8
0
100
AcDbBlockBegin
  2
*Paper_Space
 70
     0
 10
0.0
 20
0.0
 30
0.0
  3
*Paper_Space
  1

  0
ENDBLK
  5
E
330
C
100
AcDbEntity
 67
     1
  8
0
100
AcDbBlockEnd
  0
BLOCK
  5
4A
330
41
100
AcDbEntity
  8
0
100
AcDbBlockBegin
  2
TITLBLK
 70
     2
 10
0.0
 20
0.0
 30
0.0
  3
TITLBLK
  1

  0
LWPOLYLINE
  5
42
330
41
100
AcDbEntity
  8
0
100
AcDbPolyline
 90
        2
 70
     0
 43
0.04
 39
0.03
 10
0.3424999999999994
 20
-0.0000000000000003
 10
7.654581983261419
 20
-0.0000000000000003
  0
ATTDEF
  5
43
330
41
100
AcDbEntity
  8
0
100
AcDbText
 10
0.625
 20
0.0999999999999998
 30
0.0
 40
0.2
  1
TITLE
  7
L200
100
AcDbAttributeDefinition
  3
DETAIL TITLE
  2
TITLE
 70
     0
  0
LWPOLYLINE
  5
44
330
41
100
AcDbEntity
  8
0
100
AcDbPolyline
 90
        2
 70
     1
 43
0.03
 10
0.0
 20
-0.3425000000000002
 42
0.9999999999999998
 10
0.0
 20
0.3425000000000002
 42
0.9999999999999998
  0
ATTDEF
  5
45
330
41
100
AcDbEntity
  8
0
100
AcDbText
 10
-0.0776944065484311
 20
-0.1000000000000003
 30
0.0
 40
0.2
  1
#
  7
L200
 72
     4
 11
0.0
 21
-0.0000000000000003
 31
0.0
100
AcDbAttributeDefinition
  3
#
  2
#
 70
     0
  0
ATTDEF
  5
46
330
41
100
AcDbEntity
  8
0
100
AcDbText
 10
0.625
 20
-0.1836633170828782
 30
0.0
 40
0.1
  1
N.T.S.
  7
L100
100
AcDbAttributeDefinition
  3
SCALE
  2
SCALE
 70
     0
  0
ATTDEF
  5
47
330
41
100
AcDbEntity
  8
0
100
AcDbText
 10
2.107203380653828
 20
-0.2914343300200487
 30
0.0
 40
0.2
  1
TITLE2
  7
L200
100
AcDbAttributeDefinition
  3
DETAIL TITLE2
  2
TITLE2
 70
     0
  0
ATTDEF
  5
48
330
41
100
AcDbEntity
  8
0
100
AcDbText
 10
7.570772459451895
 20
-0.1618486459795794
 30
0.0
 40
0.08
  1
-
  7
L80
 72
     2
 11
7.654581983261419
 21
-0.1618486459795794
 31
0.0
100
AcDbAttributeDefinition
  3
DWG-NAME
  2
DWG-NAME
 70
     0
  0
ATTDEF
  5
49
330
41
100
AcDbEntity
  8
0
100
AcDbText
 10
7.570772459451895
 20
0.0853756950662722
 30
0.0
 40
0.08
  1
-
  7
L80
 72
     2
 11
7.654581983261419
 21
0.0853756950662722
 31
0.0
100
AcDbAttributeDefinition
  3
REVISION DATE
  2
REVISED
 70
     0
  0
ENDBLK
  5
4B
330
41
100
AcDbEntity
  8
0
100
AcDbBlockEnd
  0
BLOCK
  5
2F
330
2C
100
AcDbEntity
  8
0
100
AcDbBlockBegin
  2
bubble
 70
     2
 10
0.0
 20
0.0
 30
0.0
  3
bubble
  1

  0
CIRCLE
  5
2D
330
2C
100
AcDbEntity
  8
0
100
AcDbCircle
 10
0.0
 20
0.0
 30
0.0
 40
0.1398891854377198
  0
ATTDEF
  5
2E
330
2C
100
AcDbEntity
  8
0
100
AcDbText
 10
0.0
 20
0.0
 30
0.0
 40
0.125
  1

  7
ROMANS
 72
     4
 11
0.0
 21
0.0
 31
0.0
100
AcDbAttributeDefinition
  3
Number
  2
XX
 70
     0
  0
ENDBLK
  5
30
330
2C
100
AcDbEntity
  8
0
100
AcDbBlockEnd
  0
BLOCK
  5
246
330
244
100
AcDbEntity
  8
0
100
AcDbBlockBegin
  2
32767
 70
     0
 10
0.0
 20
0.0
 30
0.0
  3
32767
  1

  0
LWPOLYLINE
  5
245
330
244
100
AcDbEntity
  8
0
100
AcDbPolyline
 90
        2
 70
     1
 43
0.5
 10
-0.25
 20
0.0
 42
1.0
 10
0.25
 20
0.0
 42
1.0
  0
ENDBLK
  5
247
330
244
100
AcDbEntity
  8
0
100
AcDbBlockEnd
  0
BLOCK
  5
248
330
242
100
AcDbEntity
  8
0
100
AcDbBlockBegin
  2
7
 70
     0
 10
0.0
 20
0.0
 30
0.0
  3
7
  1

  0
INSERT
  5
243
330
242
100
AcDbEntity
  8
0
100
AcDbBlockReference
  2
32767
 10
0.0
 20
0.0
 30
0.0
 41
0.158
 42
0.158
  0
ENDBLK
  5
249
330
242
100
AcDbEntity
  8
0
100
AcDbBlockEnd
  0
ENDSEC
  0
SECTION
  2
ENTITIES
  0
LWPOLYLINE
  5
26
330
2
100
AcDbEntity
  8
IMAGE
100
AcDbPolyline
 90
        2
 70
     0
 43
0.018
 10
2.446764135109344
 20
4.819706184162633
 10
2.446764135109344
 20
3.970285683592473
  0
LWPOLYLINE
  5
27
330
2
100
AcDbEntity
  8
IMAGE
100
AcDbPolyline
 90
        2
 70
     0
 43
0.018
 10
2.04566980837421
 20
4.516772198961469
 10
2.04566980837421
 20
3.972341748760136
  0
INSERT
  5
28
330
2
100
AcDbEntity
  8
TEXT_BUBBLES
100
AcDbBlockReference
 66
     1
  2
bubble
 10
5.77736552753636
 20
4.365942184320352
 30
0.0
  0
ATTRIB
  5
29
330
28
100
AcDbEntity
  8
TEXT_BUBBLES
100
AcDbText
 10
5.717841718012551
 20
4.303442184320352
 30
0.0
 40
0.125
  1
2
  7
ROMANS
 72
     4
 11
5.77736552753636
 21
4.365942184320352
 31
0.0
100
AcDbAttribute
  2
XX
 70
     0
  0
SEQEND
  5
31
330
28
100
AcDbEntity
  8
TEXT_BUBBLES
  0
LWPOLYLINE
  5
32
330
2
100
AcDbEntity
  8
IMAGE
100
AcDbPolyline
 90
        4
 70
     1
 43
0.0
 10
0.0
 20
0.0
 10
16.49
 20
0.0000000000000002
 10
16.49
 20
10.44
 10
0.0
 20
10.44
  0
LINE
  5
33
330
2
100
AcDbEntity
  8
IMAGE
100
AcDbLine
 10
7.479179404508727
 20
4.163245001617624
 30
0.0
 11
8.560002833770912
 21
4.80286309735437
 31
0.0
  0
LINE
  5
34
330
2
100
AcDbEntity
  8
IMAGE
100
AcDbLine
 10
8.689980010454387
 20
4.618348699740907
 30
0.0
 11
7.58409774571491
 21
3.992845222949827
 31
0.0
  0
INSERT
  5
35
330
2
100
AcDbEntity
  8
TEXT_BUBBLES
100
AcDbBlockReference
 66
     1
  2
TITLBLK
 10
0.6064423705144826
 20
0.8842270964783676
 30
0.0
  0
ATTRIB
  5
36
330
35
100
AcDbEntity
  8
TITLE
100
AcDbText
 10
1.231442370514482
 20
0.9842270964783672
 30
0.0
 40
0.2
  1
VARIABLE WIND SPEED DETECTION
  7
L200
100
AcDbAttribute
  2
TITLE2
 70
     0
  0
ATTRIB
  5
38
330
35
100
AcDbEntity
  8
TITLE
100
AcDbText
 10
0.3733591508691892
 20
0.7838178195343017
 30
0.0
 40
0.2
  1
422
  7
L200
 72
     4
 11
0.6064423705144826
 21
0.8842270964783672
 31
0.0
100
AcDbAttribute
  2
#
 70
     0
  0
ATTRIB
  5
39
330
35
100
AcDbEntity
  8
TITLE
 62
     7
100
AcDbText
 10
1.231442370514482
 20
0.7005637793954893
 30
0.0
 40
0.1
  1
N.T.S.
  7
L100
100
AcDbAttribute
  2
SCALE
 70
     0
  0
ATTRIB
  5
3B
330
35
100
AcDbEntity
  8
TITLE
100
AcDbText
 10
2.713645751168311
 20
0.5927927664583188
 30
0.0
 40
0.2
  1
LINK COMMUNICATION
  7
L200
100
AcDbAttribute
  2
TITLE3
 70
     0
  0
ATTRIB
  5
3C
330
35
100
AcDbEntity
  8
TITLE
 62
     7
100
AcDbText
 10
0.2675169139848414
 20
0.0301424610316311
 30
0.0
 40
0.08
  1
422-WIND-322-LINK.DWG
  7
L80
 72
     2
 11
1.844659771127698
 21
0.0301424610316311
 31
0.0
100
AcDbAttribute
  2
DWG-NAME
 70
     0
  0
ATTRIB
  5
3E
330
35
100
AcDbEntity
  8
TITLE
 62
     7
100
AcDbText
 10
7.689595782347334
 20
0.9696027915446396
 30
0.0
 40
0.08
  1
1-16-04
  7
L80
 72
     2
 11
8.261024353775905
 21
0.9696027915446396
 31
0.0
100
AcDbAttribute
  2
REVISED
 70
     0
  0
ATTRIB
  5
3F
330
35
100
AcDbEntity
  8
TITLE
100
AcDbText
 10
1.231442370514482
 20
1.34371230274675
 30
0.0
 40
0.2
  1
MAXICOM PULSE DECODER FOR 
  7
L200
100
AcDbAttribute
  2
TITLE1
 70
     0
  0
ATTRIB
  5
40
330
35
100
AcDbEntity
  8
TITLE
100
AcDbText
 10
2.713645751168311
 20
0.2692560808167741
 30
0.0
 40
0.2
  1

  7
L200
100
AcDbAttribute
  2
TITLE4
 70
     0
  0
SEQEND
  5
4C
330
35
100
AcDbEntity
  8
TEXT_BUBBLES
  0
LWPOLYLINE
  5
4D
330
2
100
AcDbEntity
  8
IMAGE
100
AcDbPolyline
 90
        4
 70
     1
 43
0.0
 10
1.487283046199777
 20
3.970285683592473
 10
2.963975547601229
 20
3.970285683592473
 10
2.963975547601229
 20
3.120176797668284
 10
1.487283046199777
 20
3.120176797668284
  0
MTEXT
  5
4E
330
2
100
AcDbEntity
  8
IMAGE
100
AcDbMText
 10
2.265275379277134
 20
3.809475355280012
 30
0.0
 40
0.125
 41
1.421
 71
     2
 72
     5
  1
PTPWRSUPP POWER SUPPLY
  7
L100
 73
     1
 44
1.0
  0
LINE
  5
4F
330
2
100
AcDbEntity
  8
TEXT_BUBBLES
100
AcDbLine
 10
3.051825348297569
 20
3.625227456442326
 30
0.0
 11
3.296551742205203
 21
3.86169968354652
 31
0.0
  0
SOLID
  5
50
330
2
100
AcDbEntity
  8
TEXT_BUBBLES
100
AcDbTrace
 10
3.066301917292911
 20
3.610245576456799
 30
0.0
 11
3.03734877930222
 21
3.640209336427856
 31
0.0
 12
2.961934068384394
 22
3.538368042470258
 32
0.0
 13
2.961934068384394
 23
3.538368042470258
 33
0.0
  0
INSERT
  5
51
330
2
100
AcDbEntity
  8
TEXT_BUBBLES
100
AcDbBlockReference
 66
     1
  2
bubble
 10
3.391258502732377
 20
3.964654108963189
 30
0.0
  0
ATTRIB
  5
52
330
51
100
AcDbEntity
  8
TEXT_BUBBLES
100
AcDbText
 10
3.328758502732377
 20
3.902154108963189
 30
0.0
 40
0.125
  1
4
  7
ROMANS
 72
     4
 11
3.391258502732377
 21
3.964654108963189
 31
0.0
100
AcDbAttribute
  2
XX
 70
     0
  0
SEQEND
  5
53
330
51
100
AcDbEntity
  8
TEXT_BUBBLES
  0
LINE
  5
54
330
2
100
AcDbEntity
  8
IMAGE
100
AcDbLine
 10
6.991405806530906
 20
3.678181298196049
 30
0.0
 11
5.731018575465693
 21
3.678181298196049
 31
0.0
  0
LINE
  5
55
330
2
100
AcDbEntity
  8
IMAGE
100
AcDbLine
 10
6.911253995334391
 20
3.861476110934261
 30
0.0
 11
7.369521975850471
 21
4.113560900899639
 31
0.0
  0
LINE
  5
56
330
2
100
AcDbEntity
  8
IMAGE
100
AcDbLine
 10
4.917477691821058
 20
3.045821793476951
 30
0.0
 11
4.871590779911052
 21
3.93965611782742
 31
0.0
  0
LINE
  5
57
330
2
100
AcDbEntity
  8
IMAGE
100
AcDbLine
 10
5.731018575465693
 20
3.045821793476951
 30
0.0
 11
5.811170386662208
 21
3.676106331657513
 31
0.0
  0
LINE
  5
58
330
2
100
AcDbEntity
  8
IMAGE
100
AcDbLine
 10
5.603217744502714
 20
2.813764465235936
 30
0.0
 11
5.40460032436788
 21
2.813764465235936
 31
0.0
  0
LINE
  5
59
330
2
100
AcDbEntity
  8
IMAGE
100
AcDbLine
 10
4.917477691821058
 20
3.045821793476951
 30
0.0
 11
5.731018575465693
 21
3.045821793476951
 31
0.0
  0
LINE
  5
5A
330
2
100
AcDbEntity
  8
IMAGE
100
AcDbLine
 10
4.923489077660796
 20
2.974274412099327
 30
0.0
 11
5.71783483451373
 21
2.974274412099327
 31
0.0
  0
LINE
  5
5B
330
2
100
AcDbEntity
  8
IMAGE
100
AcDbLine
 10
5.278561601261362
 20
2.928414427281215
 30
0.0
 11
5.278561601261362
 21
2.813764465235936
 31
0.0
  0
LINE
  5
5C
330
2
100
AcDbEntity
  8
IMAGE
100
AcDbLine
 10
4.887420762622365
 20
2.823197689961181
 30
0.0
 11
4.841734230240351
 21
2.891987667188349
 31
0.0
  0
LINE
  5
5D
330
2
100
AcDbEntity
  8
IMAGE
100
AcDbLine
 10
5.002037852633382
 20
2.857592678574765
 30
0.0
 11
4.887420762622365
 21
2.823197689961181
 31
0.0
  0
LINE
  5
5E
330
2
100
AcDbEntity
  8
IMAGE
100
AcDbLine
 10
5.037905788143824
 20
2.813764465235936
 30
0.0
 11
4.923489077660796
 21
2.974274412099327
 31
0.0
  0
LINE
  5
5F
330
2
100
AcDbEntity
  8
IMAGE
100
AcDbLine
 10
5.40460032436788
 20
2.401314854941404
 30
0.0
 11
5.40460032436788
 21
2.928414427281215
 31
0.0
  0
LINE
  5
60
330
2
100
AcDbEntity
  8
IMAGE
100
AcDbLine
 10
4.87599912952686
 20
2.837710343384634
 30
0.0
 11
4.444430559617856
 21
2.61661978213785
 31
0.0
  0
LINE
  5
61
330
2
100
AcDbEntity
  8
IMAGE
100
AcDbLine
 10
4.852755104279868
 20
2.880377544449586
 30
0.0
 11
4.418551082321304
 21
2.657936853435708
 31
0.0
  0
LWPOLYLINE
  5
62
330
2
100
AcDbEntity
  8
IMAGE
100
AcDbPolyline
 90
       16
 70
     1
 43
0.0
 10
4.446585801041525
 20
2.612183709184174
 42
0.0699425913417638
 10
4.408248604532211
 20
2.670435109475296
 42
0.081759191418949
 10
4.362001753962569
 20
2.708287484634589
 42
0.1069227059840843
 10
4.30773435362094
 20
2.725654064469498
 42
0.1355964443898175
 10
4.263170076534795
 20
2.717872795043164
 42
0.1355964443898256
 10
4.228920861207161
 20
2.688317521477569
 42
0.1069227059840869
 10
4.207985025003303
 20
2.635324695572104
 42
0.0817591914189586
 10
4.207981618356615
 20
2.575562052715498
 42
0.0699425913417775
 10
4.228773254114994
 20
2.508998743343424
 42
0.0699425913417639
 10
4.267110450624311
 20
2.450747343052304
 42
0.081759191418953
 10
4.313357301193949
 20
2.412894967893008
 42
0.1069227059840858
 10
4.367624701535582
 20
2.395528388058099
 42
0.1355964443898162
 10
4.412188978621728
 20
2.403309657484434
 42
0.135596444389826
 10
4.446438193949362
 20
2.432864931050029
 42
0.1069227059840884
 10
4.467374030153219
 20
2.485857756955493
 42
0.0817591914189625
 10
4.467377436799903
 20
2.545620399812102
 42
0.0699425913417759
  0
LWPOLYLINE
  5
63
330
2
100
AcDbEntity
  8
IMAGE
100
AcDbPolyline
 90
       16
 70
     1
 43
0.0
 10
4.418057132889313
 20
2.602116403847644
 42
0.0699425913417638
 10
4.389135495346472
 20
2.646061346070361
 42
0.081759191418949
 10
4.354246803124336
 20
2.674617233672281
 42
0.1069227059840843
 10
4.313307396334597
 20
2.687718607092271
 42
0.1355964443898175
 10
4.279688040027959
 20
2.681848405970054
 42
0.1355964443898256
 10
4.253850381512897
 20
2.659551864037574
 42
0.1069227059840869
 10
4.23805635582828
 20
2.619573998080777
 42
0.0817591914189586
 10
4.238053785849
 20
2.574488972239593
 42
0.0699425913417775
 10
4.253739026505044
 20
2.52427351355723
 42
0.0699425913417639
 10
4.282660664047885
 20
2.480328571334514
 42
0.081759191418953
 10
4.317549356270024
 20
2.451772683732593
 42
0.1069227059840858
 10
4.358488763059764
 20
2.438671310312603
 42
0.1355964443898162
 10
4.392108119366401
 20
2.444541511434819
 42
0.135596444389826
 10
4.41794577788146
 20
2.466838053367299
 42
0.1069227059840884
 10
4.433739803566076
 20
2.506815919324096
 42
0.0817591914189625
 10
4.433742373545356
 20
2.551900945165282
 42
0.0699425913417759
  0
ARC
  5
64
330
2
100
AcDbEntity
  8
IMAGE
100
AcDbCircle
 10
5.386622868603613
 20
2.62130382460776
 30
0.0
 40
0.2207223044701681
100
AcDbArc
 50
119.3129922933967
 51
274.6718187349709
  0
LINE
  5
65
330
2
100
AcDbEntity
  8
IMAGE
100
AcDbLine
 10
5.278561601261362
 20
2.813764465235936
 30
0.0
 11
5.03570161333592
 21
2.813764465235936
 31
0.0
  0
LINE
  5
66
330
2
100
AcDbEntity
  8
IMAGE
100
AcDbLine
 10
4.841734230240351
 20
2.891987667188349
 30
0.0
 11
4.950985630915308
 21
2.935700760722912
 31
0.0
  0
LINE
  5
67
330
2
100
AcDbEntity
  8
IMAGE
100
AcDbLine
 10
4.923489077660796
 20
2.974274412099327
 30
0.0
 11
4.917477691821058
 21
3.045821793476951
 31
0.0
  0
LINE
  5
68
330
2
100
AcDbEntity
  8
IMAGE
100
AcDbLine
 10
5.40460032436788
 20
2.928414427281215
 30
0.0
 11
5.278561601261362
 21
2.928414427281215
 31
0.0
  0
LINE
  5
69
330
2
100
AcDbEntity
  8
IMAGE
100
AcDbLine
 10
5.717834834513734
 20
2.974274412099327
 30
0.0
 11
5.601974159439304
 21
2.812022946825122
 31
0.0
  0
LINE
  5
6A
330
2
100
AcDbEntity
  8
IMAGE
100
AcDbLine
 10
5.762149606109765
 20
2.855807112290158
 30
0.0
 11
6.233169672611868
 21
2.614505733731927
 31
0.0
  0
LINE
  5
6B
330
2
100
AcDbEntity
  8
IMAGE
100
AcDbLine
 10
5.789193843880454
 20
2.896527482241113
 30
0.0
 11
6.256413697858857
 21
2.657172934796879
 31
0.0
  0
LWPOLYLINE
  5
6C
330
2
100
AcDbEntity
  8
IMAGE
100
AcDbPolyline
 90
       16
 70
     1
 43
0.0
 10
6.257289991148269
 20
2.606034820271977
 42
-0.0699425913417638
 10
6.286211628691109
 20
2.649979762494694
 42
-0.081759191418949
 10
6.321100320913249
 20
2.678535650096613
 42
-0.1069227059840843
 10
6.362039727702985
 20
2.691637023516604
 42
-0.1355964443898175
 10
6.395659084009626
 20
2.685766822394386
 42
-0.1355964443898256
 10
6.421496742524684
 20
2.663470280461907
 42
-0.1069227059840869
 10
6.437290768209301
 20
2.623492414505109
 42
-0.0817591914189586
 10
6.437293338188585
 20
2.578407388663925
 42
-0.0699425913417775
 10
6.421608097532537
 20
2.528191929981562
 42
-0.0699425913417639
 10
6.392686459989697
 20
2.484246987758846
 42
-0.081759191418953
 10
6.357797767767561
 20
2.455691100156925
 42
-0.1069227059840858
 10
6.316858360977821
 20
2.442589726736935
 42
-0.1355964443898162
 10
6.283239004671184
 20
2.448459927859151
 42
-0.135596444389826
 10
6.257401346156122
 20
2.470756469791631
 42
-0.1069227059840884
 10
6.241607320471509
 20
2.510734335748428
 42
-0.0817591914189625
 10
6.241604750492225
 20
2.555819361589615
 42
-0.0699425913417759
  0
LWPOLYLINE
  5
6D
330
2
100
AcDbEntity
  8
IMAGE
100
AcDbPolyline
 90
       16
 70
     1
 43
0.0
 10
6.228761322996057
 20
2.616102125608506
 42
-0.0699425913417638
 10
6.267098519505374
 20
2.674353525899628
 42
-0.081759191418949
 10
6.313345370075012
 20
2.712205901058921
 42
-0.1069227059840843
 10
6.367612770416645
 20
2.72957248089383
 42
-0.1355964443898175
 10
6.41217704750279
 20
2.721791211467496
 42
-0.1355964443898256
 10
6.446426262830424
 20
2.692235937901901
 42
-0.1069227059840869
 10
6.467362099034279
 20
2.639243111996436
 42
-0.0817591914189586
 10
6.46736550568097
 20
2.57948046913983
 42
-0.0699425913417775
 10
6.446573869922591
 20
2.512917159767756
 42
-0.0699425913417639
 10
6.408236673413274
 20
2.454665759476636
 42
-0.081759191418953
 10
6.361989822843636
 20
2.41681338431734
 42
-0.1069227059840858
 10
6.307722422501999
 20
2.399446804482431
 42
-0.1355964443898162
 10
6.263158145415857
 20
2.407228073908766
 42
-0.135596444389826
 10
6.228908930088223
 20
2.436783347474361
 42
-0.1069227059840884
 10
6.207973093884366
 20
2.489776173379826
 42
-0.0817591914189625
 10
6.207969687237682
 20
2.549538816236434
 42
-0.0699425913417759
  0
LINE
  5
6E
330
2
100
AcDbEntity
  8
IMAGE
100
AcDbLine
 10
5.731018575465693
 20
3.045821793476951
 30
0.0
 11
5.71826532185938
 21
2.974274412099327
 31
0.0
  0
LINE
  5
6F
330
2
100
AcDbEntity
  8
IMAGE
100
AcDbLine
 10
5.645272400604223
 20
2.872657869487978
 30
0.0
 11
5.752058425904781
 21
2.840612874069325
 31
0.0
  0
LINE
  5
70
330
2
100
AcDbEntity
  8
IMAGE
100
AcDbLine
 10
5.752058425904781
 20
2.840612874069325
 30
0.0
 11
5.797744958286795
 21
2.909402851296492
 31
0.0
  0
LINE
  5
71
330
2
100
AcDbEntity
  8
IMAGE
100
AcDbLine
 10
5.797744958286795
 20
2.909402851296492
 30
0.0
 11
5.699563216987264
 21
2.948686811175245
 31
0.0
  0
LINE
  5
72
330
2
100
AcDbEntity
  8
TEXT_BUBBLES
100
AcDbLine
 10
5.437932373101553
 20
4.026515531799488
 30
0.0
 11
5.682658767009186
 21
4.262987758903682
 31
0.0
  0
LINE
  5
73
330
2
100
AcDbEntity
  8
IMAGE
100
AcDbLine
 10
4.871590779911052
 20
3.93965611782742
 30
0.0
 11
5.814176079582079
 21
3.93965611782742
 31
0.0
  0
SOLID
  5
74
330
2
100
AcDbEntity
  8
TEXT_BUBBLES
100
AcDbTrace
 10
5.452408942096894
 20
4.011533651813961
 30
0.0
 11
5.423455804106204
 21
4.041497411785019
 31
0.0
 12
5.348041093188378
 22
3.93965611782742
 32
0.0
 13
5.348041093188378
 23
3.93965611782742
 33
0.0
  0
ARC
  5
75
330
2
100
AcDbEntity
  8
IMAGE
100
AcDbCircle
 10
5.761514333112142
 20
3.76775373802662
 30
0.0
 40
0.0965879823198247
100
AcDbArc
 50
107.2810529169091
 51
251.5950899068437
  0
LINE
  5
76
330
2
100
AcDbEntity
  8
IMAGE
100
AcDbLine
 10
6.911253995334391
 20
3.861476110934261
 30
0.0
 11
5.731018575465693
 21
3.861476110934261
 31
0.0
  0
LINE
  5
77
330
2
100
AcDbEntity
  8
IMAGE
100
AcDbLine
 10
5.814176079582079
 20
3.93965611782742
 30
0.0
 11
5.814176079582079
 21
3.859401144395725
 31
0.0
  0
LINE
  5
78
330
2
100
AcDbEntity
  8
IMAGE
100
AcDbLine
 10
6.991405806530906
 20
3.678181298196049
 30
0.0
 11
7.472717432765985
 21
3.941731084365956
 31
0.0
  0
ARC
  5
79
330
2
100
AcDbEntity
  8
IMAGE
100
AcDbCircle
 10
7.549912755897096
 20
4.024025321326099
 30
0.0
 40
0.0462689103351143
100
AcDbArc
 50
313.6413736147513
 51
91.30905160826099
  0
ARC
  5
7A
330
2
100
AcDbEntity
  8
IMAGE
100
AcDbCircle
 10
7.409698071212723
 20
4.074899990683362
 30
0.0
 40
0.0557564760122799
100
AcDbArc
 50
136.1010441955253
 51
287.8949546092734
  0
LWPOLYLINE
  5
7B
330
2
100
AcDbEntity
  8
IMAGE
100
AcDbPolyline
 90
        2
 70
     0
 43
0.0264178667818252
 10
7.389044051214394
 20
4.025814495859457
 10
7.482740870442047
 20
4.079503481862505
  0
ARC
  5
7C
330
2
100
AcDbEntity
  8
IMAGE
100
AcDbCircle
 10
7.441908190309792
 20
3.97598843849447
 30
0.0
 40
0.0462689103351143
100
AcDbArc
 50
313.6413736147513
 51
91.30905160826099
  0
ARC
  5
7D
330
2
100
AcDbEntity
  8
IMAGE
100
AcDbCircle
 10
7.441908190309792
 20
3.97598843849447
 30
0.0
 40
0.0462689103351143
100
AcDbArc
 50
305.4784981758793
 51
310.7734830800823
  0
LINE
  5
7E
330
2
100
AcDbEntity
  8
IMAGE
100
AcDbLine
 10
7.426830520855979
 20
4.021840931263417
 30
0.0
 11
7.440571607079405
 21
4.022238039669692
 31
0.0
  0
LINE
  5
7F
330
2
100
AcDbEntity
  8
IMAGE
100
AcDbLine
 10
7.534835086443283
 20
4.069877814095046
 30
0.0
 11
7.548576172666709
 21
4.070274922501321
 31
0.0
  0
ARC
  5
80
330
2
100
AcDbEntity
  8
IMAGE
100
AcDbCircle
 10
7.517702636800031
 20
4.122936873514992
 30
0.0
 40
0.0557564760122799
100
AcDbArc
 50
133.70293337925
 51
287.8949546092734
  0
POLYLINE
  5
81
330
2
100
AcDbEntity
  8
IMAGE
100
AcDb2dPolyline
 66
     1
 10
0.0
 20
0.0
 30
0.0
 70
     4
 40
0.018
 41
0.018
 75
     6
  0
VERTEX
  5
82
330
81
100
AcDbEntity
  8
IMAGE
100
AcDbVertex
100
AcDb2dVertex
 10
9.615375725576846
 20
4.823955285977665
 30
0.0
 70
    16
  0
VERTEX
  5
83
330
81
100
AcDbEntity
  8
IMAGE
100
AcDbVertex
100
AcDb2dVertex
 10
9.615375725576846
 20
4.823955285977665
 30
0.0
 70
     8
  0
VERTEX
  5
84
330
81
100
AcDbEntity
  8
IMAGE
100
AcDbVertex
100
AcDb2dVertex
 10
9.65123674694993
 20
4.797016409268931
 30
0.0
 70
     8
  0
VERTEX
  5
85
330
81
100
AcDbEntity
  8
IMAGE
100
AcDbVertex
100
AcDb2dVertex
 10
9.681909034373582
 20
4.775820518322163
 30
0.0
 70
     8
  0
VERTEX
  5
86
330
81
100
AcDbEntity
  8
IMAGE
100
AcDbVertex
100
AcDb2dVertex
 10
9.708121311834364
 20
4.759675144146861
 30
0.0
 70
     8
  0
VERTEX
  5
87
330
81
100
AcDbEntity
  8
IMAGE
100
AcDbVertex
100
AcDb2dVertex
 10
9.730602303318839
 20
4.747887817752528
 30
0.0
 70
     8
  0
VERTEX
  5
88
330
81
100
AcDbEntity
  8
IMAGE
100
AcDbVertex
100
AcDb2dVertex
 10
9.750080732813568
 20
4.739766070148665
 30
0.0
 70
     8
  0
VERTEX
  5
89
330
81
100
AcDbEntity
  8
IMAGE
100
AcDbVertex
100
AcDb2dVertex
 10
9.76728532430512
 20
4.734617432344775
 30
0.0
 70
     8
  0
VERTEX
  5
8A
330
81
100
AcDbEntity
  8
IMAGE
100
AcDbVertex
100
AcDb2dVertex
 10
9.78294480178005
 20
4.731749435350359
 30
0.0
 70
     8
  0
VERTEX
  5
8B
330
81
100
AcDbEntity
  8
IMAGE
100
AcDbVertex
100
AcDb2dVertex
 10
9.797787889224917
 20
4.730469610174921
 30
0.0
 70
     8
  0
VERTEX
  5
8C
330
81
100
AcDbEntity
  8
IMAGE
100
AcDbVertex
100
AcDb2dVertex
 10
9.81239380871283
 20
4.73019338789443
 30
0.0
 70
     8
  0
VERTEX
  5
8D
330
81
100
AcDbEntity
  8
IMAGE
100
AcDbVertex
100
AcDb2dVertex
 10
9.826743774663036
 20
4.730767799850731
 30
0.0
 70
     8
  0
VERTEX
  5
8E
330
81
100
AcDbEntity
  8
IMAGE
100
AcDbVertex
100
AcDb2dVertex
 10
9.84066949958132
 20
4.732147777452139
 30
0.0
 70
     8
  0
VERTEX
  5
8F
330
81
100
AcDbEntity
  8
IMAGE
100
AcDbVertex
100
AcDb2dVertex
 10
9.854002695973477
 20
4.734288252106967
 30
0.0
 70
     8
  0
VERTEX
  5
90
330
81
100
AcDbEntity
  8
IMAGE
100
AcDbVertex
100
AcDb2dVertex
 10
9.866575076345288
 20
4.737144155223529
 30
0.0
 70
     8
  0
VERTEX
  5
91
330
81
100
AcDbEntity
  8
IMAGE
100
AcDbVertex
100
AcDb2dVertex
 10
9.878218353202548
 20
4.74067041821014
 30
0.0
 70
     8
  0
VERTEX
  5
92
330
81
100
AcDbEntity
  8
IMAGE
100
AcDbVertex
100
AcDb2dVertex
 10
9.888764239051042
 20
4.744821972475112
 30
0.0
 70
     8
  0
VERTEX
  5
93
330
81
100
AcDbEntity
  8
IMAGE
100
AcDbVertex
100
AcDb2dVertex
 10
9.898044446396561
 20
4.749553749426762
 30
0.0
 70
     8
  0
VERTEX
  5
94
330
81
100
AcDbEntity
  8
IMAGE
100
AcDbVertex
100
AcDb2dVertex
 10
9.905933738034107
 20
4.754817090103413
 30
0.0
 70
     8
  0
VERTEX
  5
95
330
81
100
AcDbEntity
  8
IMAGE
100
AcDbVertex
100
AcDb2dVertex
 10
9.912479077915559
 20
4.760548974063442
 30
0.0
 70
     8
  0
VERTEX
  5
96
330
81
100
AcDbEntity
  8
IMAGE
100
AcDbVertex
100
AcDb2dVertex
 10
9.917770480281998
 20
4.766682790495238
 30
0.0
 70
     8
  0
VERTEX
  5
97
330
81
100
AcDbEntity
  8
IMAGE
100
AcDbVertex
100
AcDb2dVertex
 10
9.921897959374522
 20
4.773151928587188
 30
0.0
 70
     8
  0
VERTEX
  5
98
330
81
100
AcDbEntity
  8
IMAGE
100
AcDbVertex
100
AcDb2dVertex
 10
9.924951529434217
 20
4.779889777527683
 30
0.0
 70
     8
  0
VERTEX
  5
99
330
81
100
AcDbEntity
  8
IMAGE
100
AcDbVertex
100
AcDb2dVertex
 10
9.927021204702175
 20
4.786829726505111
 30
0.0
 70
     8
  0
VERTEX
  5
9A
330
81
100
AcDbEntity
  8
IMAGE
100
AcDbVertex
100
AcDb2dVertex
 10
9.928196999419483
 20
4.793905164707857
 30
0.0
 70
     8
  0
VERTEX
  5
9B
330
81
100
AcDbEntity
  8
IMAGE
100
AcDbVertex
100
AcDb2dVertex
 10
9.928568927827235
 20
4.801049481324314
 30
0.0
 70
     8
  0
VERTEX
  5
9C
330
81
100
AcDbEntity
  8
IMAGE
100
AcDbVertex
100
AcDb2dVertex
 10
9.928226873711093
 20
4.808207120103093
 30
0.0
 70
     8
  0
VERTEX
  5
9D
330
81
100
AcDbEntity
  8
IMAGE
100
AcDbVertex
100
AcDb2dVertex
 10
9.927260199035039
 20
4.815366743033706
 30
0.0
 70
     8
  0
VERTEX
  5
9E
330
81
100
AcDbEntity
  8
IMAGE
100
AcDbVertex
100
AcDb2dVertex
 10
9.925758135307635
 20
4.822528066665894
 30
0.0
 70
     8
  0
VERTEX
  5
9F
330
81
100
AcDbEntity
  8
IMAGE
100
AcDbVertex
100
AcDb2dVertex
 10
9.923809914037441
 20
4.829690807549392
 30
0.0
 70
     8
  0
VERTEX
  5
A0
330
81
100
AcDbEntity
  8
IMAGE
100
AcDbVertex
100
AcDb2dVertex
 10
9.921504766733008
 20
4.836854682233938
 30
0.0
 70
     8
  0
VERTEX
  5
A1
330
81
100
AcDbEntity
  8
IMAGE
100
AcDbVertex
100
AcDb2dVertex
 10
9.918931924902903
 20
4.844019407269271
 30
0.0
 70
     8
  0
VERTEX
  5
A2
330
81
100
AcDbEntity
  8
IMAGE
100
AcDbVertex
100
AcDb2dVertex
 10
9.91618062005568
 20
4.851184699205128
 30
0.0
 70
     8
  0
VERTEX
  5
A3
330
81
100
AcDbEntity
  8
IMAGE
100
AcDbVertex
100
AcDb2dVertex
 10
9.913340083699896
 20
4.858350274591248
 30
0.0
 70
     8
  0
VERTEX
  5
A4
330
81
100
AcDbEntity
  8
IMAGE
100
AcDbVertex
100
AcDb2dVertex
 10
9.910473456259737
 20
4.865515897219077
 30
0.0
 70
     8
  0
VERTEX
  5
A5
330
81
100
AcDbEntity
  8
IMAGE
100
AcDbVertex
100
AcDb2dVertex
 10
9.907539513821898
 20
4.872681519846907
 30
0.0
 70
     8
  0
VERTEX
  5
A6
330
81
100
AcDbEntity
  8
IMAGE
100
AcDbVertex
100
AcDb2dVertex
 10
9.904470941388687
 20
4.879847142474737
 30
0.0
 70
     8
  0
VERTEX
  5
A7
330
81
100
AcDbEntity
  8
IMAGE
100
AcDbVertex
100
AcDb2dVertex
 10
9.901200423962421
 20
4.887012765102568
 30
0.0
 70
     8
  0
VERTEX
  5
A8
330
81
100
AcDbEntity
  8
IMAGE
100
AcDbVertex
100
AcDb2dVertex
 10
9.897660646545421
 20
4.894178387730398
 30
0.0
 70
     8
  0
VERTEX
  5
A9
330
81
100
AcDbEntity
  8
IMAGE
100
AcDbVertex
100
AcDb2dVertex
 10
9.893784294139994
 20
4.901344010358227
 30
0.0
 70
     8
  0
VERTEX
  5
AA
330
81
100
AcDbEntity
  8
IMAGE
100
AcDbVertex
100
AcDb2dVertex
 10
9.88950405174846
 20
4.908509632986057
 30
0.0
 70
     8
  0
VERTEX
  5
AB
330
81
100
AcDbEntity
  8
IMAGE
100
AcDbVertex
100
AcDb2dVertex
 10
9.884752604373137
 20
4.915675255613887
 30
0.0
 70
     8
  0
VERTEX
  5
AC
330
81
100
AcDbEntity
  8
IMAGE
100
AcDbVertex
100
AcDb2dVertex
 10
9.879485075348895
 20
4.922848295190243
 30
0.0
 70
     8
  0
VERTEX
  5
AD
330
81
100
AcDbEntity
  8
IMAGE
100
AcDbVertex
100
AcDb2dVertex
 10
9.873746341340865
 20
4.930065836457763
 30
0.0
 70
     8
  0
VERTEX
  5
AE
330
81
100
AcDbEntity
  8
IMAGE
100
AcDbVertex
100
AcDb2dVertex
 10
9.867603717346725
 20
4.937372381107605
 30
0.0
 70
     8
  0
VERTEX
  5
AF
330
81
100
AcDbEntity
  8
IMAGE
100
AcDbVertex
100
AcDb2dVertex
 10
9.861124518364164
 20
4.944812430830932
 30
0.0
 70
     8
  0
VERTEX
  5
B0
330
81
100
AcDbEntity
  8
IMAGE
100
AcDbVertex
100
AcDb2dVertex
 10
9.854376059390865
 20
4.952430487318907
 30
0.0
 70
     8
  0
VERTEX
  5
B1
330
81
100
AcDbEntity
  8
IMAGE
100
AcDbVertex
100
AcDb2dVertex
 10
9.847425655424512
 20
4.96027105226269
 30
0.0
 70
     8
  0
VERTEX
  5
B2
330
81
100
AcDbEntity
  8
IMAGE
100
AcDbVertex
100
AcDb2dVertex
 10
9.840340621462786
 20
4.968378627353444
 30
0.0
 70
     8
  0
VERTEX
  5
B3
330
81
100
AcDbEntity
  8
IMAGE
100
AcDbVertex
100
AcDb2dVertex
 10
9.833188272503377
 20
4.97679771428233
 30
0.0
 70
     8
  0
VERTEX
  5
B4
330
81
100
AcDbEntity
  8
IMAGE
100
AcDbVertex
100
AcDb2dVertex
 10
9.82602098639817
 20
4.985550563894929
 30
0.0
 70
     8
  0
VERTEX
  5
B5
330
81
100
AcDbEntity
  8
IMAGE
100
AcDbVertex
100
AcDb2dVertex
 10
9.818831392415816
 20
4.994570423654499
 30
0.0
 70
     8
  0
VERTEX
  5
B6
330
81
100
AcDbEntity
  8
IMAGE
100
AcDbVertex
100
AcDb2dVertex
 10
9.811597182679186
 20
5.003768290178716
 30
0.0
 70
     8
  0
VERTEX
  5
B7
330
81
100
AcDbEntity
  8
IMAGE
100
AcDbVertex
100
AcDb2dVertex
 10
9.804296049311137
 20
5.013055160085256
 30
0.0
 70
     8
  0
VERTEX
  5
B8
330
81
100
AcDbEntity
  8
IMAGE
100
AcDbVertex
100
AcDb2dVertex
 10
9.796905684434527
 20
5.022342029991797
 30
0.0
 70
     8
  0
VERTEX
  5
B9
330
81
100
AcDbEntity
  8
IMAGE
100
AcDbVertex
100
AcDb2dVertex
 10
9.789403780172222
 20
5.031539896516014
 30
0.0
 70
     8
  0
VERTEX
  5
BA
330
81
100
AcDbEntity
  8
IMAGE
100
AcDbVertex
100
AcDb2dVertex
 10
9.781768028647075
 20
5.040559756275584
 30
0.0
 70
     8
  0
VERTEX
  5
BB
330
81
100
AcDbEntity
  8
IMAGE
100
AcDbVertex
100
AcDb2dVertex
 10
9.773976121981952
 20
5.049312605888182
 30
0.0
 70
     8
  0
VERTEX
  5
BC
330
81
100
AcDbEntity
  8
IMAGE
100
AcDbVertex
100
AcDb2dVertex
 10
9.766005687072002
 20
5.057750353292663
 30
0.0
 70
     8
  0
VERTEX
  5
BD
330
81
100
AcDbEntity
  8
IMAGE
100
AcDbVertex
100
AcDb2dVertex
 10
9.757834089901528
 20
5.065988551712569
 30
0.0
 70
     8
  0
VERTEX
  5
BE
330
81
100
AcDbEntity
  8
IMAGE
100
AcDbVertex
100
AcDb2dVertex
 10
9.749438631227128
 20
5.074183665692626
 30
0.0
 70
     8
  0
VERTEX
  5
BF
330
81
100
AcDbEntity
  8
IMAGE
100
AcDbVertex
100
AcDb2dVertex
 10
9.740796611805393
 20
5.082492159777553
 30
0.0
 70
     8
  0
VERTEX
  5
C0
330
81
100
AcDbEntity
  8
IMAGE
100
AcDbVertex
100
AcDb2dVertex
 10
9.731885332392923
 20
5.091070498512071
 30
0.0
 70
     8
  0
VERTEX
  5
C1
330
81
100
AcDbEntity
  8
IMAGE
100
AcDbVertex
100
AcDb2dVertex
 10
9.722682093746307
 20
5.100075146440905
 30
0.0
 70
     8
  0
VERTEX
  5
C2
330
81
100
AcDbEntity
  8
IMAGE
100
AcDbVertex
100
AcDb2dVertex
 10
9.713164196622145
 20
5.109662568108774
 30
0.0
 70
     8
  0
VERTEX
  5
C3
330
81
100
AcDbEntity
  8
IMAGE
100
AcDbVertex
100
AcDb2dVertex
 10
9.703308941777024
 20
5.1199892280604
 30
0.0
 70
     8
  0
VERTEX
  5
C4
330
81
100
AcDbEntity
  8
IMAGE
100
AcDbVertex
100
AcDb2dVertex
 10
9.693000550024041
 20
5.131196638839174
 30
0.0
 70
     8
  0
VERTEX
  5
C5
330
81
100
AcDbEntity
  8
IMAGE
100
AcDbVertex
100
AcDb2dVertex
 10
9.681750922402276
 20
5.14336650498317
 30
0.0
 70
     8
  0
VERTEX
  5
C6
330
81
100
AcDbEntity
  8
IMAGE
100
AcDbVertex
100
AcDb2dVertex
 10
9.668978880007291
 20
5.15656557902913
 30
0.0
 70
     8
  0
VERTEX
  5
C7
330
81
100
AcDbEntity
  8
IMAGE
100
AcDbVertex
100
AcDb2dVertex
 10
9.654103243934663
 20
5.170860613513797
 30
0.0
 70
     8
  0
VERTEX
  5
C8
330
81
100
AcDbEntity
  8
IMAGE
100
AcDbVertex
100
AcDb2dVertex
 10
9.636542835279964
 20
5.186318360973912
 30
0.0
 70
     8
  0
VERTEX
  5
C9
330
81
100
AcDbEntity
  8
IMAGE
100
AcDbVertex
100
AcDb2dVertex
 10
9.615716475138768
 20
5.203005573946221
 30
0.0
 70
     8
  0
VERTEX
  5
CA
330
81
100
AcDbEntity
  8
IMAGE
100
AcDbVertex
100
AcDb2dVertex
 10
9.591042984606644
 20
5.220989004967464
 30
0.0
 70
     8
  0
VERTEX
  5
CB
330
81
100
AcDbEntity
  8
IMAGE
100
AcDbVertex
100
AcDb2dVertex
 10
9.561941184779168
 20
5.240335406574383
 30
0.0
 70
     8
  0
VERTEX
  5
CC
330
81
100
AcDbEntity
  8
IMAGE
100
AcDbVertex
100
AcDb2dVertex
 10
9.526262540085863
 20
5.260936406283408
 30
0.0
 70
     8
  0
VERTEX
  5
CD
330
81
100
AcDbEntity
  8
IMAGE
100
AcDbVertex
100
AcDb2dVertex
 10
9.47558908829205
 20
5.281983131529707
 30
0.0
 70
     8
  0
VERTEX
  5
CE
330
81
100
AcDbEntity
  8
IMAGE
100
AcDbVertex
100
AcDb2dVertex
 10
9.399935510497009
 20
5.30249158472813
 30
0.0
 70
     8
  0
VERTEX
  5
CF
330
81
100
AcDbEntity
  8
IMAGE
100
AcDbVertex
100
AcDb2dVertex
 10
9.289316487800022
 20
5.321477768293533
 30
0.0
 70
     8
  0
VERTEX
  5
D0
330
81
100
AcDbEntity
  8
IMAGE
100
AcDbVertex
100
AcDb2dVertex
 10
9.13374670130036
 20
5.33795768464077
 30
0.0
 70
     8
  0
VERTEX
  5
D1
330
81
100
AcDbEntity
  8
IMAGE
100
AcDbVertex
100
AcDb2dVertex
 10
8.923240832097306
 20
5.350947336184691
 30
0.0
 70
     8
  0
VERTEX
  5
D2
330
81
100
AcDbEntity
  8
IMAGE
100
AcDbVertex
100
AcDb2dVertex
 10
8.647813561290139
 20
5.359462725340152
 30
0.0
 70
     8
  0
VERTEX
  5
D3
330
81
100
AcDbEntity
  8
IMAGE
100
AcDbVertex
100
AcDb2dVertex
 10
8.297479569978133
 20
5.362519854522005
 30
0.0
 70
     8
  0
VERTEX
  5
D4
330
81
100
AcDbEntity
  8
IMAGE
100
AcDbVertex
100
AcDb2dVertex
 10
9.718571182492361
 20
4.743845439080203
 30
0.0
 70
    16
  0
VERTEX
  5
D5
330
81
100
AcDbEntity
  8
IMAGE
100
AcDbVertex
100
AcDb2dVertex
 10
9.798722993688876
 20
4.720915446671148
 30
0.0
 70
    16
  0
VERTEX
  5
D6
330
81
100
AcDbEntity
  8
IMAGE
100
AcDbVertex
100
AcDb2dVertex
 10
9.913340083699896
 20
4.743845439080203
 30
0.0
 70
    16
  0
VERTEX
  5
D7
330
81
100
AcDbEntity
  8
IMAGE
100
AcDbVertex
100
AcDb2dVertex
 10
9.936183349890903
 20
4.801025293568608
 30
0.0
 70
    16
  0
VERTEX
  5
D8
330
81
100
AcDbEntity
  8
IMAGE
100
AcDbVertex
100
AcDb2dVertex
 10
9.913340083699896
 20
4.858350274591248
 30
0.0
 70
    16
  0
VERTEX
  5
D9
330
81
100
AcDbEntity
  8
IMAGE
100
AcDbVertex
100
AcDb2dVertex
 10
9.890496817508889
 20
4.915675255613887
 30
0.0
 70
    16
  0
VERTEX
  5
DA
330
81
100
AcDbEntity
  8
IMAGE
100
AcDbVertex
100
AcDb2dVertex
 10
9.833188272503377
 20
4.973000236636527
 30
0.0
 70
    16
  0
VERTEX
  5
DB
330
81
100
AcDbEntity
  8
IMAGE
100
AcDbVertex
100
AcDb2dVertex
 10
9.775879727497873
 20
5.053110083533987
 30
0.0
 70
    16
  0
VERTEX
  5
DC
330
81
100
AcDbEntity
  8
IMAGE
100
AcDbVertex
100
AcDb2dVertex
 10
9.707149549396856
 20
5.110435064556626
 30
0.0
 70
    16
  0
VERTEX
  5
DD
330
81
100
AcDbEntity
  8
IMAGE
100
AcDbVertex
100
AcDb2dVertex
 10
9.615375725576846
 20
5.225085026601905
 30
0.0
 70
    16
  0
VERTEX
  5
DE
330
81
100
AcDbEntity
  8
IMAGE
100
AcDbVertex
100
AcDb2dVertex
 10
9.3404550131728
 20
5.362519854522005
 30
0.0
 70
    16
  0
VERTEX
  5
DF
330
81
100
AcDbEntity
  8
IMAGE
100
AcDbVertex
100
AcDb2dVertex
 10
8.297479569978133
 20
5.362519854522005
 30
0.0
 70
    16
  0
SEQEND
  5
E0
330
81
100
AcDbEntity
  8
IMAGE
  0
LINE
  5
E1
330
2
100
AcDbEntity
  8
IMAGE
100
AcDbLine
 10
4.681541667945595
 20
9.02548115777354
 30
0.0
 11
4.681541667945595
 21
7.631895773724743
 31
0.0
  0
LINE
  5
E2
330
2
100
AcDbEntity
  8
IMAGE
100
AcDbLine
 10
4.402223888842954
 20
8.100361108952988
 30
0.0
 11
4.402223888842954
 21
8.829310817545792
 31
0.0
  0
LINE
  5
E4
330
2
100
AcDbEntity
  8
IMAGE
100
AcDbLine
 10
4.355287904947054
 20
8.100361108952988
 30
0.0
 11
4.355287904947054
 21
8.829310817545792
 31
0.0
  0
LINE
  5
E5
330
2
100
AcDbEntity
  8
IMAGE
100
AcDbLine
 10
3.470459831383386
 20
8.100361108952988
 30
0.0
 11
3.470459831383386
 21
8.829310817545792
 31
0.0
  0
LINE
  5
E6
330
2
100
AcDbEntity
  8
IMAGE
100
AcDbLine
 10
3.76203971482051
 20
8.100361108952988
 30
0.0
 11
3.76203971482051
 21
8.829310817545792
 31
0.0
  0
LINE
  5
E7
330
2
100
AcDbEntity
  8
IMAGE
100
AcDbLine
 10
4.053619598257633
 20
8.100361108952988
 30
0.0
 11
4.053619598257633
 21
8.829310817545792
 31
0.0
  0
LINE
  5
E8
330
2
100
AcDbEntity
  8
IMAGE
100
AcDbLine
 10
3.154581624326503
 20
8.100361108952988
 30
0.0
 11
3.154581624326503
 21
8.829310817545792
 31
0.0
  0
LINE
  5
E9
330
2
100
AcDbEntity
  8
IMAGE
100
AcDbLine
 10
3.178879947946263
 20
8.100361108952988
 30
0.0
 11
3.178879947946263
 21
8.829310817545792
 31
0.0
  0
LWPOLYLINE
  5
EA
330
2
100
AcDbEntity
  8
IMAGE
100
AcDbPolyline
 90
        3
 70
     0
 43
0.018
 10
3.256133875217784
 20
8.183281164488516
 10
3.256133875217784
 20
7.228110766246637
 10
4.146376286904985
 20
7.228110766246637
  0
LWPOLYLINE
  5
EB
330
2
100
AcDbEntity
  8
IMAGE
100
AcDbPolyline
 90
        3
 70
     0
 43
0.018
 10
3.565167277425096
 20
8.175563513921396
 10
3.565167277425096
 20
7.29575075779772
 10
4.238915991380633
 20
7.29575075779772
  0
INSERT
  5
EC
330
2
100
AcDbEntity
  8
TEXT_BUBBLES
100
AcDbBlockReference
 66
     1
  2
bubble
 10
2.815613921358373
 20
7.11902000382537
 30
0.0
  0
ATTRIB
  5
ED
330
EC
100
AcDbEntity
  8
TEXT_BUBBLES
100
AcDbText
 10
2.765018683263135
 20
7.05652000382537
 30
0.0
 40
0.125
  1
1
  7
ROMANS
 72
     4
 11
2.815613921358373
 21
7.11902000382537
 31
0.0
100
AcDbAttribute
  2
XX
 70
     0
  0
SEQEND
  5
EE
330
EC
100
AcDbEntity
  8
TEXT_BUBBLES
  0
LWPOLYLINE
  5
EF
330
2
100
AcDbEntity
  8
IMAGE
100
AcDbPolyline
 90
        5
 70
     0
 43
0.0
 10
3.555712546299155
 20
6.001546540420391
 10
3.555712546299155
 20
6.245772416745078
 42
-0.4142135623730951
 10
3.640712546299155
 20
6.330772416745076
 10
4.74042565869065
 20
6.330772416745078
 42
-0.3027931766997644
 10
4.818889297936127
 20
6.278459682099568
  0
LINE
  5
F0
330
2
100
AcDbEntity
  8
IMAGE
100
AcDbLine
 10
4.307610289654203
 20
6.342209682099563
 30
0.0
 11
3.080672020633052
 21
6.342209682099563
 31
0.0
  0
LINE
  5
F1
330
2
100
AcDbEntity
  8
IMAGE
100
AcDbLine
 10
4.678737326193012
 20
6.384709682099562
 30
0.0
 11
4.07881467525361
 21
6.384709682099562
 31
0.0
  0
LWPOLYLINE
  5
F2
330
2
100
AcDbEntity
  8
IMAGE
100
AcDbPolyline
 90
       13
 70
     0
 43
0.0
 10
4.825425658690644
 20
5.989459682099565
 10
4.825425658690644
 20
5.912216222482033
 42
0.4142135623730951
 10
4.910425658690645
 20
5.827216222482033
 10
5.211312662613593
 20
5.827216222482034
 42
-0.4142135623730951
 10
5.296312662613594
 20
5.742216222482034
 10
5.296312662613594
 20
5.618025375808228
 42
-0.4142135623730951
 10
5.211312662613593
 20
5.533025375808228
 10
4.910425658690652
 20
5.533025375808229
 42
0.4142135623731064
 10
4.825425658690651
 20
5.448025375808226
 10
4.825425658690644
 20
5.029690970316093
 42
-0.4142135623730951
 10
4.740425658690643
 20
4.944690970316093
 10
3.640712546299155
 20
4.944690970316092
 42
-0.3080685491568047
 10
3.561632666447287
 20
4.998524119294283
 42
-0.3080685491568047
  0
LINE
  5
F3
330
2
100
AcDbEntity
  8
IMAGE
100
AcDbLine
 10
3.71190198742698
 20
4.935459682099563
 30
0.0
 11
5.236272020633052
 21
4.935459682099563
 31
0.0
  0
LINE
  5
F4
330
2
100
AcDbEntity
  8
IMAGE
100
AcDbLine
 10
3.545613273670475
 20
4.892959682099565
 30
0.0
 11
5.236272020633052
 21
4.892959682099565
 31
0.0
  0
LWPOLYLINE
  5
F5
330
2
100
AcDbEntity
  8
IMAGE
100
AcDbPolyline
 90
        2
 70
     1
 43
0.0600476119612251
 10
4.178666632337865
 20
5.653786711501771
 42
1.0
 10
4.238714244299092
 20
5.653786711501771
 42
1.0
  0
LWPOLYLINE
  5
F6
330
2
100
AcDbEntity
  8
IMAGE
100
AcDbPolyline
 90
        2
 70
     1
 43
0.0600476119612251
 10
4.178666632337865
 20
5.828805149751654
 42
1.0
 10
4.238714244299092
 20
5.828805149751654
 42
1.0
  0
TEXT
  5
F7
330
2
100
AcDbEntity
  8
IMAGE
100
AcDbText
 10
4.130927697829484
 20
5.51164227924209
 30
0.0
 40
0.03825
  1
Input LED
  7
ROMANS
100
AcDbText
  0
TEXT
  5
F8
330
2
100
AcDbEntity
  8
IMAGE
100
AcDbText
 10
4.130927697829484
 20
5.932487472006742
 30
0.0
 40
0.03825
  1
Output LED
  7
ROMANS
100
AcDbText
  0
LINE
  5
F9
330
2
100
AcDbEntity
  8
IMAGE
100
AcDbLine
 10
4.135271166006461
 20
5.912959682099567
 30
0.0
 11
4.279771166006462
 21
5.912959682099567
 31
0.0
  0
LINE
  5
FA
330
2
100
AcDbEntity
  8
IMAGE
100
AcDbLine
 10
4.135271166006468
 20
5.572959682099563
 30
0.0
 11
4.279771166006462
 21
5.572959682099563
 31
0.0
  0
LINE
  5
FB
330
2
100
AcDbEntity
  8
IMAGE
100
AcDbLine
 10
3.652203367911269
 20
5.399067781422322
 30
0.0
 11
4.179203367911267
 21
5.399067781422322
 31
0.0
  0
TEXT
  5
FC
330
2
100
AcDbEntity
  8
IMAGE
100
AcDbText
 10
4.154657931465536
 20
5.015101972587161
 30
0.0
 40
0.053125
  1
Power In
 50
90.0
  7
ROMANS
100
AcDbText
  0
LWPOLYLINE
  5
FD
330
2
100
AcDbEntity
  8
IMAGE
100
AcDbPolyline
 90
        5
 70
     0
 43
0.002125
 10
3.747280452323792
 20
4.999573661608056
 10
4.179203367911267
 20
4.999717202671111
 10
4.179203367911267
 20
5.399067781422322
 10
3.652203367911269
 20
5.399067781422322
 10
3.652204194254455
 20
5.398429990486072
  0
LWPOLYLINE
  5
FE
330
2
100
AcDbEntity
  8
IMAGE
100
AcDbPolyline
 90
        3
 70
     0
 43
0.0
 10
4.117809742428139
 20
6.457999601219911
 42
-0.5291747719520333
 10
4.197199584635519
 20
6.457999601219911
 42
0.5001668032613813
 10
4.2765894268429
 20
6.457999601219911
  0
LWPOLYLINE
  5
FF
330
2
100
AcDbEntity
  8
IMAGE
100
AcDbPolyline
 90
        3
 70
     0
 43
0.0
 10
4.117809742428139
 20
6.523345937624942
 42
-0.5291747719520333
 10
4.197199584635519
 20
6.523345937624942
 42
0.5001668032613813
 10
4.2765894268429
 20
6.523345937624942
  0
LWPOLYLINE
  5
100
330
2
100
AcDbEntity
  8
IMAGE
100
AcDbPolyline
 90
        3
 70
     0
 43
0.0188
 10
4.06575869582927
 20
6.802629411381365
 10
4.146376286904985
 20
6.802629411381365
 10
4.146376286904985
 20
6.543043921740909
  0
LWPOLYLINE
  5
101
330
2
100
AcDbEntity
  8
IMAGE
100
AcDbPolyline
 90
        3
 70
     0
 10
4.146376286904985
 20
7.228110766246637
 40
0.0188
 41
0.0188
 10
4.146376286904985
 20
6.88179607804803
 40
0.0188
 41
0.0188
 10
4.06575869582927
 20
6.88179607804803
 40
0.0
 41
0.0
  0
LWPOLYLINE
  5
102
330
2
100
AcDbEntity
  8
IMAGE
100
AcDbPolyline
 90
        3
 70
     0
 43
0.018
 10
4.519289983761943
 20
6.013641249524487
 10
4.146376286904985
 20
6.013641249524487
 10
4.146376286904985
 20
6.477697585335877
  0
LINE
  5
103
330
2
100
AcDbEntity
  8
IMAGE
100
AcDbLine
 10
4.681541667945595
 20
7.631895773724743
 30
0.0
 11
1.698227207757373
 21
7.631895773724743
 31
0.0
  0
TEXT
  5
104
330
2
100
AcDbEntity
  8
IMAGE
100
AcDbText
 10
3.635145419750301
 20
7.699298987169457
 30
0.0
 40
0.1121461090142779
  1
SENSOR
  7
L100
100
AcDbText
  0
TEXT
  5
105
330
2
100
AcDbEntity
  8
IMAGE
100
AcDbText
 10
3.655353145471543
 20
7.361626656846159
 30
0.0
 40
0.125
  1
BLUE/WHITE
  7
L100
100
AcDbText
  0
LINE
  5
106
330
2
100
AcDbEntity
  8
IMAGE
100
AcDbLine
 10
3.154581624326503
 20
8.100361108952988
 30
0.0
 11
4.402223888842954
 21
8.100361108952988
 31
0.0
  0
LWPOLYLINE
  5
107
330
2
100
AcDbEntity
  8
IMAGE
100
AcDbPolyline
 90
        8
 70
     0
 43
0.018
 10
5.673908036549708
 20
5.307879616262399
 10
5.517531007849793
 20
5.307879616262399
 10
5.517531007849793
 20
5.541834764722255
 10
4.437118964667448
 20
5.541834764722255
 10
4.437118964667448
 20
5.918584467965011
 10
3.300311741030959
 20
5.918584467965011
 10
3.300311741030959
 20
5.793990080353813
 10
3.505115147646989
 20
5.793990080353813
  0
LWPOLYLINE
  5
108
330
2
100
AcDbEntity
  8
IMAGE
100
AcDbPolyline
 90
        6
 70
     0
 43
0.018
 10
5.673908036549708
 20
5.240239624711316
 10
5.429732525948917
 20
5.240239624711316
 10
5.429732525948917
 20
5.443534628126737
 10
3.298194152835087
 20
5.443534628126737
 10
3.298194152835087
 20
5.668086746859652
 10
3.517108889628318
 20
5.668086746859652
  0
TEXT
  5
109
330
2
100
AcDbEntity
  8
IMAGE
100
AcDbText
 10
3.644003852010886
 20
6.196345226563511
 30
0.0
 40
0.0425
  1
M80201
  7
ROMANS
100
AcDbText
  0
LINE
  5
10A
330
2
100
AcDbEntity
  8
IMAGE
100
AcDbLine
 10
3.01692202063305
 20
6.278459682099568
 30
0.0
 11
3.01692202063305
 21
6.213478432099565
 31
0.0
  0
LINE
  5
10B
330
2
100
AcDbEntity
  8
IMAGE
100
AcDbLine
 10
2.974422020633053
 20
6.284179150325351
 30
0.0
 11
2.974422020633053
 21
6.213478432099565
 31
0.0
  0
CIRCLE
  5
10C
330
2
100
AcDbEntity
  8
IMAGE
100
AcDbCircle
 10
3.248972020633051
 20
6.170509682099566
 30
0.0
 40
0.1062500000000012
  0
LINE
  5
10D
330
2
100
AcDbEntity
  8
IMAGE
100
AcDbLine
 10
3.493939001159439
 20
5.362173306989592
 30
0.0
 11
3.493939001159439
 21
5.210462878522845
 31
0.0
  0
LINE
  5
10E
330
2
100
AcDbEntity
  8
IMAGE
100
AcDbLine
 10
3.290266486936022
 20
5.210462878522846
 30
0.0
 11
3.290266486936022
 21
5.362173306989592
 31
0.0
  0
LINE
  5
10F
330
2
100
AcDbEntity
  8
IMAGE
100
AcDbLine
 10
3.01692202063305
 20
6.096822351089666
 30
0.0
 11
3.01692202063305
 21
4.999209682099565
 31
0.0
  0
LINE
  5
110
330
2
100
AcDbEntity
  8
IMAGE
100
AcDbLine
 10
2.974422020633053
 20
6.046923776346237
 30
0.0
 11
2.974422020633053
 21
4.999209682099565
 31
0.0
  0
LWPOLYLINE
  5
111
330
2
100
AcDbEntity
  8
IMAGE
100
AcDbPolyline
 90
        6
 70
     0
 43
0.0
 10
3.678561437754272
 20
4.998524119294283
 10
3.747280452323792
 20
4.998524119294283
 10
3.747280452323792
 20
5.398429990486072
 10
3.237280452323798
 20
5.398429990486079
 10
3.237280452323798
 20
4.998524119294278
 10
3.678561437754272
 20
4.998524119294283
  0
LWPOLYLINE
  5
112
330
2
100
AcDbEntity
  8
IMAGE
100
AcDbPolyline
 90
        2
 70
     0
 43
0.002125
 10
4.077217366213126
 20
5.398996582086846
 10
4.077217366213126
 20
4.999717202671111
  0
LWPOLYLINE
  5
113
330
2
100
AcDbEntity
  8
IMAGE
100
AcDbPolyline
 90
        3
 70
     0
 43
0.018
 10
3.382650897491327
 20
5.279538884976271
 10
2.04566980837421
 20
5.279538884976271
 10
2.04566980837421
 20
4.582118535366501
  0
LWPOLYLINE
  5
114
330
2
100
AcDbEntity
  8
IMAGE
100
AcDbPolyline
 90
        3
 70
     0
 43
0.018
 10
3.376837978205063
 20
5.0994361661378
 10
2.446764135109344
 20
5.0994361661378
 10
2.446764135109344
 20
4.885052520567665
  0
TEXT
  5
115
330
2
100
AcDbEntity
  8
IMAGE
100
AcDbText
 10
2.480314140963262
 20
4.54913138529046
 30
0.0
 40
0.125
  1
BLACK
  7
ROMANS
100
AcDbText
  0
LWPOLYLINE
  5
117
330
2
100
AcDbEntity
  8
IMAGE
100
AcDbPolyline
 90
        3
 70
     0
 43
0.0
 10
1.965960174725218
 20
4.517194114849243
 42
-0.5291747719520333
 10
2.045350016932598
 20
4.517194114849243
 42
0.5001668032613813
 10
2.124739859139978
 20
4.517194114849243
  0
LWPOLYLINE
  5
118
330
2
100
AcDbEntity
  8
IMAGE
100
AcDbPolyline
 90
        3
 70
     0
 43
0.0
 10
1.965960174725218
 20
4.582540451254275
 42
-0.5291747719520333
 10
2.045350016932598
 20
4.582540451254275
 42
0.5001668032613813
 10
2.124739859139978
 20
4.582540451254275
  0
LWPOLYLINE
  5
119
330
2
100
AcDbEntity
  8
IMAGE
100
AcDbPolyline
 90
        3
 70
     0
 43
0.0
 10
2.375768003247781
 20
4.810307665942144
 42
-0.5291747719520333
 10
2.455157845455161
 20
4.810307665942144
 42
0.5001668032613813
 10
2.534547687662541
 20
4.810307665942144
  0
LWPOLYLINE
  5
11A
330
2
100
AcDbEntity
  8
IMAGE
100
AcDbPolyline
 90
        3
 70
     0
 43
0.0
 10
2.375768003247781
 20
4.875654002347176
 42
-0.5291747719520333
 10
2.455157845455161
 20
4.875654002347176
 42
0.5001668032613813
 10
2.534547687662541
 20
4.875654002347176
  0
LINE
  5
11B
330
2
100
AcDbEntity
  8
IMAGE
100
AcDbLine
 10
3.290266486936022
 20
5.034896057209546
 30
0.0
 11
3.493939001159432
 21
5.034896057209547
 31
0.0
  0
LINE
  5
11C
330
2
100
AcDbEntity
  8
IMAGE
100
AcDbLine
 10
3.493939001159439
 20
5.186606485676292
 30
0.0
 11
3.290266486936022
 21
5.186606485676292
 31
0.0
  0
LINE
  5
11D
330
2
100
AcDbEntity
  8
IMAGE
100
AcDbLine
 10
3.493939001159439
 20
5.210462878522845
 30
0.0
 11
3.290266486936022
 21
5.210462878522846
 31
0.0
  0
LINE
  5
11E
330
2
100
AcDbEntity
  8
IMAGE
100
AcDbLine
 10
3.080672020633052
 20
4.935459682099563
 30
0.0
 11
3.71190198742698
 21
4.935459682099563
 31
0.0
  0
LINE
  5
11F
330
2
100
AcDbEntity
  8
IMAGE
100
AcDbLine
 10
3.080672020633052
 20
4.892959682099565
 30
0.0
 11
3.545613273670475
 21
4.892959682099565
 31
0.0
  0
ARC
  5
120
330
2
100
AcDbEntity
  8
IMAGE
100
AcDbCircle
 10
3.080672020633052
 20
4.999209682099565
 30
0.0
 40
0.06375
100
AcDbArc
 50
180.0
 51
270.0
  0
ARC
  5
121
330
2
100
AcDbEntity
  8
IMAGE
100
AcDbCircle
 10
3.080672020633052
 20
4.999209682099565
 30
0.0
 40
0.10625
100
AcDbArc
 50
180.0
 51
270.0
  0
LINE
  5
122
330
2
100
AcDbEntity
  8
IMAGE
100
AcDbLine
 10
3.290266486936022
 20
5.186606485676292
 30
0.0
 11
3.290266486936022
 21
5.034896057209546
 31
0.0
  0
TEXT
  5
123
330
2
100
AcDbEntity
  8
IMAGE
100
AcDbText
 10
3.655712161343984
 20
5.078830366339253
 30
0.0
 40
0.053125
  1
   C/DC -
 41
0.8
  7
ROMANS
100
AcDbText
  0
LWPOLYLINE
  5
124
330
2
100
AcDbEntity
  8
IMAGE
100
AcDbPolyline
 90
        2
 70
     0
 43
0.002125
 10
3.747280452323792
 20
5.199622757988458
 10
4.077217366213126
 20
5.199356892378982
  0
LINE
  5
125
330
2
100
AcDbEntity
  8
IMAGE
100
AcDbLine
 10
3.493939001159432
 20
5.034896057209547
 30
0.0
 11
3.493939001159439
 21
5.186606485676292
 31
0.0
  0
TEXT
  5
126
330
2
100
AcDbEntity
  8
IMAGE
100
AcDbText
 10
2.133184924242424
 20
5.312652767598645
 30
0.0
 40
0.125
  1
WHITE
  7
ROMANS
100
AcDbText
  0
LINE
  5
127
330
2
100
AcDbEntity
  8
IMAGE
100
AcDbLine
 10
3.586562382681382
 20
5.623810647001356
 30
0.0
 11
3.586562382681382
 21
5.731223671071888
 31
0.0
  0
LWPOLYLINE
  5
128
330
2
100
AcDbEntity
  8
IMAGE
100
AcDbPolyline
 90
        4
 70
     0
 43
0.0
 10
3.586562382681382
 20
5.731223671071888
 10
3.448662578298716
 20
5.731223671071888
 10
3.448662578298716
 20
5.623810647001355
 10
3.586562382681382
 20
5.623810647001356
  0
LINE
  5
129
330
2
100
AcDbEntity
  8
IMAGE
100
AcDbLine
 10
3.430753315871918
 20
6.001546540420392
 30
0.0
 11
3.430753315871918
 21
5.619837090385032
 31
0.0
  0
LWPOLYLINE
  5
12A
330
2
100
AcDbEntity
  8
IMAGE
100
AcDbPolyline
 90
        6
 70
     0
 43
0.0
 10
3.228380853380777
 20
5.566232228529685
 10
3.228380853380777
 20
6.001546540420392
 10
3.600889735403782
 20
6.001546540420392
 10
3.600889735403782
 20
5.477012794807266
 10
3.228380853380777
 20
5.477012794807266
 10
3.228380853380777
 20
5.566232228529685
  0
LINE
  5
12B
330
2
100
AcDbEntity
  8
IMAGE
100
AcDbLine
 10
4.135271166006461
 20
5.912959682099567
 30
0.0
 11
4.135271166006468
 21
5.572959682099563
 31
0.0
  0
TEXT
  5
12C
330
2
100
AcDbEntity
  8
IMAGE
100
AcDbText
 10
4.086657931465538
 20
5.522970716613571
 30
0.0
 40
0.053125
  1
Flow Input
 50
90.0
  7
ROMANS
100
AcDbText
  0
LWPOLYLINE
  5
12D
330
2
100
AcDbEntity
  8
IMAGE
100
AcDbPolyline
 90
        2
 70
     0
 43
0.002125
 10
4.009217366213125
 20
6.00213848276409
 10
4.009217366213125
 20
5.482297317793008
  0
LWPOLYLINE
  5
12E
330
2
100
AcDbEntity
  8
IMAGE
100
AcDbPolyline
 90
        4
 70
     1
 43
0.002125
 10
3.652203367911269
 20
6.002289590581812
 10
3.652203367911269
 20
5.482297317793008
 10
4.111203367911269
 20
5.482297317793008
 10
4.111203367911269
 20
6.002209682099565
  0
LINE
  5
12F
330
2
100
AcDbEntity
  8
IMAGE
100
AcDbLine
 10
3.290266486936022
 20
5.362173306989592
 30
0.0
 11
3.493939001159439
 21
5.362173306989592
 31
0.0
  0
LWPOLYLINE
  5
130
330
2
100
AcDbEntity
  8
IMAGE
100
AcDbPolyline
 90
        4
 70
     1
 43
0.0
 10
3.448662578298716
 20
5.494915097063197
 10
3.586562382681382
 20
5.494915097063197
 10
3.586562382681382
 20
5.60232812113373
 10
3.448662578298716
 20
5.60232812113373
  0
LINE
  5
131
330
2
100
AcDbEntity
  8
IMAGE
100
AcDbLine
 10
3.448662578298716
 20
5.62483176468189
 30
0.0
 11
3.448662578298716
 21
5.623810647001356
 31
0.0
  0
LWPOLYLINE
  5
132
330
2
100
AcDbEntity
  8
IMAGE
100
AcDbPolyline
 90
        2
 70
     0
 43
0.0
 10
3.228380853380777
 20
5.698894541117199
 10
3.228380853380777
 20
5.71466994210164
  0
LINE
  5
133
330
2
100
AcDbEntity
  8
IMAGE
100
AcDbLine
 10
3.430753315871918
 20
5.619837090385032
 30
0.0
 11
3.430753315871918
 21
5.477012794807266
 31
0.0
  0
LWPOLYLINE
  5
134
330
2
100
AcDbEntity
  8
IMAGE
100
AcDbPolyline
 90
        2
 70
     0
 43
0.0
 10
3.555712546299155
 20
5.398429990486075
 10
3.555712546299155
 20
5.477012794807267
  0
TEXT
  5
135
330
2
100
AcDbEntity
  8
IMAGE
100
AcDbText
 10
3.655712161343984
 20
5.277173950634431
 30
0.0
 40
0.053125
  1
   L/DC +
 41
0.8
  7
ROMANS
100
AcDbText
  0
TEXT
  5
136
330
2
100
AcDbEntity
  8
IMAGE
100
AcDbText
 10
3.682392051414179
 20
5.522970724918208
 30
0.0
 40
0.053125
  1
Red
  7
ROMANS
100
AcDbText
  0
TEXT
  5
137
330
2
100
AcDbEntity
  8
IMAGE
100
AcDbText
 10
3.682392051414179
 20
5.647514762220464
 30
0.0
 40
0.053125
  1
Black
  7
ROMANS
100
AcDbText
  0
LWPOLYLINE
  5
138
330
2
100
AcDbEntity
  8
IMAGE
100
AcDbPolyline
 90
        2
 70
     0
 43
0.002125
 10
3.652203367911269
 20
5.612189789012533
 10
4.009217366213125
 20
5.612189789012533
  0
TEXT
  5
139
330
2
100
AcDbEntity
  8
IMAGE
100
AcDbText
 10
3.909463471209747
 20
5.647514762220464
 30
0.0
 40
0.053125
  1
-
  7
ROMANS
100
AcDbText
  0
LINE
  5
13A
330
2
100
AcDbEntity
  8
IMAGE
100
AcDbLine
 10
3.586562382681382
 20
5.860119418376298
 30
0.0
 11
3.448662578298716
 21
5.860119418376298
 31
0.0
  0
LINE
  5
13B
330
2
100
AcDbEntity
  8
IMAGE
100
AcDbLine
 10
3.448662578298719
 20
5.752706394305765
 30
0.0
 11
3.586562382681382
 21
5.752706394305765
 31
0.0
  0
LWPOLYLINE
  5
13C
330
2
100
AcDbEntity
  8
IMAGE
100
AcDbPolyline
 90
        4
 70
     1
 43
0.0
 10
3.448662578298716
 20
5.983644238164461
 10
3.586562382681382
 20
5.983644238164461
 10
3.586562382681382
 20
5.876231214093928
 10
3.448662578298716
 20
5.876231214093928
  0
LINE
  5
13D
330
2
100
AcDbEntity
  8
IMAGE
100
AcDbLine
 10
3.448662578298716
 20
5.860119418376298
 30
0.0
 11
3.448662578298719
 21
5.752706394305765
 31
0.0
  0
TEXT
  5
13E
330
2
100
AcDbEntity
  8
IMAGE
100
AcDbText
 10
3.682392051414179
 20
5.786718243555907
 30
0.0
 40
0.053125
  1
Red
  7
ROMANS
100
AcDbText
  0
LWPOLYLINE
  5
13F
330
2
100
AcDbEntity
  8
IMAGE
100
AcDbPolyline
 90
        2
 70
     0
 43
0.002125
 10
3.652203367911269
 20
5.742082260232058
 10
4.009217366213125
 20
5.742082260232058
  0
LWPOLYLINE
  5
140
330
2
100
AcDbEntity
  8
IMAGE
100
AcDbPolyline
 90
        2
 70
     0
 43
0.002125
 10
3.652203367911269
 20
5.871974731451582
 10
4.009217366213125
 20
5.871974731451582
  0
LINE
  5
141
330
2
100
AcDbEntity
  8
IMAGE
100
AcDbLine
 10
3.586562382681382
 20
5.752706394305765
 30
0.0
 11
3.586562382681382
 21
5.860119418376298
 31
0.0
  0
TEXT
  5
142
330
2
100
AcDbEntity
  8
IMAGE
100
AcDbText
 10
3.909463471209747
 20
5.786718243555907
 30
0.0
 40
0.053125
  1
+
  7
ROMANS
100
AcDbText
  0
TEXT
  5
143
330
2
100
AcDbEntity
  8
IMAGE
100
AcDbText
 10
3.644003852010886
 20
6.110333321801607
 30
0.0
 40
0.0425
  1
S/N 332-00139
 41
0.8
  7
ROMANS
100
AcDbText
  0
LINE
  5
144
330
2
100
AcDbEntity
  8
IMAGE
100
AcDbLine
 10
4.07881467525361
 20
6.384709682099562
 30
0.0
 11
3.080672020633052
 21
6.384709682099567
 31
0.0
  0
ARC
  5
145
330
2
100
AcDbEntity
  8
IMAGE
100
AcDbCircle
 10
3.080672020633052
 20
6.278459682099568
 30
0.0
 40
0.06375
100
AcDbArc
 50
90.0
 51
180.0
  0
ARC
  5
146
330
2
100
AcDbEntity
  8
IMAGE
100
AcDbCircle
 10
3.077677798680678
 20
6.281461555448093
 30
0.0
 40
0.1032915341261759
100
AcDbArc
 50
88.33887338371695
 51
178.4923770614876
  0
TEXT
  5
147
330
2
100
AcDbEntity
  8
IMAGE
100
AcDbText
 10
3.229252090186278
 20
7.031925720257723
 30
0.0
 40
0.125
  1
BLUE
  7
ROMANS
100
AcDbText
  0
LINE
  5
148
330
2
100
AcDbEntity
  8
IMAGE
100
AcDbLine
 10
4.04651741088741
 20
6.788417786402923
 30
0.0
 11
3.883071338517943
 21
6.80534375020145
 31
0.0
  0
LINE
  5
149
330
2
100
AcDbEntity
  8
IMAGE
100
AcDbLine
 10
3.888178577894432
 20
6.819082986351616
 30
0.0
 11
4.046527749132796
 21
6.806614594733715
 31
0.0
  0
LINE
  5
14A
330
2
100
AcDbEntity
  8
IMAGE
100
AcDbLine
 10
4.046509213650352
 20
6.773989462650155
 30
0.0
 11
4.065739228814411
 21
6.773978537403706
 31
0.0
  0
LINE
  5
14B
330
2
100
AcDbEntity
  8
IMAGE
100
AcDbLine
 10
3.888197411666094
 20
6.852233150650291
 30
0.0
 11
4.046556812207821
 21
6.857769813621806
 31
0.0
  0
LINE
  5
14C
330
2
100
AcDbEntity
  8
IMAGE
100
AcDbLine
 10
3.888206681963552
 20
6.868550216033269
 30
0.0
 11
4.046569918435938
 21
6.88083867221806
 31
0.0
  0
LINE
  5
14D
330
2
100
AcDbEntity
  8
IMAGE
100
AcDbLine
 10
3.888187848191886
 20
6.835400051734594
 30
0.0
 11
4.046540855360916
 21
6.829683453329969
 31
0.0
  0
LINE
  5
14E
330
2
100
AcDbEntity
  8
IMAGE
100
AcDbLine
 10
4.046580256681327
 20
6.899035480548852
 30
0.0
 11
3.883115057363433
 21
6.882295246515972
 31
0.0
  0
LINE
  5
14F
330
2
100
AcDbEntity
  8
IMAGE
100
AcDbLine
 10
4.046588453918378
 20
6.91346380430162
 30
0.0
 11
4.065818469082429
 21
6.913452879055177
 31
0.0
  0
LINE
  5
150
330
2
100
AcDbEntity
  8
IMAGE
100
AcDbLine
 10
4.065818469082429
 20
6.913452879055177
 30
0.0
 11
4.065739228814411
 21
6.773978537403706
 31
0.0
  0
LINE
  5
151
330
2
100
AcDbEntity
  8
IMAGE
100
AcDbLine
 10
4.046588453918378
 20
6.91346380430162
 30
0.0
 11
4.046509213650352
 21
6.773989462650155
 31
0.0
  0
ARC
  5
152
330
2
100
AcDbEntity
  8
IMAGE
100
AcDbCircle
 10
3.888851716109968
 20
6.843816226742453
 30
0.0
 40
0.0389042956022208
100
AcDbArc
 50
98.4795072373393
 51
261.4553892836564
  0
LINE
  5
153
330
2
100
AcDbEntity
  8
IMAGE
100
AcDbLine
 10
3.324669889664825
 20
8.051764461713467
 30
0.0
 11
3.446161507763626
 21
8.051764461713467
 31
0.0
  0
LINE
  5
154
330
2
100
AcDbEntity
  8
IMAGE
100
AcDbLine
 10
3.324669889664825
 20
8.051764461713467
 30
0.0
 11
3.324669889664825
 21
8.100361108952988
 31
0.0
  0
LINE
  5
155
330
2
100
AcDbEntity
  8
IMAGE
100
AcDbLine
 10
3.446161507763626
 20
8.027466138093704
 30
0.0
 11
3.446161507763626
 21
8.051764461713467
 31
0.0
  0
LINE
  5
156
330
2
100
AcDbEntity
  8
IMAGE
100
AcDbLine
 10
3.421863184143866
 20
8.027466138093704
 30
0.0
 11
3.421863184143866
 21
8.051764461713467
 31
0.0
  0
LINE
  5
157
330
2
100
AcDbEntity
  8
IMAGE
100
AcDbLine
 10
3.421863184143866
 20
8.027466138093704
 30
0.0
 11
3.446161507763626
 21
8.027466138093704
 31
0.0
  0
LINE
  5
158
330
2
100
AcDbEntity
  8
IMAGE
100
AcDbLine
 10
3.446161507763626
 20
8.051764461713467
 30
0.0
 11
3.446161507763626
 21
8.100361108952988
 31
0.0
  0
TEXT
  5
159
330
2
100
AcDbEntity
  8
IMAGE
100
AcDbText
 10
3.297291101981628
 20
7.930192163403032
 30
0.0
 40
0.1121461090142779
  1
+
  7
L100
100
AcDbText
  0
LINE
  5
15A
330
2
100
AcDbEntity
  8
IMAGE
100
AcDbLine
 10
3.185083420178848
 20
7.904105294997365
 30
0.0
 11
3.436118542396222
 21
7.904105294997365
 31
0.0
  0
LINE
  5
15B
330
2
100
AcDbEntity
  8
IMAGE
100
AcDbLine
 10
3.185083420178848
 20
7.904105294997365
 30
0.0
 11
3.185083420178848
 21
7.97886936767355
 31
0.0
  0
LINE
  5
15C
330
2
100
AcDbEntity
  8
IMAGE
100
AcDbLine
 10
3.772048634840906
 20
7.904105294997365
 30
0.0
 11
4.015886458843766
 21
7.904105294997365
 31
0.0
  0
LINE
  5
15D
330
2
100
AcDbEntity
  8
IMAGE
100
AcDbLine
 10
3.616249773101948
 20
8.051764461713467
 30
0.0
 11
3.737741391200749
 21
8.051764461713467
 31
0.0
  0
TEXT
  5
15E
330
2
100
AcDbEntity
  8
IMAGE
100
AcDbText
 10
3.618718472770289
 20
7.930192163403032
 30
0.0
 40
0.1121461090142779
  1
-
  7
L100
100
AcDbText
  0
LINE
  5
15F
330
2
100
AcDbEntity
  8
IMAGE
100
AcDbLine
 10
3.616249773101948
 20
8.051764461713467
 30
0.0
 11
3.616249773101948
 21
8.100361108952988
 31
0.0
  0
LINE
  5
160
330
2
100
AcDbEntity
  8
IMAGE
100
AcDbLine
 10
3.713443067580989
 20
8.027466138093704
 30
0.0
 11
3.737741391200749
 21
8.027466138093704
 31
0.0
  0
LINE
  5
161
330
2
100
AcDbEntity
  8
IMAGE
100
AcDbLine
 10
3.713443067580989
 20
8.027466138093704
 30
0.0
 11
3.713443067580989
 21
8.051764461713467
 31
0.0
  0
LINE
  5
162
330
2
100
AcDbEntity
  8
IMAGE
100
AcDbLine
 10
3.737741391200749
 20
8.027466138093704
 30
0.0
 11
3.737741391200749
 21
8.051764461713467
 31
0.0
  0
LINE
  5
163
330
2
100
AcDbEntity
  8
IMAGE
100
AcDbLine
 10
3.737741391200749
 20
8.051764461713467
 30
0.0
 11
3.737741391200749
 21
8.100361108952988
 31
0.0
  0
LINE
  5
164
330
2
100
AcDbEntity
  8
IMAGE
100
AcDbLine
 10
3.560184094805762
 20
7.904105294997365
 30
0.0
 11
3.772840656772601
 21
7.904105294997365
 31
0.0
  0
LINE
  5
165
330
2
100
AcDbEntity
  8
IMAGE
100
AcDbLine
 10
3.772048634840906
 20
7.904105294997365
 30
0.0
 11
3.772048634840906
 21
7.97886936767355
 31
0.0
  0
LINE
  5
166
330
2
100
AcDbEntity
  8
IMAGE
100
AcDbLine
 10
3.772840656772601
 20
7.904105294997365
 30
0.0
 11
3.772840656772601
 21
7.97886936767355
 31
0.0
  0
TEXT
  5
167
330
2
100
AcDbEntity
  8
IMAGE
100
AcDbText
 10
3.478924014252271
 20
7.900682868644993
 30
0.0
 40
0.1121461090142779
  1
1
  7
L100
100
AcDbText
  0
LINE
  5
168
330
2
100
AcDbEntity
  8
IMAGE
100
AcDbLine
 10
4.005022951018112
 20
8.027466138093704
 30
0.0
 11
4.029321274637872
 21
8.027466138093704
 31
0.0
  0
LINE
  5
169
330
2
100
AcDbEntity
  8
IMAGE
100
AcDbLine
 10
3.907829656539071
 20
8.051764461713467
 30
0.0
 11
4.029321274637872
 21
8.051764461713467
 31
0.0
  0
LINE
  5
16A
330
2
100
AcDbEntity
  8
IMAGE
100
AcDbLine
 10
4.005022951018112
 20
8.027466138093704
 30
0.0
 11
4.005022951018112
 21
8.051764461713467
 31
0.0
  0
TEXT
  5
16B
330
2
100
AcDbEntity
  8
IMAGE
100
AcDbText
 10
3.890401152694735
 20
7.930192163403032
 30
0.0
 40
0.1121461090142779
  1
+
  7
L100
100
AcDbText
  0
LINE
  5
16C
330
2
100
AcDbEntity
  8
IMAGE
100
AcDbLine
 10
3.907829656539071
 20
8.051764461713467
 30
0.0
 11
3.907829656539071
 21
8.100361108952988
 31
0.0
  0
LINE
  5
16D
330
2
100
AcDbEntity
  8
IMAGE
100
AcDbLine
 10
4.029321274637872
 20
8.027466138093704
 30
0.0
 11
4.029321274637872
 21
8.051764461713467
 31
0.0
  0
LINE
  5
16E
330
2
100
AcDbEntity
  8
IMAGE
100
AcDbLine
 10
4.029321274637872
 20
8.051764461713467
 30
0.0
 11
4.029321274637872
 21
8.100361108952988
 31
0.0
  0
TEXT
  5
16F
330
2
100
AcDbEntity
  8
IMAGE
100
AcDbText
 10
4.060105752581677
 20
7.900682868644993
 30
0.0
 40
0.1121461090142779
  1
2
  7
L100
100
AcDbText
  0
LWPOLYLINE
  5
170
330
2
100
AcDbEntity
  8
IMAGE
100
AcDbPolyline
 90
        2
 70
     0
 43
0.002125
 10
4.771754122552803
 20
6.107295996377671
 10
4.771754122552803
 20
6.203250551744905
  0
LWPOLYLINE
  5
171
330
2
100
AcDbEntity
  8
IMAGE
100
AcDbPolyline
 90
        6
 70
     0
 43
0.002125
 10
4.414740124250947
 20
5.989459682099565
 10
4.414740124250947
 20
6.278184046006157
 10
4.312754122552799
 20
6.278146925261492
 10
4.312754122552799
 20
5.989459682099565
 10
4.771754122552803
 20
5.989459682099565
 10
4.771754122552803
 20
6.060683902192921
  0
LINE
  5
172
330
2
100
AcDbEntity
  8
IMAGE
100
AcDbLine
 10
4.790137154913992
 20
5.989459682099565
 30
0.0
 11
4.790137154913992
 21
6.278459682099568
 31
0.0
  0
LINE
  5
173
330
2
100
AcDbEntity
  8
IMAGE
100
AcDbLine
 10
5.117272020633055
 20
6.278459682099568
 30
0.0
 11
5.117272020633052
 21
5.989459682099565
 31
0.0
  0
TEXT
  5
174
330
2
100
AcDbEntity
  8
IMAGE
100
AcDbText
 10
4.381193001637821
 20
6.047212124436248
 30
0.0
 40
0.053125
  1
Output
 50
90.0
 41
0.8
  7
ROMANS
100
AcDbText
  0
LINE
  5
175
330
2
100
AcDbEntity
  8
IMAGE
100
AcDbLine
 10
5.300022020633047
 20
4.999209682099565
 30
0.0
 11
5.300022020633047
 21
6.278459682099568
 31
0.0
  0
LINE
  5
176
330
2
100
AcDbEntity
  8
IMAGE
100
AcDbLine
 10
5.342522020633051
 20
4.999209682099565
 30
0.0
 11
5.342522020633051
 21
6.278459682099568
 31
0.0
  0
LWPOLYLINE
  5
177
330
2
100
AcDbEntity
  8
IMAGE
100
AcDbPolyline
 90
        3
 70
     0
 43
0.0188
 10
7.258647261891358
 20
5.388497207338113
 10
7.258647261891358
 20
5.307879616262399
 10
5.673908036549708
 20
5.307879616262399
  0
LINE
  5
178
330
2
100
AcDbEntity
  8
IMAGE
100
AcDbLine
 10
6.926554789591765
 20
5.140451791724705
 30
0.0
 11
7.066029131243229
 21
5.14037255145668
 31
0.0
  0
LINE
  5
179
330
2
100
AcDbEntity
  8
IMAGE
100
AcDbLine
 10
6.926565714838208
 20
5.159681806888757
 30
0.0
 11
7.066040056489679
 21
5.159602566620739
 31
0.0
  0
LINE
  5
17A
330
2
100
AcDbEntity
  8
IMAGE
100
AcDbLine
 10
6.940983113344532
 20
5.140443594487654
 30
0.0
 11
6.957723347377413
 21
4.97697839516976
 31
0.0
  0
LWPOLYLINE
  5
17B
330
2
100
AcDbEntity
  8
IMAGE
100
AcDbPolyline
 90
        3
 70
     0
 10
5.673908036549708
 20
5.240239624711316
 40
0.0188
 41
0.0188
 10
6.958222515845353
 20
5.240239624711316
 40
0.0188
 41
0.0188
 10
6.958222515845353
 20
5.159622033635601
 40
0.0
 41
0.0
  0
LWPOLYLINE
  5
17C
330
2
100
AcDbEntity
  8
IMAGE
100
AcDbPolyline
 90
        4
 70
     1
 43
0.0085
 10
5.151272020633051
 20
5.02555968209957
 10
5.151272020633051
 20
5.479459682099563
 10
4.911572020633052
 20
5.479459682099563
 10
4.911572020633052
 20
5.02555968209957
  0
TEXT
  5
17D
330
2
100
AcDbEntity
  8
IMAGE
100
AcDbText
 10
4.44542430922041
 20
5.186446875527119
 30
0.0
 40
0.053125
  1
Comm
  7
ROMANS
100
AcDbText
  0
LWPOLYLINE
  5
17E
330
2
100
AcDbEntity
  8
IMAGE
100
AcDbPolyline
 90
        4
 70
     1
 43
0.002125
 10
4.384572020633051
 20
5.479459682099563
 10
4.385089659239067
 20
5.025811747657147
 10
4.748321654837006
 20
5.025986713687206
 10
4.748321654837006
 20
5.479459682099563
  0
LINE
  5
17F
330
2
100
AcDbEntity
  8
TEXT_BUBBLES
100
AcDbLine
 10
4.467999244890449
 20
4.777491327415995
 30
0.0
 11
4.639559804546909
 21
4.483591520616102
 31
0.0
  0
INSERT
  5
180
330
2
100
AcDbEntity
  8
TEXT_BUBBLES
100
AcDbBlockReference
 66
     1
  2
bubble
 10
4.776098598702674
 20
4.453633956727648
 30
0.0
  0
ATTRIB
  5
181
330
180
100
AcDbEntity
  8
TEXT_BUBBLES
100
AcDbText
 10
4.716574789178864
 20
4.391133956727648
 30
0.0
 40
0.125
  1
3
  7
ROMANS
 72
     4
 11
4.776098598702674
 21
4.453633956727648
 31
0.0
100
AcDbAttribute
  2
XX
 70
     0
  0
SEQEND
  5
182
330
180
100
AcDbEntity
  8
TEXT_BUBBLES
  0
SOLID
  5
183
330
2
100
AcDbEntity
  8
TEXT_BUBBLES
100
AcDbTrace
 10
4.450007022789115
 20
4.766988579126443
 30
0.0
 11
4.485991466991794
 21
4.787994075705561
 31
0.0
 12
4.404982755153103
 22
4.885444660024039
 32
0.0
 13
4.404982755153103
 23
4.885444660024039
 33
0.0
  0
TEXT
  5
184
330
2
100
AcDbEntity
  8
IMAGE
100
AcDbText
 10
4.483480955077485
 20
5.099661160589247
 30
0.0
 40
0.053125
  1
Port
  7
ROMANS
100
AcDbText
  0
ARC
  5
185
330
2
100
AcDbEntity
  8
IMAGE
100
AcDbCircle
 10
5.236272020633052
 20
4.999209682099565
 30
0.0
 40
0.06375
100
AcDbArc
 50
270.0
 51
0.0
  0
ARC
  5
186
330
2
100
AcDbEntity
  8
IMAGE
100
AcDbCircle
 10
5.236272020633052
 20
4.999209682099565
 30
0.0
 40
0.10625
100
AcDbArc
 50
270.0
 51
0.0
  0
TEXT
  5
187
330
2
100
AcDbEntity
  8
IMAGE
100
AcDbText
 10
5.73180370987994
 20
5.041023534647956
 30
0.0
 40
0.125
  1
BLACK
  7
L100
100
AcDbText
  0
LINE
  5
188
330
2
100
AcDbEntity
  8
IMAGE
100
AcDbLine
 10
6.926554789591765
 20
5.140451791724705
 30
0.0
 11
6.926565714838208
 21
5.159681806888757
 31
0.0
  0
HATCH
  5
189
330
2
100
AcDbEntity
  8
IMAGE
100
AcDbHatch
 10
0.0
 20
0.0
 30
0.0
210
0.0
220
0.0
230
1.0
  2
SOLID
 70
     1
 71
     0
 91
        2
 92
        7
 72
     0
 73
     1
 93
      102
 10
5.099778508798994
 20
5.689816744986203
 10
5.100077671638388
 20
5.689816744986198
 10
5.100375474646689
 20
5.690115907825592
 10
5.116794075204889
 20
5.69638472914191
 10
5.123362059360619
 20
5.703250516305947
 10
5.123362059360619
 20
5.703549679145336
 10
5.123362059360619
 20
5.703847482153642
 10
5.123659862368917
 20
5.703847482153636
 10
5.123659862368921
 20
5.704146644993025
 10
5.123659862368921
 20
5.704444448001332
 10
5.123959025208311
 20
5.704444448001338
 10
5.123959025208311
 20
5.70474361084072
 10
5.124256828216612
 20
5.705041413849021
 10
5.124256828216612
 20
5.705340576688416
 10
5.124555991055999
 20
5.705638379696717
 10
5.124555991055999
 20
5.705937542536105
 10
5.1248537940643
 20
5.706235345544405
 10
5.12604772575969
 20
5.709221534613952
 10
5.126943854446782
 20
5.710713269317656
 10
5.127243017286165
 20
5.712504166860729
 10
5.12783998313386
 20
5.713997261395521
 10
5.128137786142165
 20
5.715788158938595
 10
5.128436948981558
 20
5.717579056481675
 10
5.128734751989856
 20
5.719369954024749
 10
5.12873475198986
 20
5.720863048559534
 10
5.12873475198986
 20
5.72265394610262
 10
5.12873475198986
 20
5.724444843645712
 10
5.128436948981558
 20
5.726235741188774
 10
5.127839983133846
 20
5.72772883572362
 10
5.127243017286168
 20
5.729519733266699
 10
5.126646051438481
 20
5.731012827801406
 10
5.125749922751396
 20
5.732803725344511
 10
5.120675033130449
 20
5.736983846109453
 10
5.117988006900183
 20
5.738176417973654
 10
5.115003177661833
 20
5.739370349669135
 10
5.112018348423351
 20
5.740266478356219
 10
5.108734356345493
 20
5.740565641195601
 10
5.105450364267632
 20
5.740863444203908
 10
5.102167732020863
 20
5.741162607043297
 10
5.09888373994304
 20
5.740863444203914
 10
5.095599747865072
 20
5.740863444203908
 10
5.092315755786884
 20
5.740565641195565
 10
5.088733960701112
 20
5.740266478356213
 10
5.085449968623265
 20
5.740266478356213
 10
5.082165976545407
 20
5.740266478356213
 10
5.079181147306961
 20
5.740266478356219
 10
5.076196318068465
 20
5.740565641195601
 10
5.075898515060163
 20
5.740266478356213
 10
5.075599352220777
 20
5.740266478356213
 10
5.075300189381387
 20
5.740266478356213
 10
5.075002386373085
 20
5.740266478356213
 10
5.073509291838306
 20
5.738176417973738
 10
5.072912325990628
 20
5.737281649117766
 10
5.072315360142916
 20
5.736087717422352
 10
5.071718394295228
 20
5.73519158873528
 10
5.071420591286916
 20
5.734296819879253
 10
5.070823625439231
 20
5.733102888183893
 10
5.070226659591529
 20
5.732206759496803
 10
5.069629693743845
 20
5.731012827801419
 10
5.069031368065051
 20
5.730116699114322
 10
5.068435762048455
 20
5.728922767418944
 10
5.067837436369661
 20
5.728026638731848
 10
5.067240470521976
 20
5.726834066867563
 10
5.066643504674289
 20
5.72593793818048
 10
5.066046538826597
 20
5.7247440064851
 10
5.065449572978899
 20
5.723847877798011
 10
5.06186777789275
 20
5.716087321778013
 10
5.059777717510264
 20
5.712504166860729
 10
5.05798681996719
 20
5.708624568766281
 10
5.055898119415797
 20
5.705041413849027
 10
5.054105862041616
 20
5.701161815754549
 10
5.052017161490265
 20
5.697578660837343
 10
5.049927101107765
 20
5.693697702911746
 10
5.048136203564759
 20
5.690115907825707
 10
5.046046143182241
 20
5.686234949900068
 10
5.044255245639138
 20
5.682653154813878
 10
5.042762151104358
 20
5.678772196888336
 10
5.040971253561281
 20
5.675190401802176
 10
5.039479518857625
 20
5.671309443876712
 10
5.03828558716221
 20
5.667727648790455
 10
5.037090295635731
 20
5.664144493873201
 10
5.060971649205647
 20
5.665339785399674
 10
5.062762546748739
 20
5.668324614638162
 10
5.063658675435792
 20
5.670115512181194
 10
5.064554804122895
 20
5.671608606715998
 10
5.065151769970608
 20
5.673399504259108
 10
5.066046538826586
 20
5.675190401802169
 10
5.066942667513675
 20
5.676981299345249
 10
5.067539633361366
 20
5.678474393880029
 10
5.068435762048444
 20
5.680265291423085
 10
5.069330530904444
 20
5.6817570261268
 10
5.070226659591536
 20
5.683250120661573
 10
5.071121428447526
 20
5.684743215196353
 10
5.072315360142898
 20
5.686234949900008
 10
5.073211488829993
 20
5.687428881595429
 10
5.074405420525383
 20
5.688624173121889
 10
5.07589851506016
 20
5.689816744986198
 10
5.086943063158045
 20
5.664144493873201
 10
5.107838227658401
 20
5.664443656712601
 10
5.099778508798998
 20
5.688921976130214
 10
5.099778508798998
 20
5.689221138969602
 10
5.099778508798998
 20
5.689518941977903
 97
        0
 92
       22
 72
     0
 73
     1
 93
       75
 10
5.088436157692825
 20
5.707429277239796
 10
5.087240866166347
 20
5.707429277239796
 10
5.086346097310343
 20
5.707429277239802
 10
5.086046934470953
 20
5.707728440079191
 10
5.085749131462655
 20
5.708026243087492
 10
5.085449968623265
 20
5.708325405926887
 10
5.085077460185285
 20
5.709072123754603
 10
5.085449968623258
 20
5.709817140630566
 10
5.085449968623258
 20
5.710415466309349
 10
5.085749131462655
 20
5.711012432157044
 10
5.085749131462655
 20
5.711609398004734
 10
5.086046934470736
 20
5.712206363852344
 10
5.086346097310343
 20
5.71280332970013
 10
5.086645260149829
 20
5.71340029554782
 10
5.086943063158045
 20
5.713997261395509
 10
5.087540029005747
 20
5.714893390082611
 10
5.087837832013999
 20
5.715490355930239
 10
5.088136994853428
 20
5.716087321777989
 10
5.088436157693269
 20
5.716684287626482
 10
5.088733960701137
 20
5.717281253473387
 10
5.089031763709439
 20
5.717579056481693
 10
5.089330926548814
 20
5.71817602232937
 10
5.089330926548814
 20
5.718774348008153
 10
5.089630089388208
 20
5.719369954024767
 10
5.089927892396509
 20
5.719669116864143
 10
5.090227055235892
 20
5.720266082711838
 10
5.090524858244204
 20
5.720565245551245
 10
5.090824021083594
 20
5.721162211398929
 10
5.091420986931289
 20
5.721460014407242
 10
5.091718789939584
 20
5.721757817415536
 10
5.092912721634974
 20
5.722653946102608
 10
5.098584577103615
 20
5.723847877798005
 10
5.098883739943008
 20
5.72355007478971
 10
5.099181542951303
 20
5.723550074789704
 10
5.099480705790693
 20
5.723550074789704
 10
5.099778508798998
 20
5.723550074789704
 10
5.100077671638395
 20
5.723550074789704
 10
5.100674637486083
 20
5.723550074789704
 10
5.100973800325473
 20
5.723550074789704
 10
5.101271603333785
 20
5.72325091195031
 10
5.101570766173168
 20
5.72325091195031
 10
5.101868569181462
 20
5.723250911950315
 10
5.102465535029164
 20
5.722953108942008
 10
5.102764697868551
 20
5.722953108942014
 10
5.103062500878216
 20
5.722653946101895
 10
5.103361663716235
 20
5.722356143094319
 10
5.104256432572242
 20
5.72205698025493
 10
5.104256432572242
 20
5.720863048559534
 10
5.104256432572242
 20
5.719966919872456
 10
5.104256432572242
 20
5.71936995402476
 10
5.10395862956394
 20
5.718475185168765
 10
5.10395862956394
 20
5.717579056481675
 10
5.103659466724547
 20
5.716983450465067
 10
5.103062500876863
 20
5.716087321777989
 10
5.102764697868565
 20
5.715490355930318
 10
5.102167732020848
 20
5.714594227243192
 10
5.10186856918148
 20
5.713997261395521
 10
5.101271603333778
 20
5.713400295547826
 10
5.100674637486083
 20
5.71280332970013
 10
5.100077671638395
 20
5.712206363852435
 10
5.099480705790686
 20
5.711609398004734
 10
5.098584577103615
 20
5.710415466309349
 10
5.097689808247611
 20
5.709817140630578
 10
5.097092842399916
 20
5.709221534613964
 10
5.096495876552197
 20
5.708922371774558
 10
5.095599747865144
 20
5.708624568766269
 10
5.095002782017456
 20
5.708325405926893
 10
5.094106653330353
 20
5.70802624308748
 10
5.093511047313757
 20
5.707728440079185
 10
5.092912721634981
 20
5.707728440079185
 10
5.09201795277897
 20
5.707429277239802
 10
5.091420986931289
 20
5.707429277239796
 10
5.090524858244204
 20
5.707429277239796
 10
5.089927892396509
 20
5.707429277239796
 10
5.089031763709424
 20
5.707429277239796
 97
        0
 75
     0
 76
     1
 47
0.000561511643593
 98
        2
 10
5.088427383538256
 20
5.695669009465159
 10
5.088427383538256
 20
5.695669009465159
  0
HATCH
  5
18A
330
2
100
AcDbEntity
  8
IMAGE
100
AcDbHatch
 10
0.0
 20
0.0
 30
0.0
210
0.0
220
0.0
230
1.0
  2
SOLID
 70
     1
 71
     0
 91
        1
 92
        7
 72
     0
 73
     1
 93
       11
 10
5.058285982806573
 20
5.740565641195601
 10
5.034702432244948
 20
5.740565641195601
 10
5.03440462923665
 20
5.740266478356219
 10
5.034105466397267
 20
5.740266478356213
 10
4.996791701338693
 20
5.665936751247375
 10
4.996791701338693
 20
5.665637588407981
 10
4.996791701338693
 20
5.665339785399686
 10
4.997089504346995
 20
5.665040622560291
 10
4.997089504346995
 20
5.664742819551984
 10
4.99738866718625
 20
5.664742819551984
 10
5.020373892069223
 20
5.665339785399679
 97
        0
 75
     0
 76
     1
 47
0.000561511643593
 98
        1
 10
5.035905790032256
 20
5.715714971523682
  0
HATCH
  5
18B
330
2
100
AcDbEntity
  8
IMAGE
100
AcDbHatch
 10
0.0
 20
0.0
 30
0.0
210
0.0
220
0.0
230
1.0
  2
SOLID
 70
     1
 71
     0
 91
        3
 92
        7
 72
     0
 73
     1
 93
      110
 10
5.014404233592269
 20
5.731907596657403
 10
5.015299002448308
 20
5.733997657039937
 10
5.016195131135361
 20
5.736385520430658
 10
5.016492934143673
 20
5.738774743652528
 10
5.017089899991361
 20
5.740863444203908
 10
5.017089899991361
 20
5.743251307594701
 10
5.017389062830751
 20
5.745640530816534
 10
5.017089899991361
 20
5.748028394207298
 10
5.017089899991358
 20
5.750416257598109
 10
5.016492934143684
 20
5.752506317980571
 10
5.01589732812706
 20
5.754894181371274
 10
5.015299002448308
 20
5.756685078914433
 10
5.01440423359228
 20
5.758775139296908
 10
5.013210301896897
 20
5.76056603683997
 10
5.012015010370436
 20
5.762356934383049
 10
5.006045351893494
 20
5.764744797773831
 10
5.003060522655012
 20
5.765640926460902
 10
5.000074333586056
 20
5.766237892308586
 10
4.996791701338587
 20
5.7668348581563
 10
4.993507709260871
 20
5.7671326611646
 10
4.990223717182974
 20
5.7671326611646
 10
4.986939725105116
 20
5.7671326611646
 10
4.983657092858344
 20
5.7671326611646
 10
4.980373100780436
 20
5.7671326611646
 10
4.977089108702614
 20
5.7668348581563
 10
4.973806476455855
 20
5.7668348581563
 10
4.970522484377998
 20
5.7668348581563
 10
4.967537655139526
 20
5.7668348581563
 10
4.964253663061644
 20
5.7668348581563
 10
4.961267473992108
 20
5.7671326611646
 10
4.960969670983814
 20
5.7668348581563
 10
4.960671867975506
 20
5.7668348581563
 10
4.960372705136119
 20
5.7668348581563
 10
4.960073542296729
 20
5.7668348581563
 10
4.959775739288428
 20
5.7668348581563
 10
4.953207755132758
 20
5.753998052684347
 10
4.949625960046585
 20
5.747729231367993
 10
4.946341967968717
 20
5.741460410051658
 10
4.942760172882675
 20
5.735191588735552
 10
4.939178377796419
 20
5.728624964410758
 10
4.935894385718501
 20
5.722356143094313
 10
4.932610393640647
 20
5.716087321778002
 10
4.929028598554413
 20
5.709519337622144
 10
4.925744606476623
 20
5.703250516305941
 10
4.922759777238137
 20
5.696683891981298
 10
4.91947578516029
 20
5.690415070664981
 10
4.916790118761223
 20
5.684146249348676
 10
4.913803929691674
 20
5.67787742803237
 10
4.911416066300883
 20
5.671608606716009
 10
4.909028202910114
 20
5.665339785399674
 10
4.919475785160521
 20
5.665637588407975
 10
4.924848477789424
 20
5.665637588407986
 10
4.930521693092568
 20
5.665339785399565
 10
4.935894385720359
 20
5.665040622560225
 10
4.941566241187135
 20
5.664742819551984
 10
4.947238096655805
 20
5.664443656712596
 10
4.95261078928501
 20
5.664443656712596
 10
4.957984841745361
 20
5.664443656712596
 10
4.963357534374601
 20
5.664742819551978
 10
4.968432423995118
 20
5.665637588407975
 10
4.973209510608185
 20
5.666533717095083
 10
4.977985237389752
 20
5.668324614638175
 10
4.982463161162968
 20
5.670414675020637
 10
4.986641922096804
 20
5.67339950425909
 10
4.990522880022364
 20
5.676981299345279
 10
4.991119845870052
 20
5.677578265192951
 10
4.991417648878353
 20
5.67817523104064
 10
4.991417648878368
 20
5.678474393880034
 10
4.991716811717743
 20
5.679071359727712
 10
4.992014614726347
 20
5.679369162736339
 10
4.992313777565438
 20
5.67966696574432
 10
4.992611580573743
 20
5.680265291423109
 10
4.992611580573743
 20
5.680563094431403
 10
4.992910743413133
 20
5.680862257270798
 10
4.993209906252534
 20
5.681459223118506
 10
4.993507709260835
 20
5.681757026126794
 10
4.993507709260835
 20
5.68235399197449
 10
4.993806872100229
 20
5.68265315481389
 10
4.994104675108538
 20
5.683250120661591
 10
4.994701640956218
 20
5.683847086509262
 10
4.996194735490991
 20
5.68742888159541
 10
4.996791701338683
 20
5.689518941977897
 10
4.997089504346995
 20
5.691609002360402
 10
4.997089504346995
 20
5.693399899903457
 10
4.997089504346995
 20
5.695489960285926
 10
4.997089504346995
 20
5.697578660837307
 10
4.997089504346995
 20
5.699369558380423
 10
4.996791701338729
 20
5.70145961876256
 10
4.9964925384993
 20
5.703250516305947
 10
4.996194735491005
 20
5.705041413849039
 10
4.995597769643303
 20
5.706833671223189
 10
4.995298606803867
 20
5.708624568766444
 10
4.995000803795601
 20
5.710116303470057
 10
4.994701640956215
 20
5.71190720101301
 10
4.994403837947913
 20
5.713400295547826
 10
4.996791701338693
 20
5.71459422724321
 10
4.997985633034062
 20
5.715191193090894
 10
4.999179564729463
 20
5.716087321777983
 10
5.000672659264253
 20
5.716684287625684
 10
5.001866590959632
 20
5.717579056481675
 10
5.003060522655019
 20
5.718475185168765
 10
5.004254454350416
 20
5.719369954024755
 10
5.005149223206391
 20
5.720266082711833
 10
5.006344514732877
 20
5.721162211398929
 10
5.007538446428263
 20
5.722056980254913
 10
5.008433215284263
 20
5.72325091195031
 10
5.009627146979653
 20
5.724147040637405
 10
5.010523275666731
 20
5.725340972332784
 10
5.011418044522734
 20
5.726534904028168
 10
5.012611976218121
 20
5.728026638731866
 97
        0
 92
       22
 72
     0
 73
     1
 93
       34
 10
4.991417648878353
 20
5.738774743652498
 10
4.991119845870048
 20
5.737579452126031
 10
4.990822042861758
 20
5.736684683270065
 10
4.990223717182974
 20
5.735788554582962
 10
4.989626751335276
 20
5.734893785726961
 10
4.989328948326974
 20
5.733997657039889
 10
4.988731982479283
 20
5.733102888183887
 10
4.988135016631584
 20
5.732206759496797
 10
4.987538050783893
 20
5.730713664962023
 10
4.986342759257489
 20
5.729817536275006
 10
4.985447990401382
 20
5.729221930258296
 10
4.984254058706035
 20
5.728624964410643
 10
4.983060127010649
 20
5.72802663873186
 10
4.981866195315266
 20
5.727429672884171
 10
4.980672263619958
 20
5.727131869875869
 10
4.979179169085096
 20
5.726834066867539
 10
4.977985237389795
 20
5.726534904028187
 10
4.976492142854933
 20
5.72623574118878
 10
4.974999048320146
 20
5.72593793818048
 10
4.973806476455855
 20
5.72593793818048
 10
4.972313381921058
 20
5.72593793818048
 10
4.97082028738631
 20
5.725640135172173
 10
4.969626355690905
 20
5.725640135172173
 10
4.96693932946075
 20
5.72593793818048
 10
4.979179169085096
 20
5.746236136833148
 10
4.979476972093397
 20
5.746236136833148
 10
4.979776134932841
 20
5.746236136833142
 10
4.991119845870052
 20
5.745640530816534
 10
4.991417648878353
 20
5.744445239290062
 10
4.991716811717925
 20
5.743550470433111
 10
4.992014614726056
 20
5.742654341746982
 10
4.992014614726056
 20
5.741460410051598
 10
4.992014614726056
 20
5.740565641195595
 10
4.991716811717399
 20
5.739669512507539
 97
        0
 92
       22
 72
     0
 73
     1
 93
       32
 10
4.97052248437799
 20
5.705638379696717
 10
4.971119450225696
 20
5.704743610840727
 10
4.971716416073387
 20
5.704146644993032
 10
4.9720142190817
 20
5.703549679145329
 10
4.972611184929352
 20
5.702653550458307
 10
4.972910347768767
 20
5.702056584610563
 10
4.972910347768767
 20
5.701161815754555
 10
4.97320951060816
 20
5.700265687067482
 10
4.97320951060816
 20
5.699668721219781
 10
4.97320951060816
 20
5.698772592532703
 10
4.97291034776877
 20
5.697877823676702
 10
4.972910347768767
 20
5.696981694989611
 10
4.972611184929377
 20
5.696085566302533
 10
4.972313381921075
 20
5.695190797446538
 10
4.972014219081682
 20
5.694294668759448
 10
4.971119450225685
 20
5.692802934055769
 10
4.969925518530303
 20
5.691012036512682
 10
4.968731586834373
 20
5.689816744985105
 10
4.967537655139526
 20
5.688624173121907
 10
4.966342363613048
 20
5.687428881595423
 10
4.964850628909392
 20
5.686833275578851
 10
4.963357534374576
 20
5.685937146891737
 10
4.961566636831555
 20
5.685340181044054
 10
4.960073542296694
 20
5.685041018204653
 10
4.958282644753673
 20
5.68444405235697
 10
4.95649174721057
 20
5.684146249348657
 10
4.954998652675783
 20
5.684146249348657
 10
4.953207755132734
 20
5.684146249348663
 10
4.951416857589631
 20
5.683847086509275
 10
4.949625960046525
 20
5.684146249348651
 10
4.946341967968677
 20
5.684444052356957
 10
4.957088713058247
 20
5.705937542536105
 97
        0
 75
     0
 76
     1
 47
0.000561511643593
 98
        3
 10
5.00200548338153
 20
5.73576093942291
 10
5.00200548338153
 20
5.73576093942291
 10
5.00200548338153
 20
5.73576093942291
  0
HATCH
  5
18C
330
2
100
AcDbEntity
  8
IMAGE
100
AcDbHatch
 10
0.0
 20
0.0
 30
0.0
210
0.0
220
0.0
230
1.0
  2
SOLID
 70
     1
 71
     0
 91
        1
 92
        7
 72
     0
 73
     1
 93
      410
 10
4.843355160508373
 20
5.714893390082599
 10
4.843055997669438
 20
5.714594227243591
 10
4.842758194660678
 20
5.714295064403816
 10
4.842459031821292
 20
5.714295064403827
 10
4.842459031821292
 20
5.713997261395515
 10
4.84216122881299
 20
5.713997261395515
 10
4.8418620659736
 20
5.713997261395515
 10
4.841564262965295
 20
5.713997261395515
 10
4.834996278809583
 20
5.715490355930294
 10
4.834399312961881
 20
5.714893390082605
 10
4.834399312961881
 20
5.71459422724321
 10
4.834399312961881
 20
5.714295064403821
 10
4.834399312961881
 20
5.713698098556126
 10
4.834399312961881
 20
5.713400295547826
 10
4.834399312961881
 20
5.713101132708431
 10
4.834399312961881
 20
5.71280332970013
 10
4.834399312961881
 20
5.712504166860735
 10
4.834399312961881
 20
5.712206363852435
 10
4.834399312961881
 20
5.711907201013047
 10
4.834100150122491
 20
5.711907201013047
 10
4.834100150122491
 20
5.711609398004745
 10
4.833802347114204
 20
5.711609398004745
 10
4.821264704481531
 20
5.713400295547832
 10
4.825443465415393
 20
5.708026243087492
 10
4.825443465415393
 20
5.70742927723979
 10
4.825145662407091
 20
5.707131474231502
 10
4.825145662407091
 20
5.706833671223195
 10
4.824846499567698
 20
5.706833671223195
 10
4.824846499567705
 20
5.706534508383812
 10
4.824548696559396
 20
5.706534508383812
 10
4.824249533720003
 20
5.706235345544412
 10
4.823951730711701
 20
5.706235345544412
 10
4.823951730711701
 20
5.705937542536111
 10
4.823652567872308
 20
5.705937542536117
 10
4.807233967314104
 20
5.71101243215705
 10
4.806041395449803
 20
5.709817140630572
 10
4.806041395449803
 20
5.708624568766281
 10
4.806339198458108
 20
5.708026243087492
 10
4.806637001466295
 20
5.70742927723793
 10
4.806936164305799
 20
5.706833671223207
 10
4.807533130153487
 20
5.706235345544418
 10
4.807832292992877
 20
5.705638379696734
 10
4.808130096001189
 20
5.705340576688416
 10
4.808727061848884
 20
5.70474361084072
 10
4.809026224688274
 20
5.704444448001344
 10
4.809324027697154
 20
5.703847482151879
 10
4.809623190535972
 20
5.703250516305947
 10
4.80992099354427
 20
5.702952713297641
 10
4.810220156383664
 20
5.702355747449945
 10
4.810220156383664
 20
5.701757421771162
 10
4.810517959391958
 20
5.70116181575456
 10
4.808130096001171
 20
5.701459618762867
 10
4.806936164305756
 20
5.701757421771186
 10
4.806041395449803
 20
5.702056584610563
 10
4.804846103923331
 20
5.702653550458252
 10
4.803652172227945
 20
5.703250516305947
 10
4.802458240532555
 20
5.703847482153636
 10
4.801264308837165
 20
5.704444448001326
 10
4.800070377141796
 20
5.704743610840703
 10
4.798876445446371
 20
5.705340576688421
 10
4.797980316759353
 20
5.705638379696723
 10
4.796786385063946
 20
5.705937542536111
 10
4.795592453368534
 20
5.705937542536111
 10
4.794398521673144
 20
5.705937542536105
 10
4.793502392986066
 20
5.705638379696717
 10
4.792607624130063
 20
5.70534057668841
 10
4.797980316759304
 20
5.698175626685014
 10
4.794995487520786
 20
5.698772592532722
 10
4.793204589977754
 20
5.699071755372074
 10
4.791711495442985
 20
5.699668721219781
 10
4.790219760739294
 20
5.700265687067477
 10
4.788726666204539
 20
5.700862652915166
 10
4.786935768661365
 20
5.701459618762916
 10
4.78544267412662
 20
5.702056584610563
 10
4.783950939422894
 20
5.702355747449891
 10
4.782158682048944
 20
5.70265355045821
 10
4.780666947351502
 20
5.702952713296523
 10
4.779173852810338
 20
5.703250516305947
 10
4.777682118106636
 20
5.703250516305947
 10
4.775891220563543
 20
5.703250516305947
 10
4.774398126028788
 20
5.702653550458252
 10
4.773204194333398
 20
5.702355747449945
 10
4.779770818658054
 20
5.698175626684996
 10
4.783054810735887
 20
5.69578776329416
 10
4.786338802813741
 20
5.693697702911758
 10
4.789622794891556
 20
5.691609002360372
 10
4.792905427138389
 20
5.689221138969585
 10
4.796189419216279
 20
5.687131078587158
 10
4.799473411294048
 20
5.684743215196401
 10
4.802757403371941
 20
5.682653154813884
 10
4.806041395449813
 20
5.680563094431422
 10
4.809324027696586
 20
5.67817523104064
 10
4.81290718261382
 20
5.676085170658166
 10
4.816488977699986
 20
5.673996470106779
 10
4.820070772786142
 20
5.671906409724298
 10
4.823652567872535
 20
5.670115512181127
 10
4.827832688637251
 20
5.668324614638151
 10
4.834399312961888
 20
5.66802545179875
 10
4.837384142200313
 20
5.668623777477533
 10
4.840071168430508
 20
5.66981634934183
 10
4.842459031821277
 20
5.671608606716003
 10
4.84454909220377
 20
5.673399504259095
 10
4.846639152586234
 20
5.675787367649859
 10
4.848727853137621
 20
5.678175231040646
 10
4.850518750680699
 20
5.680862257270804
 10
4.85230964822378
 20
5.683549283500968
 10
4.854101905597946
 20
5.686234949900044
 10
4.855892803141017
 20
5.688921976130184
 10
4.85768370068412
 20
5.691311199352089
 10
4.859773761066588
 20
5.69369770291177
 10
4.861862461617953
 20
5.695489960285926
 10
4.864549487848115
 20
5.697280857829
 10
4.864847290856435
 20
5.697578660837307
 10
4.865146453695405
 20
5.697877823676376
 10
4.865445616535218
 20
5.698175626685002
 10
4.866042582382906
 20
5.698175626685002
 10
4.866340385391207
 20
5.698175626685002
 10
4.866639548230601
 20
5.698474789524397
 10
4.86693735123891
 20
5.698474789524397
 10
4.867236514078296
 20
5.698474789524397
 10
4.867534317086597
 20
5.698474789524397
 10
4.868131282934285
 20
5.698474789524397
 10
4.868430445773686
 20
5.698772592532703
 10
4.868728248781987
 20
5.698772592532697
 10
4.869325214629679
 20
5.698772592532697
 10
4.869624377469065
 20
5.699071755372086
 10
4.87022134331676
 20
5.699369558380393
 10
4.874997070098366
 20
5.699071755372098
 10
4.877087130480788
 20
5.698772592532697
 10
4.879175831032117
 20
5.698474789524403
 10
4.88126589141466
 20
5.697877823676719
 10
4.883355951797177
 20
5.69698169498963
 10
4.885146849340195
 20
5.696085566302533
 10
4.886937746883276
 20
5.695190797446538
 10
4.888728644426358
 20
5.694294668759435
 10
4.89051954196946
 20
5.693100737064063
 10
4.89201263650419
 20
5.691609002360389
 10
4.893803534047297
 20
5.690415070664993
 10
4.895296628582073
 20
5.688921976130208
 10
4.896789723116853
 20
5.687428881595429
 10
4.898281457820544
 20
5.685937146891743
 10
4.900072355363626
 20
5.684444052356957
 10
4.900072355363626
 20
5.68504101820466
 10
4.900072355363626
 20
5.685340181044048
 10
4.900072355363626
 20
5.685637984052348
 10
4.900072355363626
 20
5.685937146891743
 10
4.900072355363626
 20
5.686534112739439
 10
4.900072355363626
 20
5.686833275578827
 10
4.900072355363626
 20
5.687131078587127
 10
4.900371518203012
 20
5.687428881595429
 10
4.900371518203009
 20
5.687728044434817
 10
4.900669321211314
 20
5.688025847443124
 10
4.900968484050711
 20
5.688325010282518
 10
4.901266287059009
 20
5.688325010282518
 10
4.901863252906704
 20
5.688624173121913
 10
4.902460218754395
 20
5.688325010282512
 10
4.903058544433179
 20
5.688325010282518
 10
4.90335634744148
 20
5.688325010282518
 10
4.903953313289175
 20
5.688325010282518
 10
4.904251116297473
 20
5.688325010282518
 10
4.904849441976256
 20
5.688325010282518
 10
4.905147244984565
 20
5.688325010282518
 10
4.905744210832253
 20
5.688325010282518
 10
4.906043373671643
 20
5.688325010282518
 10
4.906341176679944
 20
5.688325010282518
 10
4.906938142527643
 20
5.688325010282518
 10
4.907237305367033
 20
5.688325010282518
 10
4.907535108374801
 20
5.688624173121394
 10
4.907834271214234
 20
5.688921976129591
 10
4.908133434054121
 20
5.689221138969609
 10
4.905147244984551
 20
5.690712873673281
 10
4.904251116297487
 20
5.691906805368696
 10
4.903655510280859
 20
5.693100737064093
 10
4.902759381593789
 20
5.69459383159883
 10
4.902460218754402
 20
5.695787763294227
 10
4.901863252906693
 20
5.697280857829031
 10
4.901565449898409
 20
5.698772592532722
 10
4.900968484050711
 20
5.700265687067495
 10
4.900669321211314
 20
5.70175742177115
 10
4.900072355363608
 20
5.703250516305911
 10
4.899475389515924
 20
5.704444448001332
 10
4.898878423668229
 20
5.705638379696728
 10
4.897983654812232
 20
5.706833671223201
 10
4.896789723116853
 20
5.707728440079191
 10
4.89559443159035
 20
5.708624568766281
 10
4.894997465742687
 20
5.708922371774575
 10
4.894699662734378
 20
5.708922371774582
 10
4.894400499894985
 20
5.709221534613964
 10
4.894102696886683
 20
5.709221534613964
 10
4.89380353404729
 20
5.709221534613964
 10
4.893505731039002
 20
5.709519337622271
 10
4.893206568199602
 20
5.709519337622271
 10
4.892908765191304
 20
5.709519337622277
 10
4.89260960235191
 20
5.709817140630578
 10
4.892012636504215
 20
5.709817140630572
 10
4.891714833495914
 20
5.709817140630572
 10
4.89141567065652
 20
5.709817140630572
 10
4.890818704808825
 20
5.709817140630572
 10
4.890519541969435
 20
5.709817140630566
 10
4.890221738961134
 20
5.71011630346996
 10
4.888133038409719
 20
5.710415466309355
 10
4.88723690972267
 20
5.710415466309355
 10
4.886340781033279
 20
5.710713269317807
 10
4.885446012179603
 20
5.711012432157044
 10
4.884549883492478
 20
5.711609398004745
 10
4.883655114636493
 20
5.711907201013058
 10
4.883058148788798
 20
5.712504166860748
 10
4.882162020101748
 20
5.713101132708425
 10
4.881565054254036
 20
5.713400295547837
 10
4.880968088406341
 20
5.714295064403834
 10
4.880371122554599
 20
5.714893390083994
 10
4.879774156710944
 20
5.715490355930288
 10
4.87917583103216
 20
5.716385124786302
 10
4.878878028023866
 20
5.717281253473374
 10
4.878580225015564
 20
5.71817602232937
 10
4.885146849340191
 20
5.732505922336185
 10
4.885446012179862
 20
5.732803725345115
 10
4.885743815187691
 20
5.733102888183379
 10
4.886042978028246
 20
5.733400691192792
 10
4.886340781035581
 20
5.733698494200495
 10
4.886639943874964
 20
5.733997657039877
 10
4.888133038409755
 20
5.736385520430676
 10
4.889027807265744
 20
5.737579452126043
 10
4.889922576121733
 20
5.738774743652515
 10
4.890519541969432
 20
5.739967315516812
 10
4.891415670656503
 20
5.740863444203896
 10
4.892311799343591
 20
5.742057375899281
 10
4.893206568199602
 20
5.74295350458637
 10
4.893803534047297
 20
5.744147436281761
 10
4.894699662734378
 20
5.745042205137763
 10
4.89529662858207
 20
5.746236136833148
 10
4.896191397438066
 20
5.747430068528532
 10
4.896789723116853
 20
5.748625360055011
 10
4.89738668896452
 20
5.749819291750347
 10
4.897983654812232
 20
5.751312386285175
 10
4.898878423668236
 20
5.75280412098886
 10
4.89649056027747
 20
5.760863839848258
 10
4.894699662734343
 20
5.764446994765548
 10
4.89260960235191
 20
5.768028789851678
 10
4.890221738961209
 20
5.771013619090136
 10
4.887534712731024
 20
5.773998448328517
 10
4.884549883492471
 20
5.776984637398208
 10
4.881565054254032
 20
5.779670303797254
 10
4.878580225015657
 20
5.782357330027424
 10
4.875296232937749
 20
5.785044356257581
 10
4.872311403699235
 20
5.787730022656663
 10
4.869325214629629
 20
5.790417048886803
 10
4.866340385391207
 20
5.793401878125298
 10
4.863355556152743
 20
5.796388067194898
 10
4.860967692761978
 20
5.799372896433297
 10
4.858877632379485
 20
5.802954691519481
 10
4.858578469540109
 20
5.802954691519481
 10
4.858280666531808
 20
5.802954691519487
 10
4.865445616535204
 20
5.782058167188023
 10
4.86425032500874
 20
5.781461201340327
 10
4.863653359161048
 20
5.781461201340333
 10
4.863355556152747
 20
5.781461201340333
 10
4.863057753144435
 20
5.781461201340333
 10
4.862459427465648
 20
5.781760364179728
 10
4.862161624457357
 20
5.782058167188028
 10
4.861862461617963
 20
5.782357330027418
 10
4.861265495770279
 20
5.782357330027424
 10
4.860967692761906
 20
5.782656492867434
 10
4.860668529922566
 20
5.782954295875131
 10
4.860071564074882
 20
5.783252098883425
 10
4.859773761066577
 20
5.783252098883419
 10
4.859474598227201
 20
5.783551261722808
 10
4.858877632379499
 20
5.783551261722808
 10
4.858578469540105
 20
5.783551261722808
 10
4.863355556152747
 20
5.76981968739477
 10
4.862459427465658
 20
5.769520524555369
 10
4.862161624457357
 20
5.769520524555381
 10
4.861862461617956
 20
5.76981968739477
 10
4.861564658609669
 20
5.769819687394776
 10
4.861265495770268
 20
5.77011749040307
 10
4.860967692761974
 20
5.77011749040307
 10
4.860668529922577
 20
5.770416653242465
 10
4.860370726914279
 20
5.770416653242453
 10
4.860071564074882
 20
5.770715816081842
 10
4.859773761066584
 20
5.770715816081848
 10
4.859474598227187
 20
5.770715816081848
 10
4.8591754353878
 20
5.771013619090148
 10
4.858877632379499
 20
5.770715816081848
 10
4.858578469540109
 20
5.770715816081848
 10
4.858280666531808
 20
5.770715816081848
 10
4.863653359161048
 20
5.756385916075032
 10
4.862459427465658
 20
5.755191984379641
 10
4.862393748467219
 20
5.755126305381202
 10
4.856190606149329
 20
5.759072942305196
 10
4.855892803141028
 20
5.758775139296889
 10
4.855593640301638
 20
5.758775139296889
 10
4.855593640301638
 20
5.758475976457507
 10
4.85529583729334
 20
5.758176813618113
 10
4.860668529922577
 20
5.746236136833154
 10
4.860370726914279
 20
5.74564053081654
 10
4.860370726914279
 20
5.745341367977158
 10
4.860071564074889
 20
5.745341367977158
 10
4.860071564074889
 20
5.745042205137763
 10
4.860071564074889
 20
5.744744402129456
 10
4.859474598227187
 20
5.744445239290056
 10
4.859175435387804
 20
5.744147436281774
 10
4.858877632379499
 20
5.744147436281767
 10
4.858578469540109
 20
5.744147436281767
 10
4.858280666531804
 20
5.744147436281767
 10
4.857982863523503
 20
5.744147436281767
 10
4.857683700684109
 20
5.744147436281767
 10
4.857384537844719
 20
5.744147436281767
 10
4.857086734836407
 20
5.744147436281761
 10
4.856787571997031
 20
5.743848273442373
 10
4.856489768988716
 20
5.743848273442373
 10
4.856489768988723
 20
5.743550470434066
 10
4.856190606149329
 20
5.743550470434072
 10
4.856190606149329
 20
5.743251307594677
 10
4.858280666531804
 20
5.739669512508523
 10
4.857982863523503
 20
5.739072546660822
 10
4.857683700684109
 20
5.739072546660822
 10
4.857683700684109
 20
5.738774743652522
 10
4.857683700684109
 20
5.738475580813132
 10
4.857384537844719
 20
5.738475580813132
 10
4.857384537844719
 20
5.738176417973738
 10
4.857384537844719
 20
5.737878614965425
 10
4.829623586180328
 20
5.754297215523652
 10
4.826339594102503
 20
5.758775139296884
 10
4.824846499567708
 20
5.761163002687647
 10
4.823055602024624
 20
5.763550866078428
 10
4.821563867320968
 20
5.766237892308562
 10
4.819771609946787
 20
5.768625755699343
 10
4.818279875243121
 20
5.771013619090064
 10
4.816488977700004
 20
5.773700645320264
 10
4.814698080156937
 20
5.776088508711021
 10
4.813204985622135
 20
5.778476372101839
 10
4.811414088079043
 20
5.780566432484373
 10
4.809623190535926
 20
5.782954295875131
 10
4.80783229299288
 20
5.785044356257587
 10
4.806041395449828
 20
5.787133056808896
 10
4.804249138075633
 20
5.788925314183118
 10
4.802757403371931
 20
5.79071621172621
 10
4.808130096001196
 20
5.777879406254173
 10
4.80783229299288
 20
5.777282440406478
 10
4.807533130153494
 20
5.777282440406472
 10
4.807533130153494
 20
5.776984637398178
 10
4.807533130153494
 20
5.776685474558789
 10
4.8072339673141
 20
5.776685474558783
 10
4.807233967314104
 20
5.776386311719394
 10
4.807233967314093
 20
5.776088508711088
 10
4.806637001466416
 20
5.775789345871705
 10
4.806339198458108
 20
5.775789345871705
 10
4.806041395449803
 20
5.775789345871699
 10
4.805742232610413
 20
5.775491542863398
 10
4.805443069771026
 20
5.775491542863404
 10
4.805145266762725
 20
5.77519238002401
 10
4.805145266762725
 20
5.774894577015709
 10
4.805145266762725
 20
5.773998448328619
 10
4.805145266762725
 20
5.773700645320318
 10
4.805443069771019
 20
5.773401482480918
 10
4.805443069771026
 20
5.773103679472623
 10
4.805742232610413
 20
5.77280451663324
 10
4.805742232610413
 20
5.772506713624921
 10
4.806041395449803
 20
5.772207550785545
 10
4.806041395449803
 20
5.77190838794615
 10
4.806339198458115
 20
5.77190838794615
 10
4.806339198458108
 20
5.77161058493785
 10
4.806339198458108
 20
5.771312781929543
 10
4.806339198458108
 20
5.771013619090155
 10
4.806339198458104
 20
5.770715816081854
 10
4.806041395450002
 20
5.770416653242501
 10
4.805742232610413
 20
5.770117490403077
 10
4.805443069771019
 20
5.77011749040307
 10
4.805443069771026
 20
5.76981968739477
 10
4.805145266762725
 20
5.76981968739477
 10
4.804846103923331
 20
5.76981968739477
 10
4.804548300915023
 20
5.76981968739477
 10
4.804249138075647
 20
5.76981968739477
 10
4.803652172227945
 20
5.769520524555376
 10
4.803652172227945
 20
5.76922272154708
 10
4.80335436921964
 20
5.769222721547074
 10
4.803354369219643
 20
5.768924918538767
 10
4.803354369219643
 20
5.768625755699379
 10
4.803354369219643
 20
5.768326592859991
 10
4.803354369219643
 20
5.768028789851684
 10
4.803354369219643
 20
5.767729627012295
 10
4.803055206380243
 20
5.767430464172907
 10
4.799174248454701
 20
5.7671326611646
 10
4.798876445446396
 20
5.766535695316904
 10
4.798876445446396
 20
5.766237892308604
 10
4.798876445446396
 20
5.765938729469215
 10
4.798876445446396
 20
5.765640926460909
 10
4.798876445446396
 20
5.76534176362152
 10
4.798577282607006
 20
5.765043960613219
 10
4.798577282607006
 20
5.764744797773825
 10
4.798279479598704
 20
5.764446994765524
 10
4.797980316759279
 20
5.764446994765524
 10
4.789025829043904
 20
5.76653569531691
 10
4.790219760739294
 20
5.763251703239046
 10
4.767830141873044
 20
5.766535695316917
 10
4.813801951469798
 20
5.745341367977158
 10
4.818577678251333
 20
5.742057375899311
 10
4.820667738633837
 20
5.740565641195631
 10
4.822757799016311
 20
5.738774743652522
 10
4.824846499567666
 20
5.73698384610946
 10
4.826637397110808
 20
5.734893785726948
 10
4.82872745749329
 20
5.733102888183875
 10
4.830518355036332
 20
5.731012827801412
 10
4.832309252579371
 20
5.728922767418962
 10
4.833802347114144
 20
5.726834066867618
 10
4.835593244657296
 20
5.72474400648504
 10
4.837086339192051
 20
5.72265394610262
 10
4.838578073895682
 20
5.720565245551185
 10
4.840071168430544
 20
5.718774348008129
 10
4.841564262965313
 20
5.71668428762566
 97
        0
 75
     0
 76
     1
 47
0.0002325663910684
 98
        1
 10
4.860330146867649
 20
5.719417199984022
  0
HATCH
  5
18D
330
2
100
AcDbEntity
  8
IMAGE
100
AcDbHatch
 10
0.0
 20
0.0
 30
0.0
210
0.0
220
0.0
230
1.0
  2
SOLID
 70
     1
 71
     0
 91
        1
 92
        7
 72
     0
 73
     1
 93
       69
 10
4.717679571342451
 20
5.704146644993025
 10
4.717978734181833
 20
5.703847482153636
 10
4.718277897021234
 20
5.703847482153636
 10
4.718575700029532
 20
5.703847482153642
 10
4.718575700029532
 20
5.703549679145342
 10
4.718874862868922
 20
5.703549679145336
 10
4.718874862868922
 20
5.703250516305941
 10
4.719172665877223
 20
5.703250516305947
 10
4.719172665877223
 20
5.702952713297634
 10
4.719470468885525
 20
5.702952713297641
 10
4.719470468885528
 20
5.702653550458252
 10
4.719769631724918
 20
5.702653550458252
 10
4.723650589650471
 20
5.666234554255682
 10
4.746038848685611
 20
5.666533717095064
 10
4.764248346786921
 20
5.700564849906902
 10
4.78454790527066
 20
5.741460410051604
 10
4.762158286404417
 20
5.741460410051598
 10
4.760069585853049
 20
5.739072546660834
 10
4.759173457165971
 20
5.73787861496545
 10
4.758576491318269
 20
5.736684683270059
 10
4.75768172246228
 20
5.735490751574681
 10
4.757083396783489
 20
5.734296819879271
 10
4.756486430935801
 20
5.733102888183899
 10
4.755591662079797
 20
5.731907596657414
 10
4.75499469623211
 20
5.730415861953735
 10
4.754397730384408
 20
5.729221930258332
 10
4.753800764536705
 20
5.728026638731842
 10
4.753203798689018
 20
5.726534904028174
 10
4.75230767000195
 20
5.725041809493413
 10
4.75171070415427
 20
5.723847877798047
 10
4.750815935298238
 20
5.722356143094289
 10
4.75021896945056
 20
5.721162211398922
 10
4.749322840763458
 20
5.719669116864119
 10
4.749023677923513
 20
5.719072151015282
 10
4.748725874915781
 20
5.718475185168765
 10
4.748128909068089
 20
5.717878219321081
 10
4.747829746229413
 20
5.717281253474776
 10
4.747531943219385
 20
5.716684287623656
 10
4.747232780381111
 20
5.716087321778388
 10
4.746934977372507
 20
5.715490355929968
 10
4.74663581453295
 20
5.714893390081844
 10
4.746338011524997
 20
5.714295064403821
 10
4.746038848685611
 20
5.713400295547826
 10
4.745741045677309
 20
5.712803329700136
 10
4.745441882837919
 20
5.711907201013047
 10
4.745144079829621
 20
5.71101243215705
 10
4.745144079829621
 20
5.710415466309355
 10
4.744545754150831
 20
5.709519337622271
 10
4.744247951141915
 20
5.709221534614297
 10
4.743950148134224
 20
5.70892237177457
 10
4.743650985294834
 20
5.708325405926887
 10
4.743351822455441
 20
5.708026243087492
 10
4.743054019447139
 20
5.707429277239796
 10
4.742754856606868
 20
5.707131474229986
 10
4.742457053599451
 20
5.706833671223195
 10
4.742157890758285
 20
5.706534508382653
 10
4.741710506332225
 20
5.706085081104371
 10
4.741263121904072
 20
5.706534508383812
 10
4.740963959064671
 20
5.706534508383801
 10
4.74066615605637
 20
5.707131474231496
 10
4.74066615605637
 20
5.707728440079221
 10
4.736486035291434
 20
5.741460410051591
 10
4.712903844560894
 20
5.741460410051598
 10
4.712606041552593
 20
5.741460410051598
 10
4.712306878713203
 20
5.741460410051598
 10
4.712007715873816
 20
5.741460410051598
 10
4.711709912865515
 20
5.741460410051598
 10
4.675887882510629
 20
5.66623455425567
 10
4.698575304385165
 20
5.66653371709507
 97
        0
 75
     0
 76
     1
 47
0.000561511643593
 98
        1
 10
4.717536473986733
 20
5.71570903737012
  0
HATCH
  5
18E
330
2
100
AcDbEntity
  8
IMAGE
100
AcDbHatch
 10
0.0
 20
0.0
 30
0.0
210
0.0
220
0.0
230
1.0
  2
SOLID
 70
     1
 71
     0
 91
        1
 92
        7
 72
     0
 73
     1
 93
       37
 10
4.695291312307308
 20
5.741460410051604
 10
4.672605250263856
 20
5.741460410051598
 10
4.672306087424466
 20
5.741460410051598
 10
4.67200692458508
 20
5.741460410051598
 10
4.671709121576771
 20
5.741460410051598
 10
4.671409958737378
 20
5.741460410051598
 10
4.668425129498924
 20
5.736087717422358
 10
4.667231197803552
 20
5.733400691192236
 10
4.665738103268761
 20
5.730713664962048
 10
4.664544171573371
 20
5.728325801571267
 10
4.663052436869691
 20
5.725640135172203
 10
4.661858505174311
 20
5.722953108942063
 10
4.660663213647787
 20
5.720565245551179
 10
4.659171478944131
 20
5.717878219321094
 10
4.657977547248741
 20
5.715191193090918
 10
4.656484452713911
 20
5.712504166860669
 10
4.655290521018596
 20
5.71011630347002
 10
4.653797426483791
 20
5.707429277239796
 10
4.652603494788426
 20
5.704743610840757
 10
4.651111760084738
 20
5.702056584610605
 10
4.649917828389323
 20
5.699668721219787
 10
4.648126930846249
 20
5.695190797446538
 10
4.64723080215916
 20
5.692802934055762
 10
4.64603687046377
 20
5.690712873673294
 10
4.645140741776678
 20
5.688624173121907
 10
4.643946810081303
 20
5.686534112739439
 10
4.642752878385923
 20
5.684743215196364
 10
4.641558946690526
 20
5.682653154813884
 10
4.640365014995143
 20
5.680563094431409
 10
4.639171083299746
 20
5.67847439388001
 10
4.638274954612686
 20
5.676683496336985
 10
4.637081022917282
 20
5.67459343595448
 10
4.636484057069587
 20
5.672503375572
 10
4.635887091221892
 20
5.670414675020619
 10
4.635290125374197
 20
5.668324614638151
 10
4.635290125374201
 20
5.666234554255676
 10
4.658275350257028
 20
5.666234554255676
 97
        0
 75
     0
 76
     1
 47
0.000561511643593
 98
        1
 10
4.674564257269782
 20
5.718572745401236
  0
HATCH
  5
18F
330
2
100
AcDbEntity
  8
IMAGE
100
AcDbHatch
 10
0.0
 20
0.0
 30
0.0
210
0.0
220
0.0
230
1.0
  2
SOLID
 70
     1
 71
     0
 91
        2
 92
        7
 72
     0
 73
     1
 93
       59
 10
4.608721745574115
 20
5.741460410051598
 10
4.608423942565817
 20
5.741460410051598
 10
4.547825789785022
 20
5.666234554255676
 10
4.573498040898019
 20
5.666234554255676
 10
4.574392809754009
 20
5.666831520103377
 10
4.574691972593409
 20
5.667130682942766
 10
4.575288938441097
 20
5.667428485951054
 10
4.575586741449399
 20
5.667727648790449
 10
4.575885904288782
 20
5.668324614638144
 10
4.576183707296706
 20
5.668623777477189
 10
4.576780673144345
 20
5.669220743324811
 10
4.577079835984172
 20
5.669518546333535
 10
4.577378998823569
 20
5.67011551218123
 10
4.577676801831866
 20
5.670414675020601
 10
4.577975964671264
 20
5.671011640868314
 10
4.578273767679558
 20
5.671309443876609
 10
4.578571570687412
 20
5.671906409723429
 10
4.578870733527256
 20
5.672503375571993
 10
4.579467699374934
 20
5.673100341419653
 10
4.582154725605118
 20
5.675489564641564
 10
4.583646460308795
 20
5.676384333497548
 10
4.585139554843607
 20
5.676981299345255
 10
4.586930452386727
 20
5.677578265192956
 10
4.588721349929748
 20
5.677877428032333
 10
4.59051360730394
 20
5.678175231040634
 10
4.592304504846996
 20
5.678175231040634
 10
4.594095402390077
 20
5.678175231040634
 10
4.595886299933138
 20
5.678175231040634
 10
4.59767719747623
 20
5.677877428032333
 10
4.599767257858712
 20
5.677877428032333
 10
4.601558155401772
 20
5.677877428032333
 10
4.603349052944828
 20
5.677578265192945
 10
4.605139950487949
 20
5.677578265192945
 10
4.607230010870424
 20
5.677877428032333
 10
4.607230010870424
 20
5.677578265192945
 10
4.607230010870424
 20
5.677280462184638
 10
4.607529173709814
 20
5.676981299345237
 10
4.607529173709814
 20
5.676683496336949
 10
4.607826976718115
 20
5.676683496336949
 10
4.607826976718115
 20
5.676384333497554
 10
4.607826976718115
 20
5.67608517065816
 10
4.608124779726413
 20
5.67608517065816
 10
4.607529173709838
 20
5.674593435954505
 10
4.607230010870424
 20
5.673996470106779
 10
4.606930848031037
 20
5.673399504259101
 10
4.606633045022729
 20
5.672503375572
 10
4.60633388218406
 20
5.671906409725663
 10
4.606036079175034
 20
5.671309443876615
 10
4.606036079175034
 20
5.67071247802892
 10
4.605736916335647
 20
5.66981634934183
 10
4.605736916335647
 20
5.669220743325234
 10
4.605736916335647
 20
5.668623777477539
 10
4.605736916335647
 20
5.668025451798755
 10
4.605736916335647
 20
5.667428485951054
 10
4.606036079175034
 20
5.666831520103377
 10
4.606633045020743
 20
5.666533717095632
 10
4.607230010870413
 20
5.66623455425567
 10
4.628424338210177
 20
5.666831520103365
 10
4.642155912538214
 20
5.741460410051598
 97
        0
 92
       22
 72
     0
 73
     1
 93
       17
 10
4.614990566890444
 20
5.713997261395527
 10
4.611707934643664
 20
5.697578660837301
 10
4.611110968795973
 20
5.696981694989624
 10
4.610514002948278
 20
5.696683891981317
 10
4.610214840108884
 20
5.696683891981317
 10
4.609617874261207
 20
5.696384729141922
 10
4.609020908413505
 20
5.696384729141922
 10
4.608423942565817
 20
5.696384729141922
 10
4.607826976718115
 20
5.696384729141922
 10
4.607230010870424
 20
5.696384729141922
 10
4.606633045022729
 20
5.696384729141922
 10
4.606036079175034
 20
5.696384729141922
 10
4.605439113327346
 20
5.696384729141922
 10
4.604542984640254
 20
5.696384729141922
 10
4.603946018792566
 20
5.696384729141922
 10
4.603349052944871
 20
5.696384729141922
 10
4.602155121249484
 20
5.696384729141922
 97
        0
 75
     0
 76
     1
 47
0.000561511643593
 98
        2
 10
4.615835562501036
 20
5.728118444678998
 10
4.615835562501036
 20
5.728118444678998
  0
HATCH
  5
190
330
2
100
AcDbEntity
  8
IMAGE
100
AcDbHatch
 10
0.0
 20
0.0
 30
0.0
210
0.0
220
0.0
230
1.0
  2
SOLID
 70
     1
 71
     0
 91
        2
 92
        7
 72
     0
 73
     1
 93
      126
 10
4.556780277500429
 20
5.768326592859991
 10
4.553198482414178
 20
5.768924918538774
 10
4.549616687328089
 20
5.769222721547074
 10
4.54603489224192
 20
5.769520524555376
 10
4.542451737324682
 20
5.769520524555376
 10
4.538869942238559
 20
5.769520524555376
 10
4.53498898431301
 20
5.769222721547074
 10
4.531407189226719
 20
5.769222721547074
 10
4.527526231301205
 20
5.768924918538767
 10
4.523944436215106
 20
5.768924918538767
 10
4.520362641128908
 20
5.768625755699379
 10
4.517078649051075
 20
5.768924918538767
 10
4.513794656973193
 20
5.76922272154708
 10
4.513495494133827
 20
5.769222721547074
 10
4.513197691125519
 20
5.769222721547074
 10
4.510510664895409
 20
5.765938729469257
 10
4.509316733199948
 20
5.764446994765505
 10
4.508122801504569
 20
5.762654737391338
 10
4.507228032648583
 20
5.761163002687658
 10
4.506331903961495
 20
5.759372105144585
 10
4.505435775274417
 20
5.757579847770417
 10
4.504541006418403
 20
5.755788950227307
 10
4.503644877731343
 20
5.753700249675962
 10
4.502750108875336
 20
5.751907992301783
 10
4.501853980188258
 20
5.750117094758702
 10
4.50095785150118
 20
5.748326197215635
 10
4.500063082645176
 20
5.746236136833166
 10
4.499166953958088
 20
5.744445239290074
 10
4.497973022262719
 20
5.742654341747019
 10
4.497078253406705
 20
5.740863444203908
 10
4.492301166794067
 20
5.731311990640807
 10
4.489913303403341
 20
5.726534904028259
 10
4.487525440012483
 20
5.722056980254852
 10
4.485137576621774
 20
5.717281253473428
 10
4.482450550391572
 20
5.712504166860729
 10
4.480062687000785
 20
5.707728440079161
 10
4.47737566077064
 20
5.703250516305947
 10
4.474987797379863
 20
5.698474789524397
 10
4.472599933989101
 20
5.693697702911794
 10
4.470509873606619
 20
5.68922113896962
 10
4.468122010215839
 20
5.684444052356964
 10
4.466331112672783
 20
5.679966128583762
 10
4.464540215129691
 20
5.675190401802193
 10
4.462749317586599
 20
5.670712478028931
 10
4.461554026060131
 20
5.66623455425567
 10
4.489017174716209
 20
5.666831520103377
 10
4.507823638665186
 20
5.700862652915172
 10
4.519466512441844
 20
5.666234554255676
 10
4.542750900164072
 20
5.666831520103371
 10
4.54185477147698
 20
5.668623777477539
 10
4.541556968468679
 20
5.669518546333529
 10
4.541257805629292
 20
5.67071247802892
 10
4.541257805629292
 20
5.671608606715998
 10
4.54096000262098
 20
5.672802538411448
 10
4.540660839782411
 20
5.673697307264442
 10
4.540363036773289
 20
5.674593435954505
 10
4.540063873933906
 20
5.675787367649871
 10
4.540063873933902
 20
5.676683496336949
 10
4.539766070925612
 20
5.677877428032303
 10
4.539466908086211
 20
5.67877219688833
 10
4.539167745247027
 20
5.679666965743915
 10
4.538869942239532
 20
5.680563094430292
 10
4.538570779399133
 20
5.681459223118499
 10
4.538570779399133
 20
5.682653154813878
 10
4.537973813551445
 20
5.685340181044048
 10
4.537376847703743
 20
5.686833275578827
 10
4.536779881856048
 20
5.688325010282518
 10
4.536182916008353
 20
5.68981674498621
 10
4.535885113000063
 20
5.691311199352077
 10
4.535288147152364
 20
5.692802934055762
 10
4.534691181304662
 20
5.694294668759448
 10
4.534392018465261
 20
5.695787763294215
 10
4.53409421545696
 20
5.696981694989624
 10
4.533795052617584
 20
5.698474789524397
 10
4.533795052617584
 20
5.699668721219775
 10
4.53409421545691
 20
5.700862652915444
 10
4.534392018465279
 20
5.702056584610563
 10
4.534988984312963
 20
5.702952713297641
 10
4.536182916008357
 20
5.704146644993025
 10
4.537676010543133
 20
5.704146644993025
 10
4.538570779399133
 20
5.704146644993025
 10
4.539466908086225
 20
5.704146644993025
 10
4.540363036773289
 20
5.704444448001332
 10
4.541257805629285
 20
5.704444448001332
 10
4.542153934316381
 20
5.70474361084072
 10
4.543048703172377
 20
5.705041413849027
 10
4.543944831859413
 20
5.705340576688391
 10
4.545138763554888
 20
5.705638379696734
 10
4.54603489224193
 20
5.705937542536111
 10
4.546929661097934
 20
5.706235345544412
 10
4.547825789785047
 20
5.706534508383795
 10
4.549019721480426
 20
5.706833671223201
 10
4.54991449033638
 20
5.707131474231496
 10
4.55110842203166
 20
5.707728440079167
 10
4.554989379957373
 20
5.709519337622301
 10
4.557079440339798
 20
5.710713269317643
 10
4.55887033788289
 20
5.711907201013047
 10
4.560661235425982
 20
5.713101132708437
 10
4.562452132969063
 20
5.71459422724321
 10
4.563945227503818
 20
5.716087321777996
 10
4.56573612504691
 20
5.717579056481668
 10
4.566930056742275
 20
5.71936995402473
 10
4.568423151277073
 20
5.721162211398929
 10
4.56961708297246
 20
5.72325091195031
 10
4.57081101466785
 20
5.725340972332784
 10
4.571705783523846
 20
5.727429672884165
 10
4.572601912210927
 20
5.72981753627494
 10
4.573498040898019
 20
5.732206759496815
 10
4.574095006745707
 20
5.734893785727009
 10
4.57469197259342
 20
5.738176417973925
 10
4.574989775601704
 20
5.739967315516824
 10
4.575288938441097
 20
5.741758213059898
 10
4.575288938441097
 20
5.743550470434072
 10
4.575288938441097
 20
5.745341367977152
 10
4.575288938441097
 20
5.74713226552022
 10
4.574989775601704
 20
5.7489245228944
 10
4.574691972593402
 20
5.750714060606392
 10
4.574392809754009
 20
5.752506317980565
 10
4.573795843906321
 20
5.754297215523646
 10
4.573198878058619
 20
5.756088113066719
 10
4.572304109202629
 20
5.757579847770417
 10
4.571407980515537
 20
5.759072942305178
 10
4.570214048820172
 20
5.760863839848378
 10
4.569317920133077
 20
5.762356934383049
 10
4.563348261656127
 20
5.765938729469222
 10
4.56006426957828
 20
5.7671326611646
 97
        0
 92
       22
 72
     0
 73
     1
 93
       57
 10
4.545437926394242
 20
5.745341367977152
 10
4.546034892241941
 20
5.744744402129438
 10
4.547526626945622
 20
5.743550470434072
 10
4.54722882393732
 20
5.734594622887578
 10
4.54603489224192
 20
5.733102888183869
 10
4.544839600715459
 20
5.731907596657414
 10
4.543645669020072
 20
5.730713664962023
 10
4.542451737324689
 20
5.729519733266645
 10
4.541257805629292
 20
5.728624964410643
 10
4.539766070924116
 20
5.727728835722901
 10
4.538272976390832
 20
5.726834066867563
 10
4.536482078847765
 20
5.72623574118881
 10
4.534988984312974
 20
5.725640135172178
 10
4.53319808676991
 20
5.725340972332796
 10
4.531407189226815
 20
5.724744006485082
 10
4.529616291683723
 20
5.7244448436457
 10
4.527824034309553
 20
5.7244448436457
 10
4.526033136766486
 20
5.7244448436457
 10
4.522451341680316
 20
5.724744006485095
 10
4.521854375832624
 20
5.725640135172178
 10
4.521854375832624
 20
5.726834066867563
 10
4.521854375832624
 20
5.727728835723565
 10
4.522153538672014
 20
5.728922767418944
 10
4.522451341680316
 20
5.730415861953723
 10
4.523048307528004
 20
5.731609793649114
 10
4.523645273375691
 20
5.732803725344492
 10
4.524541402062784
 20
5.734296819879271
 10
4.525138367910479
 20
5.735490751574662
 10
4.526033136766486
 20
5.736684683270053
 10
4.526929265453563
 20
5.738176417973744
 10
4.527526231301255
 20
5.739370349669123
 10
4.528422359988333
 20
5.740863444203896
 10
4.529019325836031
 20
5.742057375899292
 10
4.530511060539723
 20
5.744744402129462
 10
4.530810223379113
 20
5.745042205137763
 10
4.530810223379113
 20
5.745341367977158
 10
4.531108026387414
 20
5.74564053081654
 10
4.531108026387414
 20
5.745938333824853
 10
4.531407189226801
 20
5.746236136833154
 10
4.531407189226801
 20
5.746535299672537
 10
4.531704992235109
 20
5.746834462511931
 10
4.531704992235102
 20
5.747132265520232
 10
4.532004155074503
 20
5.747132265520232
 10
4.532303317913893
 20
5.747132265520232
 10
4.533198086769893
 20
5.747430068528532
 10
4.53409421545697
 20
5.747430068528532
 10
4.534988984312967
 20
5.747430068528532
 10
4.535885113000052
 20
5.747430068528532
 10
4.536779881856048
 20
5.747430068528532
 10
4.537973813551431
 20
5.747430068528538
 10
4.538869942238509
 20
5.747132265520232
 10
4.539766070925605
 20
5.747132265520232
 10
4.540960002621002
 20
5.747132265520225
 10
4.541854771476995
 20
5.746834462511931
 10
4.542750900164072
 20
5.746535299672537
 10
4.543645669019745
 20
5.746236136832562
 10
4.544541797707164
 20
5.745938333824841
 97
        0
 75
     0
 76
     1
 47
0.000561511643593
 98
        2
 10
4.555674450630839
 20
5.756278251999722
 10
4.555674450630839
 20
5.756278251999722
  0
LWPOLYLINE
  5
191
102
{ACAD_REACTORS
330
19F
102
}
330
2
100
AcDbEntity
  8
IMAGE
100
AcDbPolyline
 90
       52
 70
     1
 43
0.0
 10
5.172318698195844
 20
5.721757817415536
 10
5.181572348750638
 20
5.720565245551234
 10
5.182169314598333
 20
5.71966911686415
 10
5.182467117606634
 20
5.719072151016454
 10
5.183064083454329
 20
5.718176022329376
 10
5.183363246293726
 20
5.717281253473374
 10
5.183363246293726
 20
5.71638512478629
 10
5.183662409133113
 20
5.715490355930294
 10
5.183662409133113
 20
5.71459422724321
 10
5.183662409133113
 20
5.713400295547826
 10
5.183662409133113
 20
5.712504166860735
 10
5.183662409133113
 20
5.711311594996439
 10
5.183662409133113
 20
5.710415466309355
 10
5.183662409133113
 20
5.709519337622271
 10
5.183363246293726
 20
5.708325405926887
 10
5.183363246293726
 20
5.707429277239796
 10
5.183363246293726
 20
5.705638379696717
 10
5.182766280446024
 20
5.70474361084072
 10
5.182467117606634
 20
5.703847482153636
 10
5.182169314598333
 20
5.702952713297641
 10
5.181870151758946
 20
5.702355747449945
 10
5.181572348750638
 20
5.701459618762862
 10
5.181273185911251
 20
5.700862652915172
 10
5.180975382902943
 20
5.699966524228088
 10
5.180676220063556
 20
5.699369558380393
 10
5.180378417055255
 20
5.698772592532697
 10
5.180079254215865
 20
5.698175626685002
 10
5.17978145120756
 20
5.697280857829006
 10
5.179482288368163
 20
5.696683891981317
 10
5.179184485359865
 20
5.696085566302533
 10
5.178885322520475
 20
5.695489960285926
 10
5.17828835667278
 20
5.694593831598842
 10
5.177094424977394
 20
5.693100737064069
 10
5.176198296290305
 20
5.691609002360378
 10
5.175004364594922
 20
5.690415070664987
 10
5.173810432899536
 20
5.689221138969602
 10
5.172616501204146
 20
5.688325010282518
 10
5.171123406669366
 20
5.687131078587127
 10
5.169929474973987
 20
5.686234949900044
 10
5.168437740270295
 20
5.685637984052348
 10
5.166944645735515
 20
5.684743215196353
 10
5.165153748192437
 20
5.684146249348657
 10
5.163662013488746
 20
5.683847086509269
 10
5.161869756114576
 20
5.683549283500968
 10
5.160078858571498
 20
5.683250120661573
 10
5.158287961028413
 20
5.683250120661573
 10
5.154706165942251
 20
5.683847086509269
 10
5.171123406669366
 20
5.721460014407229
 10
5.171422569508759
 20
5.721460014407229
 10
5.171721732348157
 20
5.721460014407229
 10
5.172019535356454
 20
5.721460014407229
 10
5.172318698195844
 20
5.721757817415536
  0
LWPOLYLINE
  5
193
330
2
100
AcDbEntity
  8
IMAGE
100
AcDbPolyline
 90
       76
 70
     1
 43
0.0
 10
5.098584577103615
 20
5.723847877798005
 10
5.098883739943001
 20
5.723550074789704
 10
5.099181542951303
 20
5.723550074789704
 10
5.099480705790693
 20
5.723550074789704
 10
5.099778508798998
 20
5.723550074789704
 10
5.100077671638395
 20
5.723550074789704
 10
5.100674637486083
 20
5.723550074789704
 10
5.100973800325473
 20
5.723550074789704
 10
5.101271603333778
 20
5.72325091195031
 10
5.101570766173168
 20
5.72325091195031
 10
5.101868569181473
 20
5.72325091195031
 10
5.102465535029164
 20
5.722953108942008
 10
5.102764697868551
 20
5.722953108942008
 10
5.103062500876859
 20
5.72265394610262
 10
5.103361663716253
 20
5.722356143094313
 10
5.104256432572242
 20
5.722056980254925
 10
5.104256432572242
 20
5.720863048559534
 10
5.104256432572242
 20
5.719966919872456
 10
5.104256432572242
 20
5.71936995402476
 10
5.10395862956394
 20
5.718475185168765
 10
5.10395862956394
 20
5.717579056481675
 10
5.103659466724554
 20
5.716983450465074
 10
5.103062500876859
 20
5.716087321777989
 10
5.102764697868551
 20
5.715490355930294
 10
5.102167732020863
 20
5.71459422724321
 10
5.101868569181473
 20
5.713997261395515
 10
5.101271603333778
 20
5.713400295547826
 10
5.100674637486083
 20
5.71280332970013
 10
5.100077671638395
 20
5.712206363852435
 10
5.099480705790693
 20
5.711609398004745
 10
5.098584577103615
 20
5.710415466309355
 10
5.097689808247611
 20
5.709817140630572
 10
5.097092842399923
 20
5.709221534613964
 10
5.096495876552229
 20
5.708922371774575
 10
5.095599747865144
 20
5.708624568766275
 10
5.095002782017456
 20
5.708325405926887
 10
5.094106653330364
 20
5.708026243087492
 10
5.093511047313764
 20
5.707728440079191
 10
5.092912721634974
 20
5.707728440079191
 10
5.092017952778984
 20
5.707429277239796
 10
5.091420986931289
 20
5.707429277239796
 10
5.090524858244204
 20
5.707429277239796
 10
5.089927892396509
 20
5.707429277239796
 10
5.089031763709424
 20
5.707429277239796
 10
5.088436157692825
 20
5.707429277239796
 10
5.087240866166347
 20
5.707429277239796
 10
5.086346097310343
 20
5.707429277239796
 10
5.086046934470953
 20
5.707728440079191
 10
5.085749131462655
 20
5.708026243087492
 10
5.085449968623265
 20
5.708325405926887
 10
5.085152165614964
 20
5.708922371774575
 10
5.085152165614964
 20
5.709221534613964
 10
5.085449968623265
 20
5.709817140630572
 10
5.085449968623265
 20
5.710415466309355
 10
5.085749131462655
 20
5.71101243215705
 10
5.085749131462655
 20
5.711609398004745
 10
5.086046934470953
 20
5.712206363852435
 10
5.086346097310343
 20
5.71280332970013
 10
5.086645260149737
 20
5.713400295547826
 10
5.086943063158045
 20
5.713997261395515
 10
5.087540029005733
 20
5.714893390082599
 10
5.087837832014034
 20
5.715490355930294
 10
5.088136994853428
 20
5.716087321777989
 10
5.088436157692825
 20
5.716684287625684
 10
5.088733960701123
 20
5.717281253473374
 10
5.089031763709424
 20
5.717579056481675
 10
5.089330926548814
 20
5.718176022329376
 10
5.089330926548814
 20
5.718774348008153
 10
5.089630089388208
 20
5.71936995402476
 10
5.089927892396509
 20
5.71966911686415
 10
5.090227055235903
 20
5.720266082711845
 10
5.090524858244204
 20
5.720565245551234
 10
5.090824021083594
 20
5.721162211398929
 10
5.091420986931289
 20
5.721460014407229
 10
5.091718789939594
 20
5.721757817415536
 10
5.092912721634974
 20
5.72265394610262
  0
LWPOLYLINE
  5
194
102
{ACAD_REACTORS
330
19F
102
}
330
2
100
AcDbEntity
  8
IMAGE
100
AcDbPolyline
 90
       84
 70
     1
 43
0.0
 10
5.155600934798247
 20
5.740565641195601
 10
5.158587123867807
 20
5.740266478356213
 10
5.162168918953966
 20
5.740266478356213
 10
5.165451551200739
 20
5.740266478356213
 10
5.169034706117987
 20
5.740565641195601
 10
5.172616501204146
 20
5.740565641195601
 10
5.176497459129699
 20
5.740565641195601
 10
5.180079254215865
 20
5.740266478356213
 10
5.183662409133113
 20
5.739967315516824
 10
5.187244204219272
 20
5.739669512508517
 10
5.190526836466045
 20
5.739072546660822
 10
5.193810828543902
 20
5.738176417973738
 10
5.196795657782374
 20
5.736983846109441
 10
5.199781846851927
 20
5.735490751574662
 10
5.202467513251004
 20
5.733698494200495
 10
5.206945437024252
 20
5.729221930258332
 10
5.206945437024252
 20
5.728922767418944
 10
5.207244599863642
 20
5.728624964410643
 10
5.207244599863642
 20
5.728325801571254
 10
5.207244599863642
 20
5.72802663873186
 10
5.207542402871943
 20
5.72802663873186
 10
5.207542402871943
 20
5.727728835723559
 10
5.20784156571133
 20
5.727429672884165
 10
5.20784156571133
 20
5.727131869875864
 10
5.208139368719638
 20
5.727131869875864
 10
5.208737694398422
 20
5.725640135172173
 10
5.20933466024611
 20
5.7244448436457
 10
5.209632463254418
 20
5.722953108942008
 10
5.210229429102113
 20
5.721460014407229
 10
5.2105285919415
 20
5.719966919872456
 10
5.210826394949801
 20
5.718475185168765
 10
5.210826394949801
 20
5.716983450465074
 10
5.211125557789191
 20
5.715490355930294
 10
5.211125557789191
 20
5.713997261395515
 10
5.211125557789191
 20
5.712504166860735
 10
5.211125557789191
 20
5.71101243215705
 10
5.210826394949801
 20
5.709519337622271
 10
5.2105285919415
 20
5.707728440079191
 10
5.210229429102113
 20
5.706235345544412
 10
5.209632463254418
 20
5.703250516305947
 10
5.20903549740672
 20
5.702056584610557
 10
5.208737694398422
 20
5.700862652915172
 10
5.208438531559032
 20
5.699966524228088
 10
5.208139368719638
 20
5.698772592532697
 10
5.20784156571133
 20
5.697578660837307
 10
5.207244599863642
 20
5.696384729141922
 10
5.206945437024252
 20
5.695489960285926
 10
5.206647634015951
 20
5.694294668759454
 10
5.206050668168252
 20
5.693399899903457
 10
5.205751505328862
 20
5.692205968208067
 10
5.205452342489472
 20
5.691311199352071
 10
5.204856736472866
 20
5.690115907825599
 10
5.204259770625171
 20
5.689221138969602
 10
5.203662804777483
 20
5.688325010282518
 10
5.202766676090391
 20
5.686833275578827
 10
5.202467513251004
 20
5.686534112739439
 10
5.202467513251004
 20
5.686234949900044
 10
5.202169710242703
 20
5.685937146891743
 10
5.202169710242703
 20
5.685637984052348
 10
5.201870547403313
 20
5.685340181044048
 10
5.201870547403313
 20
5.68504101820466
 10
5.201870547403313
 20
5.684743215196353
 10
5.198587915156544
 20
5.67996612858372
 10
5.194706957230987
 20
5.675787367649859
 10
5.190825999305435
 20
5.672503375572
 10
5.18634807553219
 20
5.669816349341836
 10
5.181572348750638
 20
5.668025451798755
 10
5.176497459129699
 20
5.666234554255676
 10
5.171123406669366
 20
5.665339785399679
 10
5.165750714040125
 20
5.664443656712596
 10
5.160078858571498
 20
5.664144493873201
 10
5.154407003102857
 20
5.6638466908649
 10
5.148437344625929
 20
5.6638466908649
 10
5.142765489157287
 20
5.6638466908649
 10
5.13679447084927
 20
5.6638466908649
 10
5.131122615380629
 20
5.664144493873201
 10
5.120078067282761
 20
5.664144493873201
 10
5.125749922751388
 20
5.6817570261268
 10
5.154109200094556
 20
5.740266478356213
 10
5.154407003102857
 20
5.740266478356213
 10
5.154706165942251
 20
5.740266478356213
 10
5.155003968950559
 20
5.740266478356213
 10
5.155303131789946
 20
5.740266478356213
 10
5.155600934798247
 20
5.740565641195601
  0
LWPOLYLINE
  5
195
330
2
100
AcDbEntity
  8
IMAGE
100
AcDbPolyline
 90
      111
 70
     1
 43
0.0
 10
4.961267473992108
 20
5.7671326611646
 10
4.964253663061665
 20
5.7668348581563
 10
4.967537655139526
 20
5.7668348581563
 10
4.970522484377998
 20
5.7668348581563
 10
4.973806476455855
 20
5.7668348581563
 10
4.977089108702628
 20
5.7668348581563
 10
4.980373100780486
 20
5.7671326611646
 10
4.983657092858344
 20
5.7671326611646
 10
4.986939725105116
 20
5.7671326611646
 10
4.990223717182974
 20
5.7671326611646
 10
4.993507709260835
 20
5.7671326611646
 10
4.996791701338693
 20
5.7668348581563
 10
5.000074333585466
 20
5.766237892308604
 10
5.003060522655019
 20
5.765640926460909
 10
5.006045351893483
 20
5.764744797773825
 10
5.012015010370422
 20
5.762356934383049
 10
5.013210301896897
 20
5.76056603683997
 10
5.01440423359228
 20
5.758775139296889
 10
5.015299002448283
 20
5.756685078914421
 10
5.01589732812706
 20
5.754894181371335
 10
5.016492934143666
 20
5.75250631798056
 10
5.017089899991361
 20
5.750416257598091
 10
5.017089899991361
 20
5.748028394207316
 10
5.017389062830751
 20
5.74564053081654
 10
5.017089899991361
 20
5.743251307594683
 10
5.017089899991361
 20
5.740863444203908
 10
5.016492934143666
 20
5.738774743652522
 10
5.016195131135361
 20
5.736385520430658
 10
5.015299002448283
 20
5.733997657039883
 10
5.01440423359228
 20
5.731907596657414
 10
5.012611976218114
 20
5.72802663873186
 10
5.011418044522727
 20
5.726534904028174
 10
5.010523275666731
 20
5.725340972332784
 10
5.009627146979642
 20
5.724147040637393
 10
5.008433215284263
 20
5.72325091195031
 10
5.007538446428263
 20
5.722056980254925
 10
5.006344514732877
 20
5.721162211398929
 10
5.005149223206405
 20
5.720266082711845
 10
5.004254454350402
 20
5.71936995402476
 10
5.003060522655019
 20
5.718475185168765
 10
5.001866590959632
 20
5.717579056481675
 10
5.000672659264242
 20
5.716684287625684
 10
4.999179564729463
 20
5.716087321777989
 10
4.997985633034073
 20
5.715191193090905
 10
4.996791701338693
 20
5.71459422724321
 10
4.994403837947913
 20
5.713400295547826
 10
4.994701640956218
 20
5.711907201013047
 10
4.995000803795615
 20
5.710116303469966
 10
4.995298606803913
 20
5.708624568766275
 10
4.995597769643303
 20
5.706833671223195
 10
4.996194735490991
 20
5.705041413849027
 10
4.9964925384993
 20
5.703250516305947
 10
4.996791701338693
 20
5.701459618762862
 10
4.997089504346995
 20
5.699369558380393
 10
4.997089504346995
 20
5.697578660837307
 10
4.997089504346995
 20
5.695489960285926
 10
4.997089504346995
 20
5.693399899903457
 10
4.997089504346995
 20
5.691609002360378
 10
4.996791701338693
 20
5.689518941977903
 10
4.996194735490991
 20
5.687428881595429
 10
4.994701640956218
 20
5.683847086509269
 10
4.994104675108523
 20
5.683250120661573
 10
4.993806872100222
 20
5.682653154813884
 10
4.993507709260835
 20
5.68235399197449
 10
4.993507709260835
 20
5.6817570261268
 10
4.993209906252527
 20
5.681459223118499
 10
4.992910743413133
 20
5.680862257270804
 10
4.992611580573743
 20
5.680563094431409
 10
4.992611580573743
 20
5.680265291423109
 10
4.992313777565446
 20
5.679666965744325
 10
4.992014614726056
 20
5.679369162736024
 10
4.991716811717754
 20
5.679071359727718
 10
4.991417648878361
 20
5.678474393880029
 10
4.991417648878361
 20
5.678175231040634
 10
4.991119845870052
 20
5.677578265192945
 10
4.990522880022364
 20
5.676981299345249
 10
4.986641922096815
 20
5.67339950425909
 10
4.982463161162954
 20
5.670414675020619
 10
4.977985237389706
 20
5.668324614638151
 10
4.97320951060816
 20
5.66653371709507
 10
4.968432423995526
 20
5.665637588407981
 10
4.963357534374587
 20
5.664742819551984
 10
4.957984841745336
 20
5.664443656712596
 10
4.95261078928501
 20
5.664443656712596
 10
4.94723809665577
 20
5.664443656712596
 10
4.941566241187135
 20
5.664742819551984
 10
4.935894385718501
 20
5.665040622560291
 10
4.930521693089261
 20
5.665339785399679
 10
4.924848477789538
 20
5.665637588407981
 10
4.91947578516029
 20
5.665637588407981
 10
4.909028202910114
 20
5.665339785399679
 10
4.911416066300883
 20
5.671608606716009
 10
4.913803929691663
 20
5.677877428032333
 10
4.916790118761223
 20
5.684146249348657
 10
4.91947578516029
 20
5.690415070664987
 10
4.922759777238152
 20
5.696683891981317
 10
4.925744606476623
 20
5.703250516305947
 10
4.929028598554481
 20
5.709519337622271
 10
4.93261039364064
 20
5.716087321777989
 10
4.935894385718501
 20
5.722356143094313
 10
4.939178377796359
 20
5.728624964410643
 10
4.942760172882518
 20
5.735191588735274
 10
4.946341967968677
 20
5.741460410051598
 10
4.949625960046546
 20
5.747729231367928
 10
4.953207755132705
 20
5.753998052684251
 10
4.959775739288424
 20
5.7668348581563
 10
4.960073542296729
 20
5.7668348581563
 10
4.960372705136119
 20
5.7668348581563
 10
4.960671867975506
 20
5.7668348581563
 10
4.960969670983807
 20
5.7668348581563
 10
4.961267473992108
 20
5.7671326611646
  0
LWPOLYLINE
  5
196
330
2
100
AcDbEntity
  8
IMAGE
100
AcDbPolyline
 90
      103
 70
     1
 43
0.0
 10
5.076196318068465
 20
5.740565641195601
 10
5.079181147306936
 20
5.740266478356213
 10
5.082165976545407
 20
5.740266478356213
 10
5.085449968623265
 20
5.740266478356213
 10
5.088733960701123
 20
5.740266478356213
 10
5.092315755787286
 20
5.740565641195601
 10
5.095599747865144
 20
5.740863444203908
 10
5.098883739943001
 20
5.740863444203908
 10
5.102167732020863
 20
5.741162607043297
 10
5.105450364267632
 20
5.740863444203908
 10
5.108734356345493
 20
5.740565641195601
 10
5.112018348423351
 20
5.740266478356213
 10
5.115003177661822
 20
5.739370349669129
 10
5.117988006900286
 20
5.738176417973738
 10
5.120675033130449
 20
5.736983846109441
 10
5.125749922751388
 20
5.732803725344498
 10
5.126646051438481
 20
5.731012827801412
 10
5.127243017286168
 20
5.729519733266639
 10
5.12783998313386
 20
5.727728835723559
 10
5.128436948981558
 20
5.72623574118878
 10
5.12873475198986
 20
5.7244448436457
 10
5.12873475198986
 20
5.72265394610262
 10
5.12873475198986
 20
5.720863048559534
 10
5.12873475198986
 20
5.71936995402476
 10
5.128436948981558
 20
5.717579056481675
 10
5.128137786142165
 20
5.715788158938595
 10
5.12783998313386
 20
5.713997261395515
 10
5.127243017286168
 20
5.712504166860735
 10
5.126943854446782
 20
5.710713269317656
 10
5.12604772575969
 20
5.709221534613964
 10
5.124853794064307
 20
5.706235345544412
 10
5.124555991055999
 20
5.705937542536111
 10
5.124555991055999
 20
5.705638379696717
 10
5.124256828216612
 20
5.705340576688416
 10
5.124256828216612
 20
5.705041413849027
 10
5.123959025208311
 20
5.70474361084072
 10
5.123959025208311
 20
5.704444448001332
 10
5.123659862368921
 20
5.704444448001332
 10
5.123659862368921
 20
5.704146644993025
 10
5.123659862368921
 20
5.703847482153636
 10
5.123362059360619
 20
5.703847482153636
 10
5.123362059360619
 20
5.703549679145336
 10
5.123362059360619
 20
5.703250516305947
 10
5.116794075204904
 20
5.696384729141922
 10
5.100375474646693
 20
5.690115907825599
 10
5.100077671638395
 20
5.689816744986203
 10
5.099778508798998
 20
5.689816744986203
 10
5.099778508798998
 20
5.689518941977903
 10
5.099778508798998
 20
5.689221138969602
 10
5.099778508798998
 20
5.688921976130208
 10
5.107838227658401
 20
5.664443656712596
 10
5.086943063158045
 20
5.664144493873201
 10
5.075898515060163
 20
5.689816744986203
 10
5.074405420525383
 20
5.688624173121907
 10
5.073211488830001
 20
5.687428881595429
 10
5.072315360142916
 20
5.686234949900044
 10
5.071121428447526
 20
5.684743215196353
 10
5.070226659591536
 20
5.683250120661573
 10
5.069330530904444
 20
5.6817570261268
 10
5.068435762048455
 20
5.680265291423109
 10
5.067539633361366
 20
5.678474393880029
 10
5.066942667513675
 20
5.676981299345249
 10
5.066046538826586
 20
5.675190401802169
 10
5.065151769970597
 20
5.67339950425909
 10
5.064554804122895
 20
5.671608606716009
 10
5.063658675435817
 20
5.67011551218123
 10
5.062762546748729
 20
5.668324614638151
 10
5.060971649205647
 20
5.665339785399679
 10
5.037090295635731
 20
5.664144493873201
 10
5.03828558716221
 20
5.667727648790455
 10
5.039479518857589
 20
5.671309443876615
 10
5.040971253561281
 20
5.675190401802169
 10
5.042762151104358
 20
5.67877219688833
 10
5.044255245639138
 20
5.682653154813884
 10
5.04604614318222
 20
5.686234949900044
 10
5.048136203564695
 20
5.690115907825599
 10
5.049927101107773
 20
5.693697702911758
 10
5.052017161490248
 20
5.697578660837307
 10
5.054105862041627
 20
5.70116181575456
 10
5.055898119415797
 20
5.705041413849027
 10
5.057986819967183
 20
5.708624568766275
 10
5.059777717510264
 20
5.712504166860735
 10
5.061867777892736
 20
5.716087321777989
 10
5.065449572978899
 20
5.723847877798005
 10
5.066046538826586
 20
5.724744006485089
 10
5.066643504674289
 20
5.72593793818048
 10
5.067240470521976
 20
5.726834066867563
 10
5.067837436369668
 20
5.72802663873186
 10
5.068435762048455
 20
5.728922767418944
 10
5.069031368065058
 20
5.730116699114335
 10
5.069629693743841
 20
5.731012827801412
 10
5.070226659591536
 20
5.732206759496803
 10
5.070823625439224
 20
5.733102888183887
 10
5.071420591286919
 20
5.734296819879271
 10
5.071718394295228
 20
5.735191588735274
 10
5.072315360142916
 20
5.736087717422358
 10
5.072912325990607
 20
5.737281649117742
 10
5.073509291838306
 20
5.738176417973738
 10
5.075002386373085
 20
5.740266478356213
 10
5.075300189381387
 20
5.740266478356213
 10
5.075599352220777
 20
5.740266478356213
 10
5.075898515060163
 20
5.740266478356213
 10
5.076196318068465
 20
5.740565641195601
  0
LWPOLYLINE
  5
197
330
2
100
AcDbEntity
  8
IMAGE
100
AcDbPolyline
 90
       12
 70
     1
 43
0.0
 10
5.034702432244948
 20
5.740565641195601
 10
5.058285982806577
 20
5.740565641195601
 10
5.020373892069223
 20
5.665339785399679
 10
4.997388667186385
 20
5.664742819551984
 10
4.997089504346995
 20
5.664742819551984
 10
4.997089504346995
 20
5.665040622560291
 10
4.996791701338693
 20
5.665339785399679
 10
4.996791701338693
 20
5.665637588407981
 10
4.996791701338693
 20
5.665936751247375
 10
5.03410546639726
 20
5.740266478356213
 10
5.03440462923665
 20
5.740266478356213
 10
5.034702432244948
 20
5.740565641195601
  0
LWPOLYLINE
  5
198
330
2
100
AcDbEntity
  8
IMAGE
100
AcDbPolyline
 90
       60
 70
     1
 43
0.0
 10
4.608721745574115
 20
5.741460410051598
 10
4.642155912538221
 20
5.741460410051598
 10
4.628424338210184
 20
5.666831520103371
 10
4.607230010870424
 20
5.666234554255676
 10
4.606633045022729
 20
5.66653371709507
 10
4.606036079175034
 20
5.666831520103371
 10
4.605736916335647
 20
5.66742848595106
 10
4.605736916335647
 20
5.668025451798755
 10
4.605736916335647
 20
5.668623777477539
 10
4.605736916335647
 20
5.669220743325234
 10
4.605736916335647
 20
5.669816349341836
 10
4.606036079175034
 20
5.67071247802892
 10
4.606036079175034
 20
5.671309443876615
 10
4.606333882183335
 20
5.67190640972431
 10
4.606633045022729
 20
5.672503375572
 10
4.606930848031037
 20
5.67339950425909
 10
4.607230010870424
 20
5.673996470106779
 10
4.607529173709814
 20
5.674593435954474
 10
4.608124779726413
 20
5.676085170658166
 10
4.607826976718115
 20
5.676085170658166
 10
4.607826976718115
 20
5.676384333497554
 10
4.607826976718115
 20
5.676683496336949
 10
4.607529173709814
 20
5.676683496336949
 10
4.607529173709814
 20
5.676981299345249
 10
4.607230010870424
 20
5.677280462184638
 10
4.607230010870424
 20
5.677578265192945
 10
4.607230010870424
 20
5.677877428032333
 10
4.605139950487956
 20
5.677578265192945
 10
4.603349052944871
 20
5.677578265192945
 10
4.601558155401789
 20
5.677877428032333
 10
4.599767257858712
 20
5.677877428032333
 10
4.597677197476237
 20
5.677877428032333
 10
4.595886299933155
 20
5.678175231040634
 10
4.594095402390077
 20
5.678175231040634
 10
4.592304504846996
 20
5.678175231040634
 10
4.590513607303915
 20
5.678175231040634
 10
4.588721349929748
 20
5.677877428032333
 10
4.586930452386667
 20
5.677578265192945
 10
4.585139554843589
 20
5.676981299345249
 10
4.583646460308809
 20
5.676384333497554
 10
4.582154725605118
 20
5.675489564641558
 10
4.579467699374948
 20
5.673100341419694
 10
4.578870733527256
 20
5.672503375572
 10
4.57857157068787
 20
5.67190640972431
 10
4.578273767679561
 20
5.671309443876615
 10
4.577975964671257
 20
5.671011640868314
 10
4.577676801831866
 20
5.670414675020619
 10
4.577378998823569
 20
5.67011551218123
 10
4.577079835984179
 20
5.669518546333535
 10
4.576780673144789
 20
5.669220743325234
 10
4.57618370729709
 20
5.668623777477539
 10
4.575885904288789
 20
5.668324614638151
 10
4.575586741449399
 20
5.667727648790455
 10
4.575288938441097
 20
5.66742848595106
 10
4.574691972593402
 20
5.66713068294276
 10
4.574392809754009
 20
5.666831520103371
 10
4.573498040898019
 20
5.666234554255676
 10
4.547825789785012
 20
5.666234554255676
 10
4.608423942565817
 20
5.741460410051598
 10
4.608721745574115
 20
5.741460410051598
  0
LWPOLYLINE
  5
199
330
2
100
AcDbEntity
  8
IMAGE
100
AcDbPolyline
 90
       71
 70
     1
 43
0.0
 10
4.712903844560894
 20
5.741460410051598
 10
4.736486035291427
 20
5.741460410051598
 10
4.74066615605637
 20
5.707728440079191
 10
4.74066615605637
 20
5.707131474231496
 10
4.740963959064671
 20
5.706534508383806
 10
4.741263121904058
 20
5.706534508383806
 10
4.741560924912366
 20
5.706235345544412
 10
4.74186008775176
 20
5.706235345544412
 10
4.742157890760061
 20
5.706534508383806
 10
4.742457053599451
 20
5.706833671223195
 10
4.742754856607749
 20
5.707131474231496
 10
4.743054019447139
 20
5.707429277239796
 10
4.743351822455451
 20
5.708026243087492
 10
4.743650985294841
 20
5.708325405926887
 10
4.743950148134228
 20
5.708922371774575
 10
4.744247951142529
 20
5.709221534613964
 10
4.744545754150831
 20
5.709519337622271
 10
4.745144079829621
 20
5.710415466309355
 10
4.745144079829621
 20
5.71101243215705
 10
4.745441882837919
 20
5.711907201013047
 10
4.745741045677309
 20
5.71280332970013
 10
4.746038848685611
 20
5.713400295547826
 10
4.746338011524997
 20
5.714295064403821
 10
4.746635814533306
 20
5.714893390082599
 10
4.746934977372699
 20
5.715490355930294
 10
4.747232780381001
 20
5.716087321777989
 10
4.747531943220391
 20
5.716684287625684
 10
4.747829746228688
 20
5.717281253473374
 10
4.748128909068086
 20
5.717878219321069
 10
4.748725874915781
 20
5.718475185168765
 10
4.749023677924082
 20
5.719072151016454
 10
4.749322840763468
 20
5.71966911686415
 10
4.75021896945056
 20
5.721162211398929
 10
4.750815935298248
 20
5.722356143094313
 10
4.751710704154245
 20
5.723847877798005
 10
4.75230767000194
 20
5.725041809493395
 10
4.753203798689025
 20
5.726534904028174
 10
4.75380076453672
 20
5.72802663873186
 10
4.754397730384408
 20
5.729221930258332
 10
4.754994696232103
 20
5.730415861953723
 10
4.755591662079797
 20
5.731907596657414
 10
4.756486430935794
 20
5.733102888183887
 10
4.757083396783489
 20
5.734296819879271
 10
4.757681722462269
 20
5.735490751574662
 10
4.758576491318269
 20
5.736684683270053
 10
4.75917345716596
 20
5.737878614965437
 10
4.760069585853049
 20
5.739072546660822
 10
4.762158286404428
 20
5.741460410051598
 10
4.784547905270656
 20
5.741460410051598
 10
4.764248346786899
 20
5.700564849906865
 10
4.746038848685611
 20
5.66653371709507
 10
4.723650589650471
 20
5.666234554255676
 10
4.719769631724918
 20
5.702653550458252
 10
4.719470468885525
 20
5.702653550458252
 10
4.719470468885525
 20
5.702952713297641
 10
4.719172665877223
 20
5.702952713297641
 10
4.719172665877223
 20
5.703250516305947
 10
4.718874862868922
 20
5.703250516305947
 10
4.718874862868922
 20
5.703549679145336
 10
4.718575700029532
 20
5.703549679145336
 10
4.718575700029532
 20
5.703847482153636
 10
4.718277897021234
 20
5.703847482153636
 10
4.717978734181833
 20
5.703847482153636
 10
4.717679571342443
 20
5.704146644993025
 10
4.698575304385165
 20
5.66653371709507
 10
4.675887882510629
 20
5.666234554255676
 10
4.711709912865515
 20
5.741460410051598
 10
4.712007715873816
 20
5.741460410051598
 10
4.712306878713203
 20
5.741460410051598
 10
4.712606041552593
 20
5.741460410051598
 10
4.712903844560894
 20
5.741460410051598
  0
LWPOLYLINE
  5
19A
330
2
100
AcDbEntity
  8
IMAGE
100
AcDbPolyline
 90
       38
 70
     1
 43
0.0
 10
4.672605250263856
 20
5.741460410051598
 10
4.695291312307308
 20
5.741460410051598
 10
4.658275350257035
 20
5.666234554255676
 10
4.635290125374201
 20
5.666234554255676
 10
4.635290125374201
 20
5.668324614638151
 10
4.635887091221892
 20
5.670414675020619
 10
4.636484057069587
 20
5.672503375572
 10
4.637081022917282
 20
5.674593435954474
 10
4.638274954612668
 20
5.676683496336949
 10
4.63917108329975
 20
5.678474393880029
 10
4.640365014995143
 20
5.680563094431409
 10
4.641558946690526
 20
5.682653154813884
 10
4.642752878385909
 20
5.684743215196353
 10
4.643946810081303
 20
5.686534112739439
 10
4.645140741776693
 20
5.688624173121907
 10
4.64603687046377
 20
5.690712873673287
 10
4.64723080215916
 20
5.692802934055762
 10
4.648126930846245
 20
5.695190797446538
 10
4.649917828389323
 20
5.699668721219781
 10
4.65111176008471
 20
5.702056584610557
 10
4.652603494788401
 20
5.70474361084072
 10
4.653797426483791
 20
5.707429277239796
 10
4.655290521018571
 20
5.710116303469966
 10
4.656484452713954
 20
5.712504166860735
 10
4.657977547248727
 20
5.715191193090905
 10
4.65917147894412
 20
5.717878219321069
 10
4.660663213647811
 20
5.720565245551234
 10
4.66185850517429
 20
5.722953108942008
 10
4.663052436869673
 20
5.725640135172173
 10
4.664544171573357
 20
5.728325801571254
 10
4.665738103268751
 20
5.730713664962023
 10
4.667231197803527
 20
5.733400691192193
 10
4.66842512949892
 20
5.736087717422358
 10
4.671409958737378
 20
5.741460410051598
 10
4.671709121576771
 20
5.741460410051598
 10
4.67200692458508
 20
5.741460410051598
 10
4.672306087424466
 20
5.741460410051598
 10
4.672605250263856
 20
5.741460410051598
  0
LWPOLYLINE
  5
19B
330
2
100
AcDbEntity
  8
IMAGE
100
AcDbPolyline
 90
      126
 70
     0
 43
0.0
 10
4.513794656973214
 20
5.769222721547074
 10
4.517078649051075
 20
5.768924918538767
 10
4.520362641128933
 20
5.768625755699379
 10
4.523944436215092
 20
5.768924918538767
 10
4.527526231301255
 20
5.768924918538767
 10
4.531407189226801
 20
5.769222721547074
 10
4.534988984312967
 20
5.769222721547074
 10
4.538869942238523
 20
5.769520524555376
 10
4.542451737324682
 20
5.769520524555376
 10
4.54603489224193
 20
5.769520524555376
 10
4.549616687328089
 20
5.769222721547074
 10
4.553198482414256
 20
5.768924918538767
 10
4.556780277500415
 20
5.768326592859991
 10
4.56006426957828
 20
5.7671326611646
 10
4.563348261656134
 20
5.765938729469215
 10
4.56931792013307
 20
5.762356934383049
 10
4.570214048820158
 20
5.76086383984827
 10
4.571407980515537
 20
5.75907294230519
 10
4.572304109202629
 20
5.757579847770417
 10
4.573198878058622
 20
5.756088113066725
 10
4.573795843906321
 20
5.754297215523646
 10
4.574392809754009
 20
5.75250631798056
 10
4.574691972593402
 20
5.750714060606392
 10
4.574989775601704
 20
5.7489245228944
 10
4.575288938441097
 20
5.747132265520232
 10
4.575288938441097
 20
5.745341367977152
 10
4.575288938441097
 20
5.743550470434072
 10
4.575288938441097
 20
5.741758213059904
 10
4.574989775601704
 20
5.739967315516824
 10
4.574691972593402
 20
5.738176417973738
 10
4.574095006745707
 20
5.734893785726967
 10
4.573498040898019
 20
5.732206759496803
 10
4.572601912210927
 20
5.72981753627494
 10
4.571705783523846
 20
5.727429672884165
 10
4.57081101466785
 20
5.725340972332784
 10
4.56961708297246
 20
5.72325091195031
 10
4.568423151277073
 20
5.721162211398929
 10
4.5669300567423
 20
5.71936995402476
 10
4.56573612504691
 20
5.717579056481675
 10
4.563945227503829
 20
5.716087321777989
 10
4.562452132969049
 20
5.71459422724321
 10
4.560661235425971
 20
5.713101132708431
 10
4.55887033788289
 20
5.711907201013047
 10
4.557079440339812
 20
5.710713269317656
 10
4.554989379957337
 20
5.709519337622271
 10
4.551108422031781
 20
5.707728440079191
 10
4.549914490336398
 20
5.707131474231496
 10
4.549019721480402
 20
5.706833671223195
 10
4.547825789785012
 20
5.706534508383806
 10
4.546929661097934
 20
5.706235345544412
 10
4.54603489224193
 20
5.705937542536111
 10
4.545138763554852
 20
5.705638379696717
 10
4.543944831859462
 20
5.705340576688416
 10
4.543048703172377
 20
5.705041413849027
 10
4.542153934316381
 20
5.70474361084072
 10
4.541257805629292
 20
5.704444448001332
 10
4.540363036773303
 20
5.704444448001332
 10
4.539466908086211
 20
5.704146644993025
 10
4.538570779399133
 20
5.704146644993025
 10
4.537676010543133
 20
5.704146644993025
 10
4.536182916008353
 20
5.704146644993025
 10
4.534988984312967
 20
5.702952713297641
 10
4.534392018465272
 20
5.702056584610557
 10
4.53409421545697
 20
5.700862652915172
 10
4.533795052617584
 20
5.699668721219781
 10
4.533795052617584
 20
5.698474789524397
 10
4.53409421545697
 20
5.696981694989617
 10
4.534392018465272
 20
5.695787763294227
 10
4.534691181304662
 20
5.694294668759454
 10
4.535288147152364
 20
5.692802934055762
 10
4.535885113000052
 20
5.691311199352071
 10
4.536182916008353
 20
5.689816744986203
 10
4.536779881856048
 20
5.688325010282518
 10
4.537376847703743
 20
5.686833275578827
 10
4.537973813551431
 20
5.685340181044048
 10
4.538570779399133
 20
5.682653154813884
 10
4.538570779399133
 20
5.681459223118499
 10
4.538869942238523
 20
5.680563094431409
 10
4.539167745246825
 20
5.679666965744325
 10
4.539466908086211
 20
5.67877219688833
 10
4.539766070925605
 20
5.677877428032333
 10
4.540063873933906
 20
5.676683496336949
 10
4.540063873933906
 20
5.675787367649859
 10
4.540363036773303
 20
5.674593435954474
 10
4.540660839781601
 20
5.67369730726739
 10
4.540960002620991
 20
5.672802538411394
 10
4.541257805629292
 20
5.671608606716009
 10
4.541257805629292
 20
5.67071247802892
 10
4.541556968468686
 20
5.669518546333535
 10
4.541854771476995
 20
5.668623777477539
 10
4.542750900164072
 20
5.666831520103371
 10
4.519466512441844
 20
5.666234554255676
 10
4.507823638665186
 20
5.700862652915172
 10
4.489017174716209
 20
5.666831520103371
 10
4.461554026060127
 20
5.666234554255676
 10
4.462749317586599
 20
5.67071247802892
 10
4.46454021512968
 20
5.675190401802169
 10
4.466331112672758
 20
5.67996612858372
 10
4.468122010215839
 20
5.684444052356964
 10
4.470509873606619
 20
5.689221138969602
 10
4.472599933989087
 20
5.693697702911758
 10
4.474987797379863
 20
5.698474789524397
 10
4.47737566077064
 20
5.703250516305947
 10
4.480062687000803
 20
5.707728440079191
 10
4.482450550391579
 20
5.712504166860735
 10
4.485137576621749
 20
5.717281253473374
 10
4.487525440012518
 20
5.722056980254925
 10
4.489913303403291
 20
5.726534904028174
 10
4.492301166794067
 20
5.731311990640807
 10
4.497078253406705
 20
5.740863444203908
 10
4.497973022262698
 20
5.742654341746982
 10
4.499166953958088
 20
5.744445239290068
 10
4.500063082645176
 20
5.746236136833148
 10
4.500957851501166
 20
5.748326197215622
 10
4.501853980188258
 20
5.750117094758702
 10
4.502750108875336
 20
5.751907992301783
 10
4.503644877731336
 20
5.75370024967595
 10
4.504541006418413
 20
5.755788950227331
 10
4.505435775274417
 20
5.757579847770417
 10
4.506331903961495
 20
5.759372105144585
 10
4.507228032648583
 20
5.761163002687665
 10
4.50812280150458
 20
5.762654737391356
 10
4.509316733199966
 20
5.764446994765524
 10
4.510510664895356
 20
5.765938729469215
 10
4.513197691125519
 20
5.769222721547074
 10
4.513495494133827
 20
5.769222721547074
  0
LWPOLYLINE
  5
19C
330
2
100
AcDbEntity
  8
IMAGE
100
AcDbPolyline
 90
      126
 70
     0
 43
0.0
 10
4.834399312961881
 20
5.714295064403821
 10
4.834399312961881
 20
5.71459422724321
 10
4.834399312961881
 20
5.714893390082599
 10
4.834996278809583
 20
5.715490355930294
 10
4.841564262965295
 20
5.713997261395515
 10
4.8418620659736
 20
5.713997261395515
 10
4.84216122881299
 20
5.713997261395515
 10
4.842459031821292
 20
5.713997261395515
 10
4.842459031821292
 20
5.714295064403821
 10
4.842758194660678
 20
5.714295064403821
 10
4.843055997668987
 20
5.71459422724321
 10
4.843355160508373
 20
5.714893390082599
 10
4.841564262965295
 20
5.716684287625684
 10
4.840071168430522
 20
5.718774348008153
 10
4.838578073895742
 20
5.720565245551234
 10
4.837086339192051
 20
5.72265394610262
 10
4.835593244657271
 20
5.724744006485089
 10
4.83380234711419
 20
5.726834066867563
 10
4.832309252579413
 20
5.728922767418944
 10
4.830518355036332
 20
5.731012827801412
 10
4.828727457493251
 20
5.733102888183887
 10
4.826637397110779
 20
5.734893785726967
 10
4.824846499567698
 20
5.736983846109441
 10
4.822757799016311
 20
5.738774743652522
 10
4.820667738633844
 20
5.740565641195601
 10
4.818577678251372
 20
5.742057375899292
 10
4.813801951469823
 20
5.745341367977152
 10
4.767830141873059
 20
5.76653569531691
 10
4.790219760739294
 20
5.763251703239052
 10
4.789025829043904
 20
5.76653569531691
 10
4.797980316759304
 20
5.764446994765524
 10
4.798279479598701
 20
5.764446994765524
 10
4.798577282607006
 20
5.764744797773825
 10
4.798577282607006
 20
5.765043960613219
 10
4.798876445446396
 20
5.76534176362152
 10
4.798876445446396
 20
5.765640926460909
 10
4.798876445446396
 20
5.765938729469215
 10
4.798876445446396
 20
5.766237892308604
 10
4.798876445446396
 20
5.76653569531691
 10
4.799174248454693
 20
5.7671326611646
 10
4.803055206380243
 20
5.767430464172901
 10
4.803354369219643
 20
5.767729627012295
 10
4.803354369219643
 20
5.768028789851684
 10
4.803354369219643
 20
5.768326592859991
 10
4.803354369219643
 20
5.768625755699379
 10
4.803354369219643
 20
5.768924918538767
 10
4.803354369219643
 20
5.769222721547074
 10
4.803652172227945
 20
5.769222721547074
 10
4.803652172227945
 20
5.769520524555376
 10
4.804249138075633
 20
5.76981968739477
 10
4.804548300915023
 20
5.76981968739477
 10
4.804846103923331
 20
5.76981968739477
 10
4.805145266762725
 20
5.76981968739477
 10
4.805443069771026
 20
5.76981968739477
 10
4.805443069771026
 20
5.77011749040307
 10
4.805742232610413
 20
5.77011749040307
 10
4.806041395449803
 20
5.770416653242459
 10
4.806339198458108
 20
5.770715816081848
 10
4.806339198458108
 20
5.771013619090155
 10
4.806339198458108
 20
5.771312781929543
 10
4.806339198458108
 20
5.77161058493785
 10
4.806339198458108
 20
5.77190838794615
 10
4.806041395449803
 20
5.77190838794615
 10
4.806041395449803
 20
5.772207550785539
 10
4.805742232610413
 20
5.772506713624927
 10
4.805742232610413
 20
5.772804516633234
 10
4.805443069771026
 20
5.773103679472623
 10
4.805443069771026
 20
5.77340148248093
 10
4.805145266762725
 20
5.773700645320318
 10
4.805145266762725
 20
5.773998448328619
 10
4.805145266762725
 20
5.774894577015709
 10
4.805145266762725
 20
5.77519238002401
 10
4.805443069771026
 20
5.775491542863398
 10
4.805742232610413
 20
5.775491542863398
 10
4.806041395449803
 20
5.775789345871705
 10
4.806339198458108
 20
5.775789345871705
 10
4.806637001466409
 20
5.775789345871705
 10
4.807233967314104
 20
5.776088508711094
 10
4.807233967314104
 20
5.776386311719394
 10
4.807233967314104
 20
5.776685474558789
 10
4.807533130153494
 20
5.776685474558789
 10
4.807533130153494
 20
5.776984637398178
 10
4.807533130153494
 20
5.777282440406478
 10
4.80783229299288
 20
5.777282440406478
 10
4.808130096001189
 20
5.777879406254173
 10
4.802757403371941
 20
5.790716211726215
 10
4.804249138075633
 20
5.788925314183136
 10
4.806041395449803
 20
5.787133056808968
 10
4.80783229299288
 20
5.785044356257587
 10
4.809623190535962
 20
5.782954295875113
 10
4.811414088079047
 20
5.780566432484337
 10
4.813204985622128
 20
5.778476372101869
 10
4.814698080156901
 20
5.776088508711094
 10
4.816488977699986
 20
5.773700645320318
 10
4.818279875243067
 20
5.771013619090155
 10
4.819771609946759
 20
5.768625755699379
 10
4.821563867320925
 20
5.766237892308604
 10
4.823055602024613
 20
5.76355086607844
 10
4.824846499567698
 20
5.761163002687665
 10
4.826339594102478
 20
5.758775139296889
 10
4.829623586180328
 20
5.754297215523646
 10
4.857384537844719
 20
5.737878614965437
 10
4.857384537844719
 20
5.738176417973738
 10
4.857384537844719
 20
5.738475580813132
 10
4.857683700684109
 20
5.738475580813132
 10
4.857683700684109
 20
5.738774743652522
 10
4.857683700684109
 20
5.739072546660822
 10
4.857982863523503
 20
5.739072546660822
 10
4.858280666531804
 20
5.739669512508517
 10
4.856190606149329
 20
5.743251307594683
 10
4.856190606149329
 20
5.743550470434072
 10
4.856489768988723
 20
5.743550470434072
 10
4.856489768988723
 20
5.743848273442373
 10
4.856787571997031
 20
5.743848273442373
 10
4.857086734836418
 20
5.744147436281767
 10
4.857384537844719
 20
5.744147436281767
 10
4.857683700684109
 20
5.744147436281767
 10
4.857982863523503
 20
5.744147436281767
 10
4.858280666531804
 20
5.744147436281767
 10
4.858578469540109
 20
5.744147436281767
 10
4.858877632379499
 20
5.744147436281767
 10
4.8591754353878
 20
5.744147436281767
 10
4.859474598227187
 20
5.744445239290068
 10
4.860071564074889
 20
5.744744402129456
 10
4.860071564074889
 20
5.745042205137763
 10
4.860071564074889
 20
5.745341367977152
  0
LWPOLYLINE
  5
19D
330
2
100
AcDbEntity
  8
IMAGE
100
AcDbPolyline
 90
      126
 70
     0
 43
0.0
 10
4.858877632379499
 20
5.802954691519481
 10
4.860967692761967
 20
5.799372896433321
 10
4.863355556152747
 20
5.79638806719485
 10
4.866340385391207
 20
5.793401878125298
 10
4.869325214629679
 20
5.790417048886827
 10
4.872311403699235
 20
5.787730022656663
 10
4.875296232937706
 20
5.785044356257587
 10
4.878580225015564
 20
5.782357330027418
 10
4.881565054254032
 20
5.779670303797254
 10
4.884549883492496
 20
5.776984637398178
 10
4.887534712730964
 20
5.773998448328619
 10
4.890221738961134
 20
5.771013619090155
 10
4.892609602351903
 20
5.768028789851684
 10
4.894699662734378
 20
5.764446994765524
 10
4.896490560277459
 20
5.76086383984827
 10
4.898878423668236
 20
5.752804120988867
 10
4.897983654812232
 20
5.751312386285175
 10
4.897386688964544
 20
5.749819291750402
 10
4.896789723116853
 20
5.748625360055011
 10
4.896191397438066
 20
5.747430068528532
 10
4.895296628582073
 20
5.746236136833148
 10
4.894699662734378
 20
5.745042205137763
 10
4.893803534047297
 20
5.744147436281767
 10
4.893206568199602
 20
5.742953504586377
 10
4.892311799343605
 20
5.742057375899292
 10
4.89141567065652
 20
5.740863444203908
 10
4.890519541969435
 20
5.739967315516824
 10
4.88992257612174
 20
5.738774743652522
 10
4.889027807265744
 20
5.737579452126043
 10
4.888133038409748
 20
5.736385520430658
 10
4.886639943874971
 20
5.733997657039883
 10
4.886340781035581
 20
5.733698494200495
 10
4.886042978027273
 20
5.733400691192193
 10
4.885743815187886
 20
5.733102888183887
 10
4.885446012179585
 20
5.732803725344498
 10
4.885146849340195
 20
5.732505922336198
 10
4.878580225015564
 20
5.718176022329376
 10
4.878878028023866
 20
5.717281253473374
 10
4.879175831032167
 20
5.71638512478629
 10
4.879774156710951
 20
5.715490355930294
 10
4.880371122558646
 20
5.714893390082599
 10
4.880968088406334
 20
5.714295064403821
 10
4.881565054254032
 20
5.713400295547826
 10
4.882162020101727
 20
5.713101132708431
 10
4.883058148788808
 20
5.712504166860735
 10
4.883655114636503
 20
5.711907201013047
 10
4.884549883492496
 20
5.711609398004745
 10
4.885446012179585
 20
5.71101243215705
 10
4.886340781035581
 20
5.710713269317656
 10
4.887236909722666
 20
5.710415466309355
 10
4.888133038409748
 20
5.710415466309355
 10
4.890221738961134
 20
5.710116303469966
 10
4.890519541969435
 20
5.709817140630572
 10
4.890818704808825
 20
5.709817140630572
 10
4.89141567065652
 20
5.709817140630572
 10
4.891714833495914
 20
5.709817140630572
 10
4.892012636504215
 20
5.709817140630572
 10
4.892609602351903
 20
5.709817140630572
 10
4.892908765191293
 20
5.709519337622271
 10
4.893206568199602
 20
5.709519337622271
 10
4.893505731038995
 20
5.709519337622271
 10
4.893803534047297
 20
5.709221534613964
 10
4.894102696886683
 20
5.709221534613964
 10
4.894400499894985
 20
5.709221534613964
 10
4.894699662734378
 20
5.708922371774575
 10
4.894997465742687
 20
5.708922371774575
 10
4.895594431590374
 20
5.708624568766275
 10
4.896789723116853
 20
5.707728440079191
 10
4.897983654812232
 20
5.706833671223195
 10
4.898878423668236
 20
5.705638379696717
 10
4.899475389515924
 20
5.704444448001332
 10
4.900072355363626
 20
5.703250516305947
 10
4.900669321211314
 20
5.701757421771168
 10
4.900968484050704
 20
5.700265687067477
 10
4.901565449898399
 20
5.698772592532697
 10
4.901863252906704
 20
5.697280857829006
 10
4.902460218754395
 20
5.695787763294227
 10
4.902759381593781
 20
5.694593831598842
 10
4.903655510280874
 20
5.693100737064069
 10
4.904251116297473
 20
5.691906805368678
 10
4.905147244984565
 20
5.690712873673287
 10
4.908133434054118
 20
5.689221138969602
 10
4.907834271214721
 20
5.688921976130208
 10
4.907535108375334
 20
5.688624173121907
 10
4.907237305367033
 20
5.688325010282518
 10
4.906938142527643
 20
5.688325010282518
 10
4.906341176679944
 20
5.688325010282518
 10
4.906043373671643
 20
5.688325010282518
 10
4.905744210832253
 20
5.688325010282518
 10
4.905147244984565
 20
5.688325010282518
 10
4.904849441976256
 20
5.688325010282518
 10
4.904251116297473
 20
5.688325010282518
 10
4.903953313289175
 20
5.688325010282518
 10
4.90335634744148
 20
5.688325010282518
 10
4.903058544433179
 20
5.688325010282518
 10
4.902460218754395
 20
5.688325010282518
 10
4.901863252906704
 20
5.688624173121907
 10
4.901266287059005
 20
5.688325010282518
 10
4.900968484050704
 20
5.688325010282518
 10
4.900669321211314
 20
5.688025847443124
 10
4.900371518203012
 20
5.687728044434823
 10
4.900371518203012
 20
5.687428881595429
 10
4.900072355363626
 20
5.687131078587127
 10
4.900072355363626
 20
5.686833275578827
 10
4.900072355363626
 20
5.686534112739439
 10
4.900072355363626
 20
5.685937146891743
 10
4.900072355363626
 20
5.685637984052348
 10
4.900072355363626
 20
5.685340181044048
 10
4.900072355363626
 20
5.68504101820466
 10
4.900072355363626
 20
5.684444052356964
 10
4.898281457820541
 20
5.685937146891743
 10
4.896789723116853
 20
5.687428881595429
 10
4.895296628582073
 20
5.688921976130208
 10
4.893803534047297
 20
5.690415070664987
 10
4.892012636504215
 20
5.691609002360378
 10
4.890519541969435
 20
5.693100737064069
 10
4.888728644426358
 20
5.694294668759454
 10
4.886937746883276
 20
5.695190797446538
 10
4.885146849340195
 20
5.696085566302533
 10
4.883355951797117
 20
5.696981694989617
 10
4.881265891414635
 20
5.697877823676702
 10
4.879175831032167
 20
5.698474789524397
 10
4.877087130480788
 20
5.698772592532697
 10
4.874997070098313
 20
5.699071755372086
 10
4.870221343316767
 20
5.699369558380393
 10
4.869624377469065
 20
5.699071755372086
  0
LINE
  5
19E
330
2
100
AcDbEntity
  8
IMAGE
100
AcDbLine
 10
4.279771166006462
 20
5.912959682099567
 30
0.0
 11
4.279771166006462
 21
5.572959682099563
 31
0.0
  0
HATCH
  5
19F
330
2
100
AcDbEntity
  8
IMAGE
100
AcDbHatch
 10
0.0
 20
0.0
 30
0.0
210
0.0
220
0.0
230
1.0
  2
SOLID
 70
     1
 71
     1
 91
        2
 92
        1
 93
       83
 72
     1
 10
5.155600934798247
 20
5.740565641195601
 11
5.158587123867807
 21
5.740266478356213
 72
     1
 10
5.158587123867807
 20
5.740266478356213
 11
5.162168918953966
 21
5.740266478356213
 72
     1
 10
5.162168918953966
 20
5.740266478356213
 11
5.165451551200739
 21
5.740266478356213
 72
     1
 10
5.165451551200739
 20
5.740266478356213
 11
5.169034706117987
 21
5.740565641195601
 72
     1
 10
5.169034706117987
 20
5.740565641195601
 11
5.172616501204146
 21
5.740565641195601
 72
     1
 10
5.172616501204146
 20
5.740565641195601
 11
5.176497459129699
 21
5.740565641195601
 72
     1
 10
5.176497459129699
 20
5.740565641195601
 11
5.180079254215865
 21
5.740266478356213
 72
     1
 10
5.180079254215865
 20
5.740266478356213
 11
5.183662409133113
 21
5.739967315516824
 72
     1
 10
5.183662409133113
 20
5.739967315516824
 11
5.187244204219272
 21
5.739669512508517
 72
     1
 10
5.187244204219272
 20
5.739669512508517
 11
5.190526836466045
 21
5.739072546660822
 72
     1
 10
5.190526836466045
 20
5.739072546660822
 11
5.193810828543902
 21
5.738176417973738
 72
     1
 10
5.193810828543902
 20
5.738176417973738
 11
5.196795657782374
 21
5.736983846109441
 72
     1
 10
5.196795657782374
 20
5.736983846109441
 11
5.199781846851927
 21
5.735490751574662
 72
     1
 10
5.199781846851927
 20
5.735490751574662
 11
5.202467513251004
 21
5.733698494200495
 72
     1
 10
5.202467513251004
 20
5.733698494200495
 11
5.206945437024252
 21
5.729221930258332
 72
     1
 10
5.206945437024252
 20
5.729221930258332
 11
5.206945437024252
 21
5.728922767418944
 72
     1
 10
5.206945437024252
 20
5.728922767418944
 11
5.207244599863642
 21
5.728624964410643
 72
     1
 10
5.207244599863642
 20
5.728624964410643
 11
5.207244599863642
 21
5.728325801571254
 72
     1
 10
5.207244599863642
 20
5.728325801571254
 11
5.207244599863642
 21
5.72802663873186
 72
     1
 10
5.207244599863642
 20
5.72802663873186
 11
5.207542402871943
 21
5.72802663873186
 72
     1
 10
5.207542402871943
 20
5.72802663873186
 11
5.207542402871943
 21
5.727728835723559
 72
     1
 10
5.207542402871943
 20
5.727728835723559
 11
5.20784156571133
 21
5.727429672884165
 72
     1
 10
5.20784156571133
 20
5.727429672884165
 11
5.20784156571133
 21
5.727131869875864
 72
     1
 10
5.20784156571133
 20
5.727131869875864
 11
5.208139368719638
 21
5.727131869875864
 72
     1
 10
5.208139368719638
 20
5.727131869875864
 11
5.208737694398422
 21
5.725640135172173
 72
     1
 10
5.208737694398422
 20
5.725640135172173
 11
5.20933466024611
 21
5.7244448436457
 72
     1
 10
5.20933466024611
 20
5.7244448436457
 11
5.209632463254418
 21
5.722953108942008
 72
     1
 10
5.209632463254418
 20
5.722953108942008
 11
5.210229429102113
 21
5.721460014407229
 72
     1
 10
5.210229429102113
 20
5.721460014407229
 11
5.2105285919415
 21
5.719966919872456
 72
     1
 10
5.2105285919415
 20
5.719966919872456
 11
5.210826394949801
 21
5.718475185168765
 72
     1
 10
5.210826394949801
 20
5.718475185168765
 11
5.210826394949801
 21
5.716983450465074
 72
     1
 10
5.210826394949801
 20
5.716983450465074
 11
5.211125557789191
 21
5.715490355930294
 72
     1
 10
5.211125557789191
 20
5.715490355930294
 11
5.211125557789191
 21
5.713997261395515
 72
     1
 10
5.211125557789191
 20
5.713997261395515
 11
5.211125557789191
 21
5.712504166860735
 72
     1
 10
5.211125557789191
 20
5.712504166860735
 11
5.211125557789191
 21
5.71101243215705
 72
     1
 10
5.211125557789191
 20
5.71101243215705
 11
5.210826394949801
 21
5.709519337622271
 72
     1
 10
5.210826394949801
 20
5.709519337622271
 11
5.2105285919415
 21
5.707728440079191
 72
     1
 10
5.2105285919415
 20
5.707728440079191
 11
5.210229429102113
 21
5.706235345544412
 72
     1
 10
5.210229429102113
 20
5.706235345544412
 11
5.209632463254418
 21
5.703250516305947
 72
     1
 10
5.209632463254418
 20
5.703250516305947
 11
5.20903549740672
 21
5.702056584610557
 72
     1
 10
5.20903549740672
 20
5.702056584610557
 11
5.208737694398422
 21
5.700862652915172
 72
     1
 10
5.208737694398422
 20
5.700862652915172
 11
5.208438531559032
 21
5.699966524228088
 72
     1
 10
5.208438531559032
 20
5.699966524228088
 11
5.208139368719638
 21
5.698772592532697
 72
     1
 10
5.208139368719638
 20
5.698772592532697
 11
5.20784156571133
 21
5.697578660837307
 72
     1
 10
5.20784156571133
 20
5.697578660837307
 11
5.207244599863642
 21
5.696384729141922
 72
     1
 10
5.207244599863642
 20
5.696384729141922
 11
5.206945437024252
 21
5.695489960285926
 72
     1
 10
5.206945437024252
 20
5.695489960285926
 11
5.206647634015951
 21
5.694294668759454
 72
     1
 10
5.206647634015951
 20
5.694294668759454
 11
5.206050668168252
 21
5.693399899903457
 72
     1
 10
5.206050668168252
 20
5.693399899903457
 11
5.205751505328862
 21
5.692205968208067
 72
     1
 10
5.205751505328862
 20
5.692205968208067
 11
5.205452342489472
 21
5.691311199352071
 72
     1
 10
5.205452342489472
 20
5.691311199352071
 11
5.204856736472866
 21
5.690115907825599
 72
     1
 10
5.204856736472866
 20
5.690115907825599
 11
5.204259770625171
 21
5.689221138969602
 72
     1
 10
5.204259770625171
 20
5.689221138969602
 11
5.203662804777483
 21
5.688325010282518
 72
     1
 10
5.203662804777483
 20
5.688325010282518
 11
5.202766676090391
 21
5.686833275578827
 72
     1
 10
5.202766676090391
 20
5.686833275578827
 11
5.202467513251004
 21
5.686534112739439
 72
     1
 10
5.202467513251004
 20
5.686534112739439
 11
5.202467513251004
 21
5.686234949900044
 72
     1
 10
5.202467513251004
 20
5.686234949900044
 11
5.202169710242703
 21
5.685937146891743
 72
     1
 10
5.202169710242703
 20
5.685937146891743
 11
5.202169710242703
 21
5.685637984052348
 72
     1
 10
5.202169710242703
 20
5.685637984052348
 11
5.201870547403313
 21
5.685340181044048
 72
     1
 10
5.201870547403313
 20
5.685340181044048
 11
5.201870547403313
 21
5.68504101820466
 72
     1
 10
5.201870547403313
 20
5.68504101820466
 11
5.201870547403313
 21
5.684743215196353
 72
     1
 10
5.201870547403313
 20
5.684743215196353
 11
5.198587915156544
 21
5.67996612858372
 72
     1
 10
5.198587915156544
 20
5.67996612858372
 11
5.194706957230987
 21
5.675787367649859
 72
     1
 10
5.194706957230987
 20
5.675787367649859
 11
5.190825999305435
 21
5.672503375572
 72
     1
 10
5.190825999305435
 20
5.672503375572
 11
5.18634807553219
 21
5.669816349341836
 72
     1
 10
5.18634807553219
 20
5.669816349341836
 11
5.181572348750638
 21
5.668025451798755
 72
     1
 10
5.181572348750638
 20
5.668025451798755
 11
5.176497459129699
 21
5.666234554255676
 72
     1
 10
5.176497459129699
 20
5.666234554255676
 11
5.171123406669366
 21
5.665339785399679
 72
     1
 10
5.171123406669366
 20
5.665339785399679
 11
5.165750714040125
 21
5.664443656712596
 72
     1
 10
5.165750714040125
 20
5.664443656712596
 11
5.160078858571498
 21
5.664144493873201
 72
     1
 10
5.160078858571498
 20
5.664144493873201
 11
5.154407003102857
 21
5.6638466908649
 72
     1
 10
5.154407003102857
 20
5.6638466908649
 11
5.148437344625929
 21
5.6638466908649
 72
     1
 10
5.148437344625929
 20
5.6638466908649
 11
5.142765489157287
 21
5.6638466908649
 72
     1
 10
5.142765489157287
 20
5.6638466908649
 11
5.13679447084927
 21
5.6638466908649
 72
     1
 10
5.13679447084927
 20
5.6638466908649
 11
5.131122615380629
 21
5.664144493873201
 72
     1
 10
5.131122615380629
 20
5.664144493873201
 11
5.120078067282761
 21
5.664144493873201
 72
     1
 10
5.120078067282761
 20
5.664144493873201
 11
5.125749922751388
 21
5.6817570261268
 72
     1
 10
5.125749922751388
 20
5.6817570261268
 11
5.154109200094556
 21
5.740266478356213
 72
     1
 10
5.154109200094556
 20
5.740266478356213
 11
5.154407003102857
 21
5.740266478356213
 72
     1
 10
5.154407003102857
 20
5.740266478356213
 11
5.154706165942251
 21
5.740266478356213
 72
     1
 10
5.154706165942251
 20
5.740266478356213
 11
5.155003968950559
 21
5.740266478356213
 72
     1
 10
5.155003968950559
 20
5.740266478356213
 11
5.155303131789946
 21
5.740266478356213
 72
     1
 10
5.155303131789946
 20
5.740266478356213
 11
5.155600934798247
 21
5.740565641195601
 97
        1
330
194
 92
       16
 93
       51
 72
     1
 10
5.172318698195844
 20
5.721757817415536
 11
5.181572348750638
 21
5.720565245551234
 72
     1
 10
5.181572348750638
 20
5.720565245551234
 11
5.182169314598333
 21
5.71966911686415
 72
     1
 10
5.182169314598333
 20
5.71966911686415
 11
5.182467117606634
 21
5.719072151016454
 72
     1
 10
5.182467117606634
 20
5.719072151016454
 11
5.183064083454329
 21
5.718176022329376
 72
     1
 10
5.183064083454329
 20
5.718176022329376
 11
5.183363246293726
 21
5.717281253473374
 72
     1
 10
5.183363246293726
 20
5.717281253473374
 11
5.183363246293726
 21
5.71638512478629
 72
     1
 10
5.183363246293726
 20
5.71638512478629
 11
5.183662409133113
 21
5.715490355930294
 72
     1
 10
5.183662409133113
 20
5.715490355930294
 11
5.183662409133113
 21
5.71459422724321
 72
     1
 10
5.183662409133113
 20
5.71459422724321
 11
5.183662409133113
 21
5.713400295547826
 72
     1
 10
5.183662409133113
 20
5.713400295547826
 11
5.183662409133113
 21
5.712504166860735
 72
     1
 10
5.183662409133113
 20
5.712504166860735
 11
5.183662409133113
 21
5.711311594996439
 72
     1
 10
5.183662409133113
 20
5.711311594996439
 11
5.183662409133113
 21
5.710415466309355
 72
     1
 10
5.183662409133113
 20
5.710415466309355
 11
5.183662409133113
 21
5.709519337622271
 72
     1
 10
5.183662409133113
 20
5.709519337622271
 11
5.183363246293726
 21
5.708325405926887
 72
     1
 10
5.183363246293726
 20
5.708325405926887
 11
5.183363246293726
 21
5.707429277239796
 72
     1
 10
5.183363246293726
 20
5.707429277239796
 11
5.183363246293726
 21
5.705638379696717
 72
     1
 10
5.183363246293726
 20
5.705638379696717
 11
5.182766280446024
 21
5.70474361084072
 72
     1
 10
5.182766280446024
 20
5.70474361084072
 11
5.182467117606634
 21
5.703847482153636
 72
     1
 10
5.182467117606634
 20
5.703847482153636
 11
5.182169314598333
 21
5.702952713297641
 72
     1
 10
5.182169314598333
 20
5.702952713297641
 11
5.181870151758946
 21
5.702355747449945
 72
     1
 10
5.181870151758946
 20
5.702355747449945
 11
5.181572348750638
 21
5.701459618762862
 72
     1
 10
5.181572348750638
 20
5.701459618762862
 11
5.181273185911251
 21
5.700862652915172
 72
     1
 10
5.181273185911251
 20
5.700862652915172
 11
5.180975382902943
 21
5.699966524228088
 72
     1
 10
5.180975382902943
 20
5.699966524228088
 11
5.180676220063556
 21
5.699369558380393
 72
     1
 10
5.180676220063556
 20
5.699369558380393
 11
5.180378417055255
 21
5.698772592532697
 72
     1
 10
5.180378417055255
 20
5.698772592532697
 11
5.180079254215865
 21
5.698175626685002
 72
     1
 10
5.180079254215865
 20
5.698175626685002
 11
5.17978145120756
 21
5.697280857829006
 72
     1
 10
5.17978145120756
 20
5.697280857829006
 11
5.179482288368163
 21
5.696683891981317
 72
     1
 10
5.179482288368163
 20
5.696683891981317
 11
5.179184485359865
 21
5.696085566302533
 72
     1
 10
5.179184485359865
 20
5.696085566302533
 11
5.178885322520475
 21
5.695489960285926
 72
     1
 10
5.178885322520475
 20
5.695489960285926
 11
5.17828835667278
 21
5.694593831598842
 72
     1
 10
5.17828835667278
 20
5.694593831598842
 11
5.177094424977394
 21
5.693100737064069
 72
     1
 10
5.177094424977394
 20
5.693100737064069
 11
5.176198296290305
 21
5.691609002360378
 72
     1
 10
5.176198296290305
 20
5.691609002360378
 11
5.175004364594922
 21
5.690415070664987
 72
     1
 10
5.175004364594922
 20
5.690415070664987
 11
5.173810432899536
 21
5.689221138969602
 72
     1
 10
5.173810432899536
 20
5.689221138969602
 11
5.172616501204146
 21
5.688325010282518
 72
     1
 10
5.172616501204146
 20
5.688325010282518
 11
5.171123406669366
 21
5.687131078587127
 72
     1
 10
5.171123406669366
 20
5.687131078587127
 11
5.169929474973987
 21
5.686234949900044
 72
     1
 10
5.169929474973987
 20
5.686234949900044
 11
5.168437740270295
 21
5.685637984052348
 72
     1
 10
5.168437740270295
 20
5.685637984052348
 11
5.166944645735515
 21
5.684743215196353
 72
     1
 10
5.166944645735515
 20
5.684743215196353
 11
5.165153748192437
 21
5.684146249348657
 72
     1
 10
5.165153748192437
 20
5.684146249348657
 11
5.163662013488746
 21
5.683847086509269
 72
     1
 10
5.163662013488746
 20
5.683847086509269
 11
5.161869756114576
 21
5.683549283500968
 72
     1
 10
5.161869756114576
 20
5.683549283500968
 11
5.160078858571498
 21
5.683250120661573
 72
     1
 10
5.160078858571498
 20
5.683250120661573
 11
5.158287961028413
 21
5.683250120661573
 72
     1
 10
5.158287961028413
 20
5.683250120661573
 11
5.154706165942251
 21
5.683847086509269
 72
     1
 10
5.154706165942251
 20
5.683847086509269
 11
5.171123406669366
 21
5.721460014407229
 72
     1
 10
5.171123406669366
 20
5.721460014407229
 11
5.171422569508759
 21
5.721460014407229
 72
     1
 10
5.171422569508759
 20
5.721460014407229
 11
5.171721732348157
 21
5.721460014407229
 72
     1
 10
5.171721732348157
 20
5.721460014407229
 11
5.172019535356454
 21
5.721460014407229
 72
     1
 10
5.172019535356454
 20
5.721460014407229
 11
5.172318698195844
 21
5.721757817415536
 97
        1
330
191
 75
     0
 76
     1
 98
        1
 10
-24.04345607627116
 20
0.0542038838190433
  0
LWPOLYLINE
  5
1A0
330
2
100
AcDbEntity
  8
IMAGE
100
AcDbPolyline
 90
       91
 70
     0
 43
0.0
 10
4.869624377469065
 20
5.699071755372086
 10
4.869325214629679
 20
5.698772592532697
 10
4.868728248781987
 20
5.698772592532697
 10
4.868430445773686
 20
5.698772592532697
 10
4.868131282934292
 20
5.698474789524397
 10
4.867534317086597
 20
5.698474789524397
 10
4.867236514078296
 20
5.698474789524397
 10
4.86693735123891
 20
5.698474789524397
 10
4.866639548230608
 20
5.698474789524397
 10
4.866340385391207
 20
5.698175626685002
 10
4.866042582382906
 20
5.698175626685002
 10
4.865445616535218
 20
5.698175626685002
 10
4.865146453695828
 20
5.697877823676702
 10
4.864847290856435
 20
5.697578660837307
 10
4.864549487848126
 20
5.697280857829006
 10
4.86186246161797
 20
5.695489960285926
 10
4.859773761066584
 20
5.693697702911758
 10
4.857683700684109
 20
5.691311199352071
 10
4.855892803141028
 20
5.688921976130208
 10
4.854101905597946
 20
5.686234949900044
 10
4.85230964822378
 20
5.683549283500968
 10
4.850518750680699
 20
5.680862257270804
 10
4.848727853137621
 20
5.678175231040634
 10
4.846639152586234
 20
5.675787367649859
 10
4.844549092203759
 20
5.67339950425909
 10
4.842459031821292
 20
5.671608606716009
 10
4.840071168430522
 20
5.669816349341836
 10
4.837384142200352
 20
5.668623777477539
 10
4.834399312961881
 20
5.668025451798755
 10
4.827832688637251
 20
5.668324614638151
 10
4.823652567872311
 20
5.67011551218123
 10
4.820070772786152
 20
5.67190640972431
 10
4.816488977699986
 20
5.673996470106779
 10
4.81290718261382
 20
5.676085170658166
 10
4.809324027696572
 20
5.678175231040634
 10
4.806041395449803
 20
5.680563094431409
 10
4.802757403371941
 20
5.682653154813884
 10
4.799473411294084
 20
5.684743215196353
 10
4.796189419216226
 20
5.687131078587127
 10
4.792905427138364
 20
5.689221138969602
 10
4.789622794891595
 20
5.691609002360378
 10
4.786338802813741
 20
5.693697702911758
 10
4.783054810735876
 20
5.695787763294227
 10
4.779770818658022
 20
5.698175626685002
 10
4.773204194333391
 20
5.702355747449945
 10
4.774398126028778
 20
5.702653550458252
 10
4.775891220563554
 20
5.703250516305947
 10
4.777682118106636
 20
5.703250516305947
 10
4.779173852810327
 20
5.703250516305947
 10
4.780666947345107
 20
5.702952713297641
 10
4.782158682048798
 20
5.702653550458252
 10
4.783950939422965
 20
5.702355747449945
 10
4.785442674126656
 20
5.702056584610557
 10
4.786935768661436
 20
5.701459618762862
 10
4.788726666204517
 20
5.700862652915172
 10
4.790219760739294
 20
5.700265687067477
 10
4.791711495442985
 20
5.699668721219781
 10
4.793204589977761
 20
5.699071755372086
 10
4.794995487520839
 20
5.698772592532697
 10
4.797980316759304
 20
5.698175626685002
 10
4.792607624130063
 20
5.705340576688416
 10
4.793502392986066
 20
5.705638379696717
 10
4.794398521673144
 20
5.705937542536111
 10
4.795592453368534
 20
5.705937542536111
 10
4.796786385063924
 20
5.705937542536111
 10
4.797980316759304
 20
5.705638379696717
 10
4.798876445446396
 20
5.705340576688416
 10
4.800070377141778
 20
5.70474361084072
 10
4.801264308837165
 20
5.704444448001332
 10
4.802458240532555
 20
5.703847482153636
 10
4.803652172227945
 20
5.703250516305947
 10
4.804846103923331
 20
5.702653550458252
 10
4.806041395449803
 20
5.702056584610557
 10
4.806936164305803
 20
5.701757421771168
 10
4.808130096001189
 20
5.701459618762862
 10
4.810517959391965
 20
5.70116181575456
 10
4.810220156383664
 20
5.701757421771168
 10
4.810220156383664
 20
5.702355747449945
 10
4.809920993544274
 20
5.702952713297641
 10
4.809623190535962
 20
5.703250516305947
 10
4.809324027696572
 20
5.703847482153636
 10
4.809026224688274
 20
5.704444448001332
 10
4.808727061848884
 20
5.70474361084072
 10
4.808130096001189
 20
5.705340576688416
 10
4.80783229299288
 20
5.705638379696717
 10
4.807533130153494
 20
5.706235345544412
 10
4.806936164305803
 20
5.706833671223195
 10
4.806637001466409
 20
5.707429277239796
 10
4.806339198458108
 20
5.708026243087492
 10
4.806041395449803
 20
5.708624568766275
 10
4.806041395449803
 20
5.709817140630572
  0
TEXT
  5
1A1
330
2
100
AcDbEntity
  8
IMAGE
100
AcDbText
 10
4.492999274053783
 20
5.567804126701235
 30
0.0
 40
0.053125
  1
Pulse Transmitter
  7
ROMANS
100
AcDbText
  0
LWPOLYLINE
  5
1A2
330
2
100
AcDbEntity
  8
IMAGE
100
AcDbPolyline
 90
       25
 70
     0
 43
0.0
 10
4.806041395449803
 20
5.709817140630572
 10
4.807233967314104
 20
5.71101243215705
 10
4.823652567872311
 20
5.705937542536111
 10
4.823951730711701
 20
5.705937542536111
 10
4.823951730711701
 20
5.706235345544412
 10
4.824249533720003
 20
5.706235345544412
 10
4.824548696559389
 20
5.706534508383806
 10
4.824846499567698
 20
5.706534508383806
 10
4.824846499567698
 20
5.706833671223195
 10
4.825145662407091
 20
5.706833671223195
 10
4.825145662407091
 20
5.707131474231496
 10
4.825443465415393
 20
5.707429277239796
 10
4.825443465415393
 20
5.708026243087492
 10
4.821264704481531
 20
5.713400295547826
 10
4.83380234711419
 20
5.711609398004745
 10
4.834100150122491
 20
5.711609398004745
 10
4.834100150122491
 20
5.711907201013047
 10
4.834399312961881
 20
5.711907201013047
 10
4.834399312961881
 20
5.712206363852435
 10
4.834399312961881
 20
5.712504166860735
 10
4.834399312961881
 20
5.71280332970013
 10
4.834399312961881
 20
5.713101132708431
 10
4.834399312961881
 20
5.713400295547826
 10
4.834399312961881
 20
5.713698098556126
 10
4.834399312961881
 20
5.714295064403821
  0
LWPOLYLINE
  5
1A3
330
2
100
AcDbEntity
  8
IMAGE
100
AcDbPolyline
 90
       17
 70
     1
 43
0.0
 10
4.61499056689044
 20
5.713997261395515
 10
4.611707934643668
 20
5.697578660837307
 10
4.611110968795973
 20
5.696981694989617
 10
4.610514002948285
 20
5.696683891981317
 10
4.610214840108895
 20
5.696683891981317
 10
4.609617874261193
 20
5.696384729141922
 10
4.609020908413505
 20
5.696384729141922
 10
4.608423942565817
 20
5.696384729141922
 10
4.607826976718115
 20
5.696384729141922
 10
4.607230010870424
 20
5.696384729141922
 10
4.606633045022729
 20
5.696384729141922
 10
4.606036079175034
 20
5.696384729141922
 10
4.605439113327346
 20
5.696384729141922
 10
4.604542984640254
 20
5.696384729141922
 10
4.603946018792566
 20
5.696384729141922
 10
4.603349052944871
 20
5.696384729141922
 10
4.602155121249484
 20
5.696384729141922
  0
CIRCLE
  5
1A4
330
2
100
AcDbEntity
  8
IMAGE
100
AcDbCircle
 10
5.204773472626328
 20
5.646471482393447
 30
0.0
 40
0.0188980473000647
  0
TEXT
  5
1A5
330
2
100
AcDbEntity
  8
IMAGE
100
AcDbText
 10
5.19512822199584
 20
5.636629102981657
 30
0.0
 40
0.0206890946009828
  1
R
  7
ROMANS
100
AcDbText
  0
LWPOLYLINE
  5
1A6
330
2
100
AcDbEntity
  8
IMAGE
100
AcDbPolyline
 90
       32
 70
     1
 43
0.0
 10
4.957088713058258
 20
5.705937542536111
 10
4.970522484377998
 20
5.705638379696717
 10
4.971119450225685
 20
5.70474361084072
 10
4.971716416073387
 20
5.704146644993025
 10
4.972014219081689
 20
5.703549679145336
 10
4.972611184929377
 20
5.702653550458252
 10
4.972910347768767
 20
5.702056584610557
 10
4.972910347768767
 20
5.70116181575456
 10
4.97320951060816
 20
5.700265687067477
 10
4.97320951060816
 20
5.699668721219781
 10
4.97320951060816
 20
5.698772592532697
 10
4.972910347768767
 20
5.697877823676702
 10
4.972910347768767
 20
5.696981694989617
 10
4.972611184929377
 20
5.696085566302533
 10
4.972313381921075
 20
5.695190797446538
 10
4.972014219081689
 20
5.694294668759454
 10
4.971119450225685
 20
5.692802934055762
 10
4.969925518530303
 20
5.691012036512682
 10
4.968731586834916
 20
5.689816744986203
 10
4.967537655139526
 20
5.688624173121907
 10
4.966342363613048
 20
5.687428881595429
 10
4.964850628909363
 20
5.686833275578827
 10
4.963357534374587
 20
5.685937146891743
 10
4.961566636831502
 20
5.685340181044048
 10
4.960073542296729
 20
5.68504101820466
 10
4.958282644753648
 20
5.684444052356964
 10
4.956491747210563
 20
5.684146249348657
 10
4.954998652675783
 20
5.684146249348657
 10
4.953207755132705
 20
5.684146249348657
 10
4.951416857589624
 20
5.683847086509269
 10
4.949625960046546
 20
5.684146249348657
 10
4.946341967968677
 20
5.684444052356964
  0
LINE
  5
1A7
330
2
100
AcDbEntity
  8
IMAGE
100
AcDbLine
 10
5.117272020633052
 20
5.989459682099565
 30
0.0
 11
4.790137154913992
 21
5.989459682099565
 31
0.0
  0
LWPOLYLINE
  5
1A8
330
2
100
AcDbEntity
  8
IMAGE
100
AcDbPolyline
 90
       58
 70
     1
 43
0.0
 10
4.533198086769889
 20
5.747430068528532
 10
4.53409421545697
 20
5.747430068528532
 10
4.534988984312967
 20
5.747430068528532
 10
4.535885113000052
 20
5.747430068528532
 10
4.536779881856048
 20
5.747430068528532
 10
4.537973813551431
 20
5.747430068528532
 10
4.538869942238523
 20
5.747132265520232
 10
4.539766070925605
 20
5.747132265520232
 10
4.540960002620991
 20
5.747132265520232
 10
4.541854771476995
 20
5.746834462511931
 10
4.542750900164072
 20
5.746535299672537
 10
4.543645669020072
 20
5.746236136833148
 10
4.54454179770715
 20
5.745938333824847
 10
4.545437926394242
 20
5.745341367977152
 10
4.54603489224193
 20
5.744744402129456
 10
4.547526626945622
 20
5.743550470434072
 10
4.54722882393732
 20
5.734594622887578
 10
4.54603489224193
 20
5.733102888183887
 10
4.544839600715459
 20
5.731907596657414
 10
4.543645669020072
 20
5.730713664962023
 10
4.542451737324682
 20
5.729519733266639
 10
4.541257805629292
 20
5.728624964410643
 10
4.539766070925605
 20
5.727728835723559
 10
4.538272976390828
 20
5.726834066867563
 10
4.536482078847747
 20
5.72623574118878
 10
4.534988984312967
 20
5.725640135172173
 10
4.533198086769889
 20
5.725340972332784
 10
4.531407189226801
 20
5.724744006485089
 10
4.529616291683723
 20
5.7244448436457
 10
4.527824034309553
 20
5.7244448436457
 10
4.526033136766475
 20
5.7244448436457
 10
4.522451341680316
 20
5.724744006485089
 10
4.521854375832624
 20
5.725640135172173
 10
4.521854375832624
 20
5.726834066867563
 10
4.521854375832624
 20
5.727728835723559
 10
4.522153538672014
 20
5.728922767418944
 10
4.522451341680316
 20
5.730415861953723
 10
4.523048307528004
 20
5.731609793649114
 10
4.523645273375706
 20
5.732803725344498
 10
4.524541402062784
 20
5.734296819879271
 10
4.525138367910486
 20
5.735490751574662
 10
4.526033136766475
 20
5.736684683270053
 10
4.526929265453563
 20
5.738176417973738
 10
4.527526231301255
 20
5.739370349669129
 10
4.528422359988343
 20
5.740863444203908
 10
4.529019325836031
 20
5.742057375899292
 10
4.530511060539723
 20
5.744744402129456
 10
4.530810223379113
 20
5.745042205137763
 10
4.530810223379113
 20
5.745341367977152
 10
4.531108026387414
 20
5.74564053081654
 10
4.531108026387414
 20
5.745938333824847
 10
4.531407189226801
 20
5.746236136833148
 10
4.531407189226801
 20
5.746535299672537
 10
4.531704992235109
 20
5.746834462511931
 10
4.531704992235109
 20
5.747132265520232
 10
4.532004155074503
 20
5.747132265520232
 10
4.532303317913893
 20
5.747132265520232
 10
4.533198086769889
 20
5.747430068528532
  0
TEXT
  5
1A9
330
2
100
AcDbEntity
  8
IMAGE
100
AcDbText
 10
4.428158028554765
 20
6.151474946843063
 30
0.0
 40
0.03825
  1
Blue/White-
 41
0.9
  7
ROMANS
100
AcDbText
  0
LWPOLYLINE
  5
1AA
330
2
100
AcDbEntity
  8
IMAGE
100
AcDbPolyline
 90
        2
 70
     0
 43
0.002125
 10
4.414740124250947
 20
6.133959682099566
 10
4.56801005964202
 20
6.133959682099566
  0
LWPOLYLINE
  5
1AB
330
2
100
AcDbEntity
  8
IMAGE
100
AcDbPolyline
 90
        2
 70
     0
 43
0.002125
 10
4.771754122552803
 20
6.060683902192921
 10
4.771754122552803
 20
6.107295996377671
  0
LWPOLYLINE
  5
1AC
330
2
100
AcDbEntity
  8
IMAGE
100
AcDbPolyline
 90
        2
 70
     0
 43
0.002125
 10
4.56801005964202
 20
6.133959682099566
 10
4.771754122552803
 20
6.133959682099566
  0
TEXT
  5
1AD
330
2
100
AcDbEntity
  8
IMAGE
100
AcDbText
 10
4.603107099467329
 20
6.014251867021673
 30
0.0
 40
0.03825
  1
Blue+
 41
0.9
  7
ROMANS
100
AcDbText
  0
LWPOLYLINE
  5
1AE
330
2
100
AcDbEntity
  8
IMAGE
100
AcDbPolyline
 90
        3
 70
     0
 43
0.018
 10
4.790137154913992
 20
6.090230393381151
 10
4.519289983761943
 20
6.090230393381151
 10
4.519289983761943
 20
6.013641249524487
  0
LWPOLYLINE
  5
1AF
330
2
100
AcDbEntity
  8
IMAGE
100
AcDbPolyline
 90
       39
 70
     0
 43
0.0
 10
4.862393748467219
 20
5.755126305381202
 10
4.862459427465658
 20
5.755191984379641
 10
4.863653359161048
 20
5.756385916075026
 10
4.858280666531804
 20
5.770715816081848
 10
4.858578469540109
 20
5.770715816081848
 10
4.858877632379499
 20
5.770715816081848
 10
4.8591754353878
 20
5.771013619090155
 10
4.859474598227187
 20
5.770715816081848
 10
4.859773761066584
 20
5.770715816081848
 10
4.860071564074889
 20
5.770715816081848
 10
4.860370726914279
 20
5.770416653242459
 10
4.860668529922577
 20
5.770416653242459
 10
4.860967692761967
 20
5.77011749040307
 10
4.861265495770268
 20
5.77011749040307
 10
4.861564658609662
 20
5.76981968739477
 10
4.86186246161797
 20
5.76981968739477
 10
4.862161624457357
 20
5.769520524555376
 10
4.862459427465658
 20
5.769520524555376
 10
4.863355556152747
 20
5.76981968739477
 10
4.858578469540109
 20
5.783551261722808
 10
4.858877632379499
 20
5.783551261722808
 10
4.859474598227187
 20
5.783551261722808
 10
4.859773761066584
 20
5.783252098883419
 10
4.860071564074889
 20
5.783252098883419
 10
4.860668529922577
 20
5.782954295875113
 10
4.860967692761967
 20
5.782656492866812
 10
4.861265495770268
 20
5.782357330027418
 10
4.86186246161797
 20
5.782357330027418
 10
4.862161624457357
 20
5.782058167188028
 10
4.862459427465658
 20
5.781760364179728
 10
4.863057753144442
 20
5.781461201340333
 10
4.863355556152747
 20
5.781461201340333
 10
4.863653359161048
 20
5.781461201340333
 10
4.86425032500874
 20
5.781461201340333
 10
4.865445616535218
 20
5.782058167188028
 10
4.858280666531804
 20
5.802954691519481
 10
4.858578469540109
 20
5.802954691519481
 10
4.858877632379499
 20
5.802954691519481
 10
4.858877632379499
 20
5.802954691519481
  0
HATCH
  5
1B0
330
2
100
AcDbEntity
  8
IMAGE
100
AcDbHatch
 10
0.0
 20
0.0
 30
0.0
210
0.0
220
0.0
230
1.0
  2
SOLID
 70
     1
 71
     0
 91
        3
 92
       21
 93
        1
 72
     3
 10
4.991071271068815
 20
5.919631758809049
 11
-0.0832999999999999
 21
0.0
 40
0.4351876185496216
 50
0.0
 51
360.0
 73
     1
 97
        0
 92
        5
 93
        2
 72
     3
 10
4.991071271068815
 20
5.919631758809049
 11
-0.0832999999999999
 21
0.0
 40
0.4351876185496216
 50
-6.879938349969204
 51
6.709902911056179
 73
     0
 72
     2
 10
4.902569869822055
 20
5.919458972486103
 40
0.0125784014402833
 50
49.98344234131828
 51
310.863604371778
 73
     1
 97
        0
 92
        5
 93
        2
 72
     3
 10
4.991071271068815
 20
5.919631758809049
 11
-0.0832999999999999
 21
0.0
 40
0.4351876185496216
 50
173.2900970889451
 51
186.8799383499664
 73
     0
 72
     2
 10
5.079572672315578
 20
5.919458972486104
 40
0.0125784014402833
 50
229.1363956282017
 51
490.0165576587045
 73
     1
 97
        0
 75
     0
 76
     1
 47
0.0005210908982081
 98
        3
 10
4.976902214297282
 20
5.916677640118725
 10
4.899803128122563
 20
5.919778130222078
 10
5.08103028568431
 20
5.916677640118725
  0
LWPOLYLINE
  5
1B1
330
2
100
AcDbEntity
  8
IMAGE
100
AcDbPolyline
 90
       35
 70
     1
 43
0.0
 10
4.979776134932791
 20
5.746236136833148
 10
4.991119845870052
 20
5.74564053081654
 10
4.991417648878361
 20
5.744445239290068
 10
4.991716811717754
 20
5.743550470434072
 10
4.992014614726056
 20
5.742654341746982
 10
4.992014614726056
 20
5.741460410051598
 10
4.992014614726056
 20
5.740565641195601
 10
4.991716811717754
 20
5.739669512508517
 10
4.991417648878361
 20
5.738774743652522
 10
4.991119845870052
 20
5.737579452126043
 10
4.990822042861754
 20
5.736684683270053
 10
4.990223717182974
 20
5.735788554582962
 10
4.989626751335276
 20
5.734893785726967
 10
4.989328948326974
 20
5.733997657039883
 10
4.988731982479283
 20
5.733102888183887
 10
4.988135016631588
 20
5.732206759496803
 10
4.987538050783893
 20
5.730713664962023
 10
4.986342759257414
 20
5.72981753627494
 10
4.985447990401425
 20
5.729221930258332
 10
4.984254058706035
 20
5.728624964410643
 10
4.983060127010649
 20
5.72802663873186
 10
4.981866195315266
 20
5.727429672884165
 10
4.980672263619876
 20
5.727131869875864
 10
4.979179169085096
 20
5.726834066867563
 10
4.977985237389706
 20
5.726534904028174
 10
4.976492142854933
 20
5.72623574118878
 10
4.974999048320157
 20
5.72593793818048
 10
4.973806476455855
 20
5.72593793818048
 10
4.972313381921075
 20
5.72593793818048
 10
4.970820287386295
 20
5.725640135172173
 10
4.969626355690905
 20
5.725640135172173
 10
4.96693932946075
 20
5.72593793818048
 10
4.979179169085096
 20
5.746236136833148
 10
4.979476972093397
 20
5.746236136833148
 10
4.979776134932791
 20
5.746236136833148
  0
LWPOLYLINE
  5
1B2
330
2
100
AcDbEntity
  8
IMAGE
100
AcDbPolyline
 90
       10
 70
     0
 43
0.0
 10
4.860071564074889
 20
5.745341367977152
 10
4.860370726914279
 20
5.745341367977152
 10
4.860370726914279
 20
5.74564053081654
 10
4.860668529922577
 20
5.746236136833148
 10
4.85529583729334
 20
5.758176813618113
 10
4.855593640301638
 20
5.758475976457501
 10
4.855593640301638
 20
5.758775139296889
 10
4.855892803141028
 20
5.758775139296889
 10
4.856190606149329
 20
5.75907294230519
 10
4.862393748467219
 20
5.755126305381202
  0
ARC
  5
1B3
330
2
100
AcDbEntity
  8
IMAGE
100
AcDbCircle
 10
5.079572672315578
 20
5.919458972486104
 30
0.0
 40
0.0125784014402834
100
AcDbArc
 50
229.1363956322453
 51
130.0165576545509
  0
ARC
  5
1B4
330
2
100
AcDbEntity
  8
IMAGE
100
AcDbCircle
 10
4.902569869822055
 20
5.919458972486104
 30
0.0
 40
0.0125784014402834
100
AcDbArc
 50
49.98344234544904
 51
310.8636043677543
  0
ELLIPSE
  5
1B5
330
2
100
AcDbEntity
  8
IMAGE
100
AcDbEllipse
 10
4.991071271068815
 20
5.919631758809049
 30
0.0
 11
-0.0832999999999999
 21
0.0
 31
0.0
210
0.0
220
0.0
230
1.0
 40
0.4351876185496216
 41
0.0
 42
6.283185307179586
  0
TEXT
  5
1B6
330
2
100
AcDbEntity
  8
IMAGE
100
AcDbText
 10
5.73180370987994
 20
5.34415206639132
 30
0.0
 40
0.125
  1
RED
  7
L100
100
AcDbText
  0
LWPOLYLINE
  5
1B7
330
2
100
AcDbEntity
  8
IMAGE
100
AcDbPolyline
 90
        3
 70
     0
 43
0.0
 10
7.741249979754918
 20
5.351624469400157
 42
-0.5291747719520333
 10
7.741249979754918
 20
5.272234627192776
 42
0.5001668032613813
 10
7.741249979754918
 20
5.192844784985396
  0
LWPOLYLINE
  5
1B8
330
2
100
AcDbEntity
  8
IMAGE
100
AcDbPolyline
 90
        3
 70
     0
 43
0.0
 10
7.80659631615995
 20
5.351624469400157
 42
-0.5291747719520333
 10
7.80659631615995
 20
5.272234627192776
 42
0.5001668032613813
 10
7.80659631615995
 20
5.192844784985396
  0
LWPOLYLINE
  5
1B9
330
2
100
AcDbEntity
  8
IMAGE
100
AcDbPolyline
 90
        3
 70
     0
 43
0.0188
 10
7.037389182512018
 20
5.159622033635601
 10
7.037389182512018
 20
5.240239624711316
 10
7.721997104679868
 20
5.240239624711316
  0
LWPOLYLINE
  5
1BA
330
2
100
AcDbEntity
  8
IMAGE
100
AcDbPolyline
 90
        8
 70
     0
 10
7.827430741145445
 20
5.307879616262399
 40
0.0188
 41
0.0188
 10
8.041106342950328
 20
5.307879616262399
 40
0.018
 41
0.018
 10
8.41838472812617
 20
5.307879616262399
 40
0.018
 41
0.018
 10
8.481264452644033
 20
5.307879616262399
 40
0.018
 41
0.018
 10
8.526995157923511
 20
5.299309467330381
 40
0.018
 41
0.018
 10
8.564151353583792
 20
5.267885615656172
 40
0.018
 41
0.018
 10
8.555576843964601
 20
5.230748331360619
 40
0.018
 41
0.018
 10
8.464115433405648
 20
5.14504686978363
 40
0.018
 41
0.018
  0
LWPOLYLINE
  5
1BB
330
2
100
AcDbEntity
  8
IMAGE
100
AcDbPolyline
 90
        8
 70
     0
 10
7.787343441084903
 20
5.240239624711316
 40
0.0188
 41
0.0188
 10
8.001433383354854
 20
5.240239624711316
 40
0.018
 41
0.018
 10
8.159304077586856
 20
5.240239624711316
 40
0.018
 41
0.018
 10
8.293638036241777
 20
5.240239624711316
 40
0.018
 41
0.018
 10
8.442262818882909
 20
5.243096341021988
 40
0.018
 41
0.018
 10
8.470844504923999
 20
5.225956043157953
 40
0.018
 41
0.018
 10
8.467986347740488
 20
5.188818731119209
 40
0.018
 41
0.018
 10
8.419397485277503
 20
5.111687446217429
 40
0.018
 41
0.018
  0
ARC
  5
1BC
330
2
100
AcDbEntity
  8
IMAGE
100
AcDbCircle
 10
9.21443531888612
 20
5.225844680935677
 30
0.0
 40
0.0704477004764508
100
AcDbArc
 50
7.619275746447104
 51
232.19230261949
  0
ARC
  5
1BD
330
2
100
AcDbEntity
  8
IMAGE
100
AcDbCircle
 10
9.432369572202066
 20
5.196997413046632
 30
0.0
 40
0.1097332429163024
100
AcDbArc
 50
316.8144823509703
 51
129.0093566672406
  0
POLYLINE
  5
1BE
330
2
100
AcDbEntity
  8
IMAGE
100
AcDb2dPolyline
 66
     1
 10
0.0
 20
0.0
 30
0.0
 70
     4
 40
0.018
 41
0.018
 75
     6
  0
VERTEX
  5
1BF
330
1BE
100
AcDbEntity
  8
IMAGE
100
AcDbVertex
100
AcDb2dVertex
 10
9.527102115488478
 20
5.259339954365456
 30
0.0
 70
    16
  0
VERTEX
  5
1C0
330
1BE
100
AcDbEntity
  8
IMAGE
100
AcDbVertex
100
AcDb2dVertex
 10
9.527102115488478
 20
5.259339954365456
 30
0.0
 70
     8
  0
VERTEX
  5
1C1
330
1BE
100
AcDbEntity
  8
IMAGE
100
AcDbVertex
100
AcDb2dVertex
 10
9.542398834178214
 20
5.248149692471161
 30
0.0
 70
     8
  0
VERTEX
  5
1C2
330
1BE
100
AcDbEntity
  8
IMAGE
100
AcDbVertex
100
AcDb2dVertex
 10
9.554772662047948
 20
5.238675192742452
 30
0.0
 70
     8
  0
VERTEX
  5
1C3
330
1BE
100
AcDbEntity
  8
IMAGE
100
AcDbVertex
100
AcDb2dVertex
 10
9.564597143774285
 20
5.23064637720095
 30
0.0
 70
     8
  0
VERTEX
  5
1C4
330
1BE
100
AcDbEntity
  8
IMAGE
100
AcDbVertex
100
AcDb2dVertex
 10
9.572245824033824
 20
5.223793167868274
 30
0.0
 70
     8
  0
VERTEX
  5
1C5
330
1BE
100
AcDbEntity
  8
IMAGE
100
AcDbVertex
100
AcDb2dVertex
 10
9.578092247503164
 20
5.217845486766042
 30
0.0
 70
     8
  0
VERTEX
  5
1C6
330
1BE
100
AcDbEntity
  8
IMAGE
100
AcDbVertex
100
AcDb2dVertex
 10
9.58250995885891
 20
5.21253325591587
 30
0.0
 70
     8
  0
VERTEX
  5
1C7
330
1BE
100
AcDbEntity
  8
IMAGE
100
AcDbVertex
100
AcDb2dVertex
 10
9.585872502777657
 20
5.207586397339378
 30
0.0
 70
     8
  0
VERTEX
  5
1C8
330
1BE
100
AcDbEntity
  8
IMAGE
100
AcDbVertex
100
AcDb2dVertex
 10
9.588553423936012
 20
5.202734833058184
 30
0.0
 70
     8
  0
VERTEX
  5
1C9
330
1BE
100
AcDbEntity
  8
IMAGE
100
AcDbVertex
100
AcDb2dVertex
 10
9.590857591271056
 20
5.197746254174361
 30
0.0
 70
     8
  0
VERTEX
  5
1CA
330
1BE
100
AcDbEntity
  8
IMAGE
100
AcDbVertex
100
AcDb2dVertex
 10
9.592815170761838
 20
5.192539428111793
 30
0.0
 70
     8
  0
VERTEX
  5
1CB
330
1BE
100
AcDbEntity
  8
IMAGE
100
AcDbVertex
100
AcDb2dVertex
 10
9.594387652647871
 20
5.187070891374822
 30
0.0
 70
     8
  0
VERTEX
  5
1CC
330
1BE
100
AcDbEntity
  8
IMAGE
100
AcDbVertex
100
AcDb2dVertex
 10
9.595536527168686
 20
5.181297180467786
 30
0.0
 70
     8
  0
VERTEX
  5
1CD
330
1BE
100
AcDbEntity
  8
IMAGE
100
AcDbVertex
100
AcDb2dVertex
 10
9.596223284563812
 20
5.175174831895025
 30
0.0
 70
     8
  0
VERTEX
  5
1CE
330
1BE
100
AcDbEntity
  8
IMAGE
100
AcDbVertex
100
AcDb2dVertex
 10
9.596409415072773
 20
5.168660382160877
 30
0.0
 70
     8
  0
VERTEX
  5
1CF
330
1BE
100
AcDbEntity
  8
IMAGE
100
AcDbVertex
100
AcDb2dVertex
 10
9.596056408935091
 20
5.161710367769685
 30
0.0
 70
     8
  0
VERTEX
  5
1D0
330
1BE
100
AcDbEntity
  8
IMAGE
100
AcDbVertex
100
AcDb2dVertex
 10
9.595125756390295
 20
5.154281325225785
 30
0.0
 70
     8
  0
VERTEX
  5
1D1
330
1BE
100
AcDbEntity
  8
IMAGE
100
AcDbVertex
100
AcDb2dVertex
 10
9.593292049962375
 20
5.14620451389897
 30
0.0
 70
     8
  0
VERTEX
  5
1D2
330
1BE
100
AcDbEntity
  8
IMAGE
100
AcDbVertex
100
AcDb2dVertex
 10
9.589082291313193
 20
5.136810084620823
 30
0.0
 70
     8
  0
VERTEX
  5
1D3
330
1BE
100
AcDbEntity
  8
IMAGE
100
AcDbVertex
100
AcDb2dVertex
 10
9.580736584389068
 20
5.125302911088382
 30
0.0
 70
     8
  0
VERTEX
  5
1D4
330
1BE
100
AcDbEntity
  8
IMAGE
100
AcDbVertex
100
AcDb2dVertex
 10
9.566495033136327
 20
5.110887866998684
 30
0.0
 70
     8
  0
VERTEX
  5
1D5
330
1BE
100
AcDbEntity
  8
IMAGE
100
AcDbVertex
100
AcDb2dVertex
 10
9.544597741501295
 20
5.092769826048765
 30
0.0
 70
     8
  0
VERTEX
  5
1D6
330
1BE
100
AcDbEntity
  8
IMAGE
100
AcDbVertex
100
AcDb2dVertex
 10
9.513284813430296
 20
5.070153661935661
 30
0.0
 70
     8
  0
VERTEX
  5
1D7
330
1BE
100
AcDbEntity
  8
IMAGE
100
AcDbVertex
100
AcDb2dVertex
 10
9.470796352869648
 20
5.042244248356407
 30
0.0
 70
     8
  0
VERTEX
  5
1D8
330
1BE
100
AcDbEntity
  8
IMAGE
100
AcDbVertex
100
AcDb2dVertex
 10
9.415372463765685
 20
5.008246459008041
 30
0.0
 70
     8
  0
VERTEX
  5
1D9
330
1BE
100
AcDbEntity
  8
IMAGE
100
AcDbVertex
100
AcDb2dVertex
 10
9.572122592800305
 20
5.226971503779098
 30
0.0
 70
    16
  0
VERTEX
  5
1DA
330
1BE
100
AcDbEntity
  8
IMAGE
100
AcDbVertex
100
AcDb2dVertex
 10
9.591839590163154
 20
5.204599192344408
 30
0.0
 70
    16
  0
VERTEX
  5
1DB
330
1BE
100
AcDbEntity
  8
IMAGE
100
AcDbVertex
100
AcDb2dVertex
 10
9.601698088844575
 20
5.15985456947503
 30
0.0
 70
    16
  0
VERTEX
  5
1DC
330
1BE
100
AcDbEntity
  8
IMAGE
100
AcDbVertex
100
AcDb2dVertex
 10
9.581981091481729
 20
5.107731843898467
 30
0.0
 70
    16
  0
VERTEX
  5
1DD
330
1BE
100
AcDbEntity
  8
IMAGE
100
AcDbVertex
100
AcDb2dVertex
 10
9.415372463765685
 20
5.008246459008041
 30
0.0
 70
    16
  0
SEQEND
  5
1DE
330
1BE
100
AcDbEntity
  8
IMAGE
  0
LWPOLYLINE
  5
1DF
330
2
100
AcDbEntity
  8
IMAGE
100
AcDbPolyline
 90
        3
 70
     0
 43
0.018
 10
8.297479569978133
 20
5.362519854522005
 10
8.411094762349197
 20
5.098679815283629
 10
8.588054105758541
 20
4.846841103638137
  0
LINE
  5
1E0
330
2
100
AcDbEntity
  8
IMAGE
100
AcDbLine
 10
8.644555443670306
 20
4.85107321435905
 30
0.0
 11
9.363298279363803
 21
5.282264881090309
 31
0.0
  0
LWPOLYLINE
  5
1E1
330
2
100
AcDbEntity
  8
IMAGE
100
AcDbPolyline
 90
       78
 70
     0
 43
0.0264178667818252
 10
8.74857715577205
 20
5.156250624838
 10
8.760504476997258
 20
5.160594422951436
 10
8.773467277832867
 20
5.165722321644476
 10
8.784529408399556
 20
5.170447154064702
 10
8.794383391304311
 20
5.174903275636383
 10
8.803721749154128
 20
5.179225041783793
 10
8.813110462796789
 20
5.183520683265372
 10
8.822609346043215
 20
5.187793932176241
 10
8.832151670945123
 20
5.192022395945683
 10
8.841670709554229
 20
5.196183682002991
 10
8.851099733922243
 20
5.20025539777745
 10
8.860372016100885
 20
5.20421515069835
 10
8.869420828141862
 20
5.208040548194977
 10
8.878179442096893
 20
5.211709197696622
 10
8.886599687301448
 20
5.215213587771335
 10
8.894707622226047
 20
5.218605731542226
 10
8.902547862624974
 20
5.221952523271168
 10
8.910165024252503
 20
5.225320857220036
 10
8.917603722862914
 20
5.228777627650703
 10
8.924908574210487
 20
5.232389728825042
 10
8.932124194049499
 20
5.236224055004929
 10
8.939295198134235
 20
5.240347500452236
 10
8.946455048280402
 20
5.244808440678376
 10
8.953592590549426
 20
5.249581176192908
 10
8.960685517064174
 20
5.254621488754937
 10
8.967711519947499
 20
5.25988516012356
 10
8.974648291322267
 20
5.265327972057879
 10
8.98147352331134
 20
5.270905706316995
 10
8.988164908037571
 20
5.276574144660007
 10
8.994700137623826
 20
5.282289068846016
 10
9.001060622172488
 20
5.288013583099227
 10
9.007242643704032
 20
5.293740081504276
 10
9.013246202218457
 20
5.299468280610897
 10
9.019071297715768
 20
5.305197896968828
 10
9.024717930195958
 20
5.310928647127809
 10
9.030186099659037
 20
5.316660247637576
 10
9.03547580610499
 20
5.322392415047867
 10
9.040587049533833
 20
5.328124865908421
 10
9.045523482697369
 20
5.333861096105803
 10
9.050303369354658
 20
5.339619718873898
 10
9.054948626016585
 20
5.345423126783416
 10
9.059481169194011
 20
5.351293712405071
 10
9.063922915397817
 20
5.357253868309574
 10
9.068295781138878
 20
5.363325987067635
 10
9.072621682928065
 20
5.369532461249969
 10
9.076922537276253
 20
5.375895683427287
 10
9.081209237211169
 20
5.38243799892859
 10
9.085448581827943
 20
5.389181564116039
 10
9.08959634673857
 20
5.396148488110083
 10
9.093608307555026
 20
5.403360880031172
 10
9.097440239889305
 20
5.410840848999757
 10
9.101047919353391
 20
5.418610504136284
 10
9.10438712155927
 20
5.426691954561207
 10
9.107413622118929
 20
5.435107309394975
 10
9.110101786541967
 20
5.443863891102694
 10
9.112500339928455
 20
5.452909875528094
 10
9.11467659727608
 20
5.462178651859565
 10
9.116697873582523
 20
5.471603609285496
 10
9.118631483845472
 20
5.481118136994275
 10
9.120544743062605
 20
5.490655624174291
 10
9.122504966231616
 20
5.50014946001393
 10
9.12457946835018
 20
5.509533033701583
 10
9.126818637825003
 20
5.518771315509017
 10
9.129205156698823
 20
5.527955600041503
 10
9.131704780423408
 20
5.537208762987701
 10
9.134283264450509
 20
5.54665368003626
 10
9.136906364231894
 20
5.556413226875834
 10
9.139539835219313
 20
5.56661027919508
 10
9.142149432864531
 20
5.577367712682649
 10
9.144700912619306
 20
5.588808403027196
 10
9.14715650763901
 20
5.601767536426223
 10
9.149464361893443
 20
5.619929541112637
 10
9.151569097056025
 20
5.647691155828193
 10
9.153415334800179
 20
5.689449119314648
 10
9.154947696799311
 20
5.749600170313756
 10
9.156110804726843
 20
5.832541047567273
 10
9.156849280256189
 20
5.942668489816955
 10
9.157107745060766
 20
6.084379235804557
  0
LINE
  5
1E2
330
2
100
AcDbEntity
  8
IMAGE
100
AcDbLine
 10
8.397068195389806
 20
5.097518803009753
 30
0.0
 11
8.324731185784951
 21
5.051513691657406
 31
0.0
  0
LINE
  5
1E3
330
2
100
AcDbEntity
  8
IMAGE
100
AcDbLine
 10
8.39206776231153
 20
4.837585821186359
 30
0.0
 11
8.326061153120967
 21
4.800745491335452
 31
0.0
  0
LINE
  5
1E4
330
2
100
AcDbEntity
  8
IMAGE
100
AcDbLine
 10
8.280243866981312
 20
4.995893336293552
 30
0.0
 11
8.40385786531095
 21
4.820412047806043
 31
0.0
  0
LINE
  5
1E5
330
2
100
AcDbEntity
  8
IMAGE
100
AcDbLine
 10
8.324731185784951
 20
5.051513691657406
 30
0.0
 11
8.473058826351959
 21
4.840949145273256
 31
0.0
  0
LWPOLYLINE
  5
1E6
330
2
100
AcDbEntity
  8
IMAGE
100
AcDbPolyline
 90
       73
 70
     0
 43
0.0264178667818252
 10
8.206106505214105
 20
4.84688527838672
 10
8.150324647396878
 20
4.84284155332565
 10
8.102707276929631
 20
4.839256875964176
 10
8.06227969612787
 20
4.836052872304805
 10
8.028067207307095
 20
4.833151168350045
 10
7.999095112782811
 20
4.830473390102405
 10
7.974388714870524
 20
4.827941163564394
 10
7.952973315885731
 20
4.825476114738519
 10
7.933874218143937
 20
4.822999869627286
 10
7.916251288728311
 20
4.8204527147088
 10
7.89980265379264
 20
4.817849578363533
 10
7.884361004258376
 20
4.815224049447556
 10
7.869759031046978
 20
4.812609716816933
 10
7.855829425079889
 20
4.810040169327735
 10
7.842404877278571
 20
4.807548995836028
 10
7.829318078564472
 20
4.805169785197882
 10
7.816401719859047
 20
4.802936126269363
 10
7.803516246474746
 20
4.800861128625098
 10
7.790633121288042
 20
4.798875984713943
 10
7.777751561566397
 20
4.796891407703312
 10
7.764870784577286
 20
4.794818110760619
 10
7.751990007588172
 20
4.79256680705328
 10
7.739108447866531
 20
4.790048209748708
 10
7.726225322679823
 20
4.787173032014317
 10
7.713339849295525
 20
4.783851987017523
 10
7.700458941850992
 20
4.7800143066762
 10
7.687620301963143
 20
4.775663297910075
 10
7.674869328118791
 20
4.770820786389336
 10
7.662251418804746
 20
4.765508597784171
 10
7.649811972507819
 20
4.759748557764765
 10
7.637596387714818
 20
4.753562492001308
 10
7.625650062912555
 20
4.746972226163986
 10
7.614018396587841
 20
4.739999585922989
 10
7.602739155585311
 20
4.732662806578514
 10
7.591819580180871
 20
4.724965761950813
 10
7.581259279008261
 20
4.716908735490147
 10
7.571057860701209
 20
4.70849201064678
 10
7.561214933893459
 20
4.699715870870972
 10
7.551730107218737
 20
4.690580599612984
 10
7.542602989310783
 20
4.681086480323083
 10
7.533833188803328
 20
4.671233796451526
 10
7.5254315987241
 20
4.661033980492226
 10
7.517454249676791
 20
4.650543061113668
 10
7.509968456659084
 20
4.639828216027991
 10
7.503041534668668
 20
4.62895662294733
 10
7.496740798703221
 20
4.617995459583823
 10
7.491133563760435
 20
4.607011903649601
 10
7.486287144837987
 20
4.596073132856805
 10
7.482268856933568
 20
4.585246324917568
 10
7.4791235767123
 20
4.574587508500381
 10
7.476806427509057
 20
4.564108116099153
 10
7.475250094326156
 20
4.553808431164144
 10
7.474387262165912
 20
4.543688737145617
 10
7.474150616030641
 20
4.533749317493835
 10
7.474472840922661
 20
4.523990455659061
 10
7.475286621844279
 20
4.514412435091554
 10
7.476524643797819
 20
4.505015539241578
 10
7.478143921721773
 20
4.495790579596468
 10
7.480198790299347
 20
4.486690479791847
 10
7.482767914149931
 20
4.477658691500411
 10
7.48592995789291
 20
4.468638666394855
 10
7.489763586147674
 20
4.459573856147875
 10
7.494347463533607
 20
4.450407712432166
 10
7.499760254670096
 20
4.441083686920426
 10
7.506080624176536
 20
4.431545231285348
 10
7.513588790299092
 20
4.421605315595606
 10
7.523371185791095
 20
4.410554983503788
 10
7.536715797032666
 20
4.397554797058456
 10
7.554910610403911
 20
4.381765318308172
 10
7.579243612284955
 20
4.362347109301501
 10
7.611002789055913
 20
4.338460732087006
 10
7.651476127096895
 20
4.309266748713249
 10
7.685578571425669
 20
4.285389506012005
  0
TEXT
  5
1E7
330
2
100
AcDbEntity
  8
IMAGE
100
AcDbText
 10
7.508911860953549
 20
5.044778128815902
 30
0.0
 40
0.125
  1
BLACK
  7
L100
100
AcDbText
  0
LINE
  5
1E8
330
2
100
AcDbEntity
  8
IMAGE
100
AcDbLine
 10
7.004618542158791
 20
4.982051185998214
 30
0.0
 11
7.010335140563416
 21
5.140404193167244
 31
0.0
  0
LINE
  5
1E9
330
2
100
AcDbEntity
  8
IMAGE
100
AcDbLine
 10
7.020935607541769
 20
4.98204191570076
 30
0.0
 11
7.03340399915967
 21
5.140391086939123
 31
0.0
  0
LINE
  5
1EA
330
2
100
AcDbEntity
  8
IMAGE
100
AcDbLine
 10
6.971468377860116
 20
4.98207001976988
 30
0.0
 11
6.959179921675325
 21
5.140433256242266
 31
0.0
  0
LINE
  5
1EB
330
2
100
AcDbEntity
  8
IMAGE
100
AcDbLine
 10
6.987785443243094
 20
4.982060749472422
 30
0.0
 11
6.982248780271579
 21
5.140420150014149
 31
0.0
  0
LINE
  5
1EC
330
2
100
AcDbEntity
  8
IMAGE
100
AcDbLine
 10
7.051600807490462
 20
5.140380748693738
 30
0.0
 11
7.034674843691934
 21
4.976934676324271
 31
0.0
  0
ARC
  5
1ED
330
2
100
AcDbEntity
  8
IMAGE
100
AcDbCircle
 10
6.996202367150932
 20
4.982715053916299
 30
0.0
 40
0.0389042956022208
100
AcDbArc
 50
188.4795072373393
 51
351.4553892836563
  0
LINE
  5
1EE
330
2
100
AcDbEntity
  8
IMAGE
100
AcDbLine
 10
7.066029131243229
 20
5.14037255145668
 30
0.0
 11
7.066040056489679
 21
5.159602566620739
 31
0.0
  0
LINE
  5
1EF
330
2
100
AcDbEntity
  8
IMAGE
100
AcDbLine
 10
8.29247008177835
 20
4.977789412266266
 30
0.0
 11
8.231567453582428
 21
4.934887873048211
 31
0.0
  0
LINE
  5
1F0
330
2
100
AcDbEntity
  8
IMAGE
100
AcDbLine
 10
8.314198816032686
 20
4.816794083826589
 30
0.0
 11
8.257328071652917
 21
4.785052762654211
 31
0.0
  0
LINE
  5
1F1
330
2
100
AcDbEntity
  8
IMAGE
100
AcDbLine
 10
8.190717685046852
 20
4.879612251273885
 30
0.0
 11
8.257328071652917
 21
4.785052762654211
 31
0.0
  0
LINE
  5
1F2
330
2
100
AcDbEntity
  8
IMAGE
100
AcDbLine
 10
8.231567453582428
 20
4.934887873048211
 30
0.0
 11
8.326061153120967
 21
4.800745491335452
 31
0.0
  0
LINE
  5
1F3
330
2
100
AcDbEntity
  8
IMAGE
100
AcDbLine
 10
8.244178615532451
 20
4.917271647490466
 30
0.0
 11
8.190717685046852
 21
4.879612251273885
 31
0.0
  0
LINE
  5
1F4
330
2
100
AcDbEntity
  8
IMAGE
100
AcDbLine
 10
8.340961927552246
 20
5.030905723796104
 30
0.0
 11
8.280243866981312
 21
4.995893336293552
 31
0.0
  0
LWPOLYLINE
  5
1F5
330
2
100
AcDbEntity
  8
IMAGE
100
AcDbPolyline
 90
        2
 70
     0
 43
0.018
 10
9.271524455543794
 20
4.835420282182193
 42
1.0
 10
9.615375725576846
 20
4.835420282182193
 42
1.0
  0
LINE
  5
1F6
330
2
100
AcDbEntity
  8
IMAGE
100
AcDbLine
 10
8.547281663797452
 20
4.82092195256637
 30
0.0
 11
8.700220376674337
 21
4.603811570587709
 31
0.0
  0
LINE
  5
1F7
330
2
100
AcDbEntity
  8
IMAGE
100
AcDbLine
 10
8.572758604866539
 20
4.837117712561474
 30
0.0
 11
8.725697317743421
 21
4.620007330582814
 31
0.0
  0
LINE
  5
1F8
330
2
100
AcDbEntity
  8
IMAGE
100
AcDbLine
 10
8.603879010796404
 20
4.856901038354929
 30
0.0
 11
8.756817723673286
 21
4.639790656376269
 31
0.0
  0
LINE
  5
1F9
330
2
100
AcDbEntity
  8
IMAGE
100
AcDbLine
 10
8.629138695280516
 20
4.872958687754337
 30
0.0
 11
8.771391242549267
 21
4.671018287616286
 31
0.0
  0
LINE
  5
1FA
330
2
100
AcDbEntity
  8
IMAGE
100
AcDbLine
 10
8.776204679414416
 20
4.663446451074483
 30
0.0
 11
9.512380648189324
 21
5.121900060761154
 31
0.0
  0
LINE
  5
1FB
330
2
100
AcDbEntity
  8
IMAGE
100
AcDbLine
 10
8.700220376674337
 20
4.603811570587709
 30
0.0
 11
8.78133490119141
 21
4.655376292099341
 31
0.0
  0
LINE
  5
1FC
330
2
100
AcDbEntity
  8
IMAGE
100
AcDbLine
 10
8.771391242549267
 20
4.671018287616286
 30
0.0
 11
8.78133490119141
 21
4.655376292099341
 31
0.0
  0
LINE
  5
1FD
330
2
100
AcDbEntity
  8
IMAGE
100
AcDbLine
 10
8.622378262643795
 20
4.972488644917362
 30
0.0
 11
8.677972444624931
 21
5.012349302738972
 31
0.0
  0
LINE
  5
1FE
330
2
100
AcDbEntity
  8
IMAGE
100
AcDbLine
 10
8.397068195389806
 20
5.097518803009753
 30
0.0
 11
8.545395835956817
 21
4.886954256625602
 31
0.0
  0
LINE
  5
1FF
330
2
100
AcDbEntity
  8
IMAGE
100
AcDbLine
 10
8.375427206366747
 20
5.084022035325943
 30
0.0
 11
8.523754846933758
 21
4.873457488941791
 31
0.0
  0
LINE
  5
200
330
2
100
AcDbEntity
  8
IMAGE
100
AcDbLine
 10
8.487870733235119
 20
5.165745327883947
 30
0.0
 11
8.635005808551834
 21
4.954345737624923
 31
0.0
  0
LINE
  5
201
330
2
100
AcDbEntity
  8
IMAGE
100
AcDbLine
 10
8.439983850987228
 20
5.129225122250927
 30
0.0
 11
8.587118926303944
 21
4.917825531991904
 31
0.0
  0
LINE
  5
202
330
2
100
AcDbEntity
  8
IMAGE
100
AcDbLine
 10
8.419899396149325
 20
5.113505395228131
 30
0.0
 11
8.567034471466044
 21
4.902105804969107
 31
0.0
  0
LINE
  5
203
330
2
100
AcDbEntity
  8
IMAGE
100
AcDbLine
 10
8.546493779457019
 20
4.885943294857593
 30
0.0
 11
8.473693082131234
 21
4.840675517156514
 31
0.0
  0
LINE
  5
204
330
2
100
AcDbEntity
  8
IMAGE
100
AcDbLine
 10
8.547281663797452
 20
4.82092195256637
 30
0.0
 11
8.629138695280516
 21
4.872958687754337
 31
0.0
  0
LINE
  5
205
330
2
100
AcDbEntity
  8
IMAGE
100
AcDbLine
 10
8.567608947066183
 20
4.900728306725604
 30
0.0
 11
8.635046007162181
 21
4.953656145853265
 31
0.0
  0
LINE
  5
206
330
2
100
AcDbEntity
  8
IMAGE
100
AcDbLine
 10
8.46032893114064
 20
4.859020386752206
 30
0.0
 11
8.40385786531095
 21
4.820412047806043
 31
0.0
  0
LINE
  5
207
330
2
100
AcDbEntity
  8
IMAGE
100
AcDbLine
 10
8.69524051235075
 20
5.2328832329417
 30
0.0
 11
8.761315346499625
 21
5.137948746141474
 31
0.0
  0
LINE
  5
208
330
2
100
AcDbEntity
  8
IMAGE
100
AcDbLine
 10
8.66586681593273
 20
5.029302142466343
 30
0.0
 11
8.723060953220137
 21
5.078727975998098
 31
0.0
  0
LINE
  5
209
330
2
100
AcDbEntity
  8
IMAGE
100
AcDbLine
 10
8.629326990046379
 20
5.213402331284442
 30
0.0
 11
8.723060953220137
 21
5.078727975998098
 31
0.0
  0
LINE
  5
20A
330
2
100
AcDbEntity
  8
IMAGE
100
AcDbLine
 10
8.641567569808451
 20
5.195526621068638
 30
0.0
 11
8.69524051235075
 21
5.2328832329417
 31
0.0
  0
LINE
  5
20B
330
2
100
AcDbEntity
  8
IMAGE
100
AcDbLine
 10
8.501684665424694
 20
5.143445090325774
 30
0.0
 11
8.555352312025874
 21
5.188526504083714
 31
0.0
  0
LINE
  5
20C
330
2
100
AcDbEntity
  8
IMAGE
100
AcDbLine
 10
8.568182837968528
 20
5.170845723629108
 30
0.0
 11
8.629326990046379
 21
5.213402331284442
 31
0.0
  0
LINE
  5
20D
330
2
100
AcDbEntity
  8
IMAGE
100
AcDbLine
 10
8.419899396149325
 20
5.113505395228131
 30
0.0
 11
8.487870733235119
 21
5.165745327883947
 31
0.0
  0
LINE
  5
20E
330
2
100
AcDbEntity
  8
IMAGE
100
AcDbLine
 10
8.555352312025874
 20
5.188526504083714
 30
0.0
 11
8.677972444624931
 21
5.012349302738972
 31
0.0
  0
LINE
  5
20F
330
2
100
AcDbEntity
  8
IMAGE
100
AcDbLine
 10
8.71203735446851
 20
5.095363859885218
 30
0.0
 11
8.761315346499625
 21
5.137948746141474
 31
0.0
  0
ARC
  5
210
330
2
100
AcDbEntity
  8
IMAGE
100
AcDbCircle
 10
9.350457544883315
 20
4.989447823111037
 30
0.0
 40
0.0704477004764508
100
AcDbArc
 50
189.188991973977
 51
53.76201884701993
  0
LWPOLYLINE
  5
211
330
2
100
AcDbEntity
  8
IMAGE
100
AcDbPolyline
 90
        2
 70
     0
 43
0.018
 10
9.271524455543794
 20
4.835420282182191
 42
-1.0
 10
9.615375725576846
 20
4.835420282182191
 42
-1.0
  0
LWPOLYLINE
  5
212
330
2
100
AcDbEntity
  8
IMAGE
100
AcDbPolyline
 90
        3
 70
     0
 43
0.0188
 10
7.337813928558023
 20
5.388497207338113
 10
7.337813928558023
 20
5.307879616262399
 10
7.762084404740409
 20
5.307879616262399
  0
TEXT
  5
213
330
2
100
AcDbEntity
  8
IMAGE
100
AcDbText
 10
7.520748527932436
 20
5.385899861708552
 30
0.0
 40
0.125
  1
RED
  7
L100
100
AcDbText
  0
LINE
  5
214
330
2
100
AcDbEntity
  8
IMAGE
100
AcDbLine
 10
7.353045706432737
 20
5.407720169725603
 30
0.0
 11
7.33630547239985
 21
5.571185369043494
 31
0.0
  0
LINE
  5
215
330
2
100
AcDbEntity
  8
IMAGE
100
AcDbLine
 10
7.306243376534169
 20
5.566103014740836
 30
0.0
 11
7.311780039505691
 21
5.407743614199109
 31
0.0
  0
LINE
  5
216
330
2
100
AcDbEntity
  8
IMAGE
100
AcDbLine
 10
7.322560441917147
 20
5.566093744443378
 30
0.0
 11
7.334848898101938
 21
5.407730507970992
 31
0.0
  0
LINE
  5
217
330
2
100
AcDbEntity
  8
IMAGE
100
AcDbLine
 10
7.289410277618472
 20
5.566112578215044
 30
0.0
 11
7.283693679213847
 21
5.407759571046014
 31
0.0
  0
LINE
  5
218
330
2
100
AcDbEntity
  8
IMAGE
100
AcDbLine
 10
7.242428012286801
 20
5.40778301551952
 30
0.0
 11
7.259353976085328
 21
5.571229087888983
 31
0.0
  0
LINE
  5
219
330
2
100
AcDbEntity
  8
IMAGE
100
AcDbLine
 10
7.273093212235494
 20
5.566121848512498
 30
0.0
 11
7.260624820617593
 21
5.407772677274135
 31
0.0
  0
LINE
  5
21A
330
2
100
AcDbEntity
  8
IMAGE
100
AcDbLine
 10
7.367474030185498
 20
5.407711972488549
 30
0.0
 11
7.227999688534033
 21
5.407791212756578
 31
0.0
  0
LINE
  5
21B
330
2
100
AcDbEntity
  8
IMAGE
100
AcDbLine
 10
7.367463104939055
 20
5.388481957324502
 30
0.0
 11
7.227988763287584
 21
5.388561197592521
 31
0.0
  0
LINE
  5
21C
330
2
100
AcDbEntity
  8
IMAGE
100
AcDbLine
 10
7.227999688534033
 20
5.407791212756578
 30
0.0
 11
7.227988763287584
 21
5.388561197592521
 31
0.0
  0
LINE
  5
21D
330
2
100
AcDbEntity
  8
IMAGE
100
AcDbLine
 10
7.367474030185498
 20
5.407711972488549
 30
0.0
 11
7.367463104939055
 21
5.388481957324502
 31
0.0
  0
ARC
  5
21E
330
2
100
AcDbEntity
  8
IMAGE
100
AcDbCircle
 10
7.297826452626338
 20
5.565448710296951
 30
0.0
 40
0.0389042956022208
100
AcDbArc
 50
8.479507237339326
 51
171.4553892836564
  0
LWPOLYLINE
  5
21F
330
2
100
AcDbEntity
  8
IMAGE
100
AcDbPolyline
 90
        3
 70
     0
 43
0.0188
 10
4.319533582456347
 20
6.727862347185538
 10
4.238915991380633
 20
6.727862347185538
 10
4.238915991380633
 20
7.29575075779772
  0
ARC
  5
220
330
2
100
AcDbEntity
  8
IMAGE
100
AcDbCircle
 10
4.496485085415191
 20
6.688683156450566
 30
0.0
 40
0.0389042956022208
100
AcDbArc
 50
278.4795072373392
 51
81.45538928365647
  0
LINE
  5
221
330
2
100
AcDbEntity
  8
IMAGE
100
AcDbLine
 10
4.319518332442736
 20
6.619046504137842
 30
0.0
 11
4.319597572710755
 21
6.758520845789314
 31
0.0
  0
LINE
  5
222
330
2
100
AcDbEntity
  8
IMAGE
100
AcDbLine
 10
4.338748347606784
 20
6.619035578891399
 30
0.0
 11
4.338827587874813
 21
6.758509920542864
 31
0.0
  0
LINE
  5
223
330
2
100
AcDbEntity
  8
IMAGE
100
AcDbLine
 10
4.790137154913992
 20
6.278459682099568
 30
0.0
 11
5.117272020633055
 21
6.278459682099568
 31
0.0
  0
LINE
  5
224
330
2
100
AcDbEntity
  8
IMAGE
100
AcDbLine
 10
5.236272020633052
 20
6.342209682099563
 30
0.0
 11
4.695069331226385
 21
6.342209682099571
 31
0.0
  0
LINE
  5
225
330
2
100
AcDbEntity
  8
IMAGE
100
AcDbLine
 10
5.236272020633052
 20
6.384709682099567
 30
0.0
 11
4.678737326193012
 21
6.384709682099562
 31
0.0
  0
LINE
  5
226
330
2
100
AcDbEntity
  8
IMAGE
100
AcDbLine
 10
4.695069331226385
 20
6.342209682099571
 30
0.0
 11
4.307610289654203
 21
6.342209682099563
 31
0.0
  0
LWPOLYLINE
  5
227
330
2
100
AcDbEntity
  8
IMAGE
100
AcDbPolyline
 90
        2
 70
     0
 43
0.002125
 10
4.72555743418588
 20
6.278425212784903
 10
4.414740124250947
 20
6.278184046006157
  0
LWPOLYLINE
  5
228
330
2
100
AcDbEntity
  8
IMAGE
100
AcDbPolyline
 90
        4
 70
     0
 43
0.018
 10
4.790137154913992
 20
6.229395411805637
 10
4.463059363282908
 20
6.229395411805637
 10
4.463059363282908
 20
6.301650916880734
 10
4.238915991380633
 20
6.301650916880734
  0
LWPOLYLINE
  5
229
330
2
100
AcDbEntity
  8
IMAGE
100
AcDbPolyline
 90
        2
 70
     0
 43
0.018
 10
4.238915991380633
 20
6.301650916880734
 10
4.238915991380633
 20
6.438186722883536
  0
LWPOLYLINE
  5
22A
330
2
100
AcDbEntity
  8
IMAGE
100
AcDbPolyline
 90
        2
 70
     0
 43
0.002125
 10
4.771754122552803
 20
6.203250551744905
 10
4.771754122552803
 20
6.209576966156572
  0
LWPOLYLINE
  5
22B
330
2
100
AcDbEntity
  8
IMAGE
100
AcDbPolyline
 90
        3
 70
     0
 43
0.002125
 10
4.771754122552803
 20
6.209576966156572
 10
4.771754122552803
 20
6.278459682099568
 10
4.72555743418588
 20
6.278425212784903
  0
LINE
  5
22C
330
2
100
AcDbEntity
  8
IMAGE
100
AcDbLine
 10
4.338756544843839
 20
6.63346390264416
 30
0.0
 11
4.50222174416173
 21
6.650204136677047
 31
0.0
  0
LWPOLYLINE
  5
22D
330
2
100
AcDbEntity
  8
IMAGE
100
AcDbPolyline
 90
        2
 70
     0
 43
0.018
 10
4.238915991380633
 20
6.503533059288568
 10
4.238915991380633
 20
6.530687076355984
  0
LINE
  5
22E
330
2
100
AcDbEntity
  8
IMAGE
100
AcDbLine
 10
4.338748347606784
 20
6.619035578891399
 30
0.0
 11
4.319518332442736
 21
6.619046504137842
 31
0.0
  0
LWPOLYLINE
  5
22F
330
2
100
AcDbEntity
  8
IMAGE
100
AcDbPolyline
 90
        3
 70
     0
 10
4.238915991380633
 20
6.530687076355984
 40
0.0188
 41
0.0188
 10
4.238915991380633
 20
6.648695680518872
 40
0.0188
 41
0.0188
 10
4.319533582456347
 20
6.648695680518872
 40
0.0
 41
0.0
  0
LINE
  5
230
330
2
100
AcDbEntity
  8
IMAGE
100
AcDbLine
 10
4.497130119561614
 20
6.66394916715975
 30
0.0
 11
4.338766883089228
 21
6.651660710974959
 31
0.0
  0
LINE
  5
231
330
2
100
AcDbEntity
  8
IMAGE
100
AcDbLine
 10
4.497139389859071
 20
6.680266232542728
 30
0.0
 11
4.338779989317345
 21
6.674729569571206
 31
0.0
  0
ARC
  5
232
330
2
100
AcDbEntity
  8
IMAGE
100
AcDbCircle
 10
5.236272020633052
 20
6.278459682099568
 30
0.0
 40
0.06375
100
AcDbArc
 50
0.0
 51
90.0
  0
ARC
  5
233
330
2
100
AcDbEntity
  8
IMAGE
100
AcDbCircle
 10
5.236272020633052
 20
6.278459682099568
 30
0.0
 40
0.10625
100
AcDbArc
 50
0.0
 51
90.0
  0
LINE
  5
234
330
2
100
AcDbEntity
  8
IMAGE
100
AcDbLine
 10
4.338819390637755
 20
6.744081596790096
 30
0.0
 11
4.502265463007219
 21
6.727155632991569
 31
0.0
  0
LINE
  5
235
330
2
100
AcDbEntity
  8
IMAGE
100
AcDbLine
 10
4.338827587874813
 20
6.758509920542864
 30
0.0
 11
4.319597572710755
 21
6.758520845789314
 31
0.0
  0
LINE
  5
236
330
2
100
AcDbEntity
  8
IMAGE
100
AcDbLine
 10
4.49714895333328
 20
6.697099331458425
 30
0.0
 11
4.33879594616425
 21
6.70281592986305
 31
0.0
  0
LINE
  5
237
330
2
100
AcDbEntity
  8
IMAGE
100
AcDbLine
 10
4.497158223630734
 20
6.713416396841403
 30
0.0
 11
4.33880905239237
 21
6.725884788459304
 31
0.0
  0
LINE
  5
238
330
2
100
AcDbEntity
  8
IMAGE
100
AcDbLine
 10
4.322561821418617
 20
8.027466138093704
 30
0.0
 11
4.322561821418617
 21
8.051764461713467
 31
0.0
  0
LINE
  5
239
330
2
100
AcDbEntity
  8
IMAGE
100
AcDbLine
 10
4.322561821418617
 20
8.051764461713467
 30
0.0
 11
4.322561821418617
 21
8.100361108952988
 31
0.0
  0
TEXT
  5
23A
330
2
100
AcDbEntity
  8
IMAGE
100
AcDbText
 10
4.173563282906449
 20
7.930192163403032
 30
0.0
 40
0.1121461090142779
  1
-
  7
L100
100
AcDbText
  0
LINE
  5
23B
330
2
100
AcDbEntity
  8
IMAGE
100
AcDbLine
 10
4.298263497798856
 20
8.027466138093704
 30
0.0
 11
4.298263497798856
 21
8.051764461713467
 31
0.0
  0
LINE
  5
23C
330
2
100
AcDbEntity
  8
IMAGE
100
AcDbLine
 10
4.201070203319822
 20
8.051764461713467
 30
0.0
 11
4.201070203319822
 21
8.100361108952988
 31
0.0
  0
LINE
  5
23D
330
2
100
AcDbEntity
  8
IMAGE
100
AcDbLine
 10
4.298263497798856
 20
8.027466138093704
 30
0.0
 11
4.322561821418617
 21
8.027466138093704
 31
0.0
  0
LINE
  5
23E
330
2
100
AcDbEntity
  8
IMAGE
100
AcDbLine
 10
4.201070203319822
 20
8.051764461713467
 30
0.0
 11
4.322561821418617
 21
8.051764461713467
 31
0.0
  0
LINE
  5
23F
330
2
100
AcDbEntity
  8
IMAGE
100
AcDbLine
 10
4.185283659792915
 20
7.904105294997365
 30
0.0
 11
4.422640596557293
 21
7.904105294997365
 31
0.0
  0
LINE
  5
240
330
2
100
AcDbEntity
  8
IMAGE
100
AcDbLine
 10
4.422640596557293
 20
7.904105294997365
 30
0.0
 11
4.422640596557293
 21
7.97886936767355
 31
0.0
  0
INSERT
  5
241
330
2
100
AcDbEntity
  8
IMAGE
100
AcDbBlockReference
  2
7
 10
4.148869979552827
 20
8.559546179795379
 30
0.0
 41
0.7476407267618513
 42
0.747640726761853
 43
0.7476407267618525
  0
INSERT
  5
24A
330
2
100
AcDbEntity
  8
IMAGE
100
AcDbBlockReference
  2
7
 10
4.152879892439777
 20
8.197054906043426
 30
0.0
 41
0.7476407267618513
 42
0.747640726761853
 43
0.7476407267618525
  0
LINE
  5
24B
330
2
100
AcDbEntity
  8
IMAGE
100
AcDbLine
 10
3.689144743961229
 20
8.29474769791107
 30
0.0
 11
4.402223888842954
 21
8.29474769791107
 31
0.0
  0
LINE
  5
24C
330
2
100
AcDbEntity
  8
IMAGE
100
AcDbLine
 10
3.689144743961229
 20
8.464835963249392
 30
0.0
 11
4.402223888842954
 21
8.464835963249392
 31
0.0
  0
LINE
  5
24D
330
2
100
AcDbEntity
  8
IMAGE
100
AcDbLine
 10
3.178879947946263
 20
8.659222552207474
 30
0.0
 11
4.402223888842954
 21
8.659222552207474
 31
0.0
  0
LINE
  5
24E
330
2
100
AcDbEntity
  8
IMAGE
100
AcDbLine
 10
3.154581624326503
 20
8.829310817545792
 30
0.0
 11
4.402223888842954
 21
8.829310817545792
 31
0.0
  0
INSERT
  5
24F
330
2
100
AcDbEntity
  8
IMAGE
100
AcDbBlockReference
  2
7
 10
3.855629432772083
 20
8.559546179795379
 30
0.0
 41
0.7476407267618513
 42
0.747640726761853
 43
0.7476407267618525
  0
INSERT
  5
250
330
2
100
AcDbEntity
  8
IMAGE
100
AcDbBlockReference
  2
7
 10
3.274327207257172
 20
8.559546179795379
 30
0.0
 41
0.7476407267618513
 42
0.747640726761853
 43
0.7476407267618525
  0
INSERT
  5
251
330
2
100
AcDbEntity
  8
IMAGE
100
AcDbBlockReference
  2
7
 10
3.567694683112222
 20
8.559546179795379
 30
0.0
 41
0.7476407267618513
 42
0.747640726761853
 43
0.7476407267618525
  0
LINE
  5
252
330
2
100
AcDbEntity
  8
IMAGE
100
AcDbLine
 10
3.178879947946263
 20
8.464835963249392
 30
0.0
 11
3.470459831383386
 21
8.464835963249392
 31
0.0
  0
LINE
  5
253
330
2
100
AcDbEntity
  8
IMAGE
100
AcDbLine
 10
3.397564860524106
 20
8.464835963249392
 30
0.0
 11
3.76203971482051
 21
8.464835963249392
 31
0.0
  0
LINE
  5
254
330
2
100
AcDbEntity
  8
IMAGE
100
AcDbLine
 10
3.178879947946263
 20
8.29474769791107
 30
0.0
 11
3.470459831383386
 21
8.29474769791107
 31
0.0
  0
LINE
  5
255
330
2
100
AcDbEntity
  8
IMAGE
100
AcDbLine
 10
3.397564860524106
 20
8.29474769791107
 30
0.0
 11
3.76203971482051
 21
8.29474769791107
 31
0.0
  0
LINE
  5
256
330
2
100
AcDbEntity
  8
TEXT_BUBBLES
100
AcDbLine
 10
3.143463729367625
 20
7.469394458786919
 30
0.0
 11
2.904881639192929
 21
7.226724501201474
 31
0.0
  0
INSERT
  5
257
330
2
100
AcDbEntity
  8
IMAGE
100
AcDbBlockReference
  2
7
 10
3.274327207257172
 20
8.195632449443138
 30
0.0
 41
0.7476407267618513
 42
0.747640726761853
 43
0.7476407267618525
  0
SOLID
  5
258
330
2
100
AcDbEntity
  8
TEXT_BUBBLES
100
AcDbTrace
 10
3.128607742146201
 20
7.484000191272987
 30
0.0
 11
3.158319716589059
 21
7.454788726300855
 31
0.0
 12
3.231098124284013
 22
7.558530382115507
 32
0.0
 13
3.231098124284013
 23
7.558530382115507
 33
0.0
  0
INSERT
  5
259
330
2
100
AcDbEntity
  8
IMAGE
100
AcDbBlockReference
  2
7
 10
3.567694683112222
 20
8.195632449443138
 30
0.0
 41
0.7476407267618513
 42
0.747640726761853
 43
0.7476407267618525
  0
INSERT
  5
25A
330
2
100
AcDbEntity
  8
IMAGE
100
AcDbBlockReference
  2
7
 10
3.859639345659033
 20
8.197054906043426
 30
0.0
 41
0.7476407267618513
 42
0.747640726761853
 43
0.7476407267618525
  0
LINE
  5
25B
330
2
100
AcDbEntity
  8
IMAGE
100
AcDbLine
 10
3.446161507763626
 20
8.707819199446994
 30
0.0
 11
3.446161507763626
 21
8.756415846686511
 31
0.0
  0
LINE
  5
25C
330
2
100
AcDbEntity
  8
IMAGE
100
AcDbLine
 10
3.324669889664825
 20
8.707819199446994
 30
0.0
 11
3.324669889664825
 21
8.756415846686511
 31
0.0
  0
LINE
  5
25D
330
2
100
AcDbEntity
  8
IMAGE
100
AcDbLine
 10
3.324669889664825
 20
8.707819199446994
 30
0.0
 11
3.446161507763626
 21
8.707819199446994
 31
0.0
  0
LINE
  5
25E
330
2
100
AcDbEntity
  8
IMAGE
100
AcDbLine
 10
3.324669889664825
 20
8.756415846686511
 30
0.0
 11
3.446161507763626
 21
8.756415846686511
 31
0.0
  0
LINE
  5
25F
330
2
100
AcDbEntity
  8
IMAGE
100
AcDbLine
 10
3.421863184143866
 20
8.780714170306271
 30
0.0
 11
3.446161507763626
 21
8.780714170306271
 31
0.0
  0
LINE
  5
260
330
2
100
AcDbEntity
  8
IMAGE
100
AcDbLine
 10
3.421863184143866
 20
8.756415846686511
 30
0.0
 11
3.421863184143866
 21
8.780714170306271
 31
0.0
  0
LINE
  5
261
330
2
100
AcDbEntity
  8
IMAGE
100
AcDbLine
 10
3.446161507763626
 20
8.756415846686511
 30
0.0
 11
3.446161507763626
 21
8.780714170306271
 31
0.0
  0
LINE
  5
262
330
2
100
AcDbEntity
  8
IMAGE
100
AcDbLine
 10
3.616249773101948
 20
8.707819199446994
 30
0.0
 11
3.616249773101948
 21
8.756415846686511
 31
0.0
  0
LINE
  5
263
330
2
100
AcDbEntity
  8
IMAGE
100
AcDbLine
 10
3.737741391200749
 20
8.707819199446994
 30
0.0
 11
3.737741391200749
 21
8.756415846686511
 31
0.0
  0
LINE
  5
264
330
2
100
AcDbEntity
  8
IMAGE
100
AcDbLine
 10
3.616249773101948
 20
8.707819199446994
 30
0.0
 11
3.737741391200749
 21
8.707819199446994
 31
0.0
  0
LINE
  5
265
330
2
100
AcDbEntity
  8
IMAGE
100
AcDbLine
 10
3.616249773101948
 20
8.756415846686511
 30
0.0
 11
3.737741391200749
 21
8.756415846686511
 31
0.0
  0
LINE
  5
266
330
2
100
AcDbEntity
  8
IMAGE
100
AcDbLine
 10
3.713443067580989
 20
8.780714170306271
 30
0.0
 11
3.737741391200749
 21
8.780714170306271
 31
0.0
  0
LINE
  5
267
330
2
100
AcDbEntity
  8
IMAGE
100
AcDbLine
 10
3.713443067580989
 20
8.756415846686511
 30
0.0
 11
3.713443067580989
 21
8.780714170306271
 31
0.0
  0
LINE
  5
268
330
2
100
AcDbEntity
  8
IMAGE
100
AcDbLine
 10
3.737741391200749
 20
8.756415846686511
 30
0.0
 11
3.737741391200749
 21
8.780714170306271
 31
0.0
  0
LINE
  5
269
330
2
100
AcDbEntity
  8
IMAGE
100
AcDbLine
 10
4.029321274637872
 20
8.707819199446994
 30
0.0
 11
4.029321274637872
 21
8.756415846686511
 31
0.0
  0
LINE
  5
26A
330
2
100
AcDbEntity
  8
IMAGE
100
AcDbLine
 10
3.907829656539071
 20
8.707819199446994
 30
0.0
 11
3.907829656539071
 21
8.756415846686511
 31
0.0
  0
LINE
  5
26B
330
2
100
AcDbEntity
  8
IMAGE
100
AcDbLine
 10
3.907829656539071
 20
8.707819199446994
 30
0.0
 11
4.029321274637872
 21
8.707819199446994
 31
0.0
  0
LINE
  5
26C
330
2
100
AcDbEntity
  8
IMAGE
100
AcDbLine
 10
4.005022951018112
 20
8.780714170306271
 30
0.0
 11
4.029321274637872
 21
8.780714170306271
 31
0.0
  0
LINE
  5
26D
330
2
100
AcDbEntity
  8
IMAGE
100
AcDbLine
 10
3.907829656539071
 20
8.756415846686511
 30
0.0
 11
4.029321274637872
 21
8.756415846686511
 31
0.0
  0
LINE
  5
26E
330
2
100
AcDbEntity
  8
IMAGE
100
AcDbLine
 10
4.005022951018112
 20
8.756415846686511
 30
0.0
 11
4.005022951018112
 21
8.780714170306271
 31
0.0
  0
LINE
  5
26F
330
2
100
AcDbEntity
  8
IMAGE
100
AcDbLine
 10
4.029321274637872
 20
8.756415846686511
 30
0.0
 11
4.029321274637872
 21
8.780714170306271
 31
0.0
  0
LINE
  5
270
330
2
100
AcDbEntity
  8
IMAGE
100
AcDbLine
 10
4.322561821418617
 20
8.707819199446994
 30
0.0
 11
4.322561821418617
 21
8.756415846686511
 31
0.0
  0
LINE
  5
271
330
2
100
AcDbEntity
  8
IMAGE
100
AcDbLine
 10
4.322561821418617
 20
8.756415846686511
 30
0.0
 11
4.322561821418617
 21
8.780714170306271
 31
0.0
  0
LINE
  5
272
330
2
100
AcDbEntity
  8
IMAGE
100
AcDbLine
 10
4.201070203319822
 20
8.707819199446994
 30
0.0
 11
4.201070203319822
 21
8.756415846686511
 31
0.0
  0
LINE
  5
273
330
2
100
AcDbEntity
  8
IMAGE
100
AcDbLine
 10
4.298263497798856
 20
8.756415846686511
 30
0.0
 11
4.298263497798856
 21
8.780714170306271
 31
0.0
  0
LINE
  5
274
330
2
100
AcDbEntity
  8
IMAGE
100
AcDbLine
 10
4.201070203319822
 20
8.707819199446994
 30
0.0
 11
4.322561821418617
 21
8.707819199446994
 31
0.0
  0
LINE
  5
275
330
2
100
AcDbEntity
  8
IMAGE
100
AcDbLine
 10
4.298263497798856
 20
8.780714170306271
 30
0.0
 11
4.322561821418617
 21
8.780714170306271
 31
0.0
  0
LINE
  5
276
330
2
100
AcDbEntity
  8
IMAGE
100
AcDbLine
 10
4.201070203319822
 20
8.756415846686511
 30
0.0
 11
4.322561821418617
 21
8.756415846686511
 31
0.0
  0
MTEXT
  5
277
330
2
100
AcDbEntity
  8
TEXT_BUBBLES
100
AcDbMText
 10
11.5128035631705
 20
7.568233406623071
 30
0.0
 40
0.1250000019
 41
3.7237
 71
     1
 72
     5
  1
TO RAIN BIRD ESP-SAT OR ESP-SITE-SAT SENSOR INPUT\P\PRAIN BIRD ANEMOMETER WIND SPEED SENSOR ON POLE IN UNOBSTRUCTED AREA\P\PRAIN BIRD MODEL PT322 TRANSMITTER\P\PRAIN BIRD PTPWRSUPP POWER SUPPLY\P\PGREEN WIRE TO GROUND
  7
L100
 73
     2
 44
1.0
  0
INSERT
  5
278
330
2
100
AcDbEntity
  8
TEXT_BUBBLES
100
AcDbBlockReference
 66
     1
  2
bubble
 10
11.15817940477742
 20
5.411548271069945
 30
0.0
  0
ATTRIB
  5
279
330
278
100
AcDbEntity
  8
TEXT_BUBBLES
100
AcDbText
 10
11.09567940477742
 20
5.349048271069945
 30
0.0
 40
0.125
  1
4
  7
ROMANS
 72
     4
 11
11.15817940477742
 21
5.411548271069945
 31
0.0
100
AcDbAttribute
  2
XX
 70
     0
  0
SEQEND
  5
27A
330
278
100
AcDbEntity
  8
TEXT_BUBBLES
  0
INSERT
  5
27B
330
2
100
AcDbEntity
  8
TEXT_BUBBLES
100
AcDbBlockReference
 66
     1
  2
bubble
 10
11.15817940477742
 20
6.031408903647142
 30
0.0
  0
ATTRIB
  5
27C
330
27B
100
AcDbEntity
  8
TEXT_BUBBLES
100
AcDbText
 10
11.09865559525361
 20
5.968908903647142
 30
0.0
 40
0.125
  1
3
  7
ROMANS
 72
     4
 11
11.15817940477742
 21
6.031408903647142
 31
0.0
100
AcDbAttribute
  2
XX
 70
     0
  0
SEQEND
  5
27D
330
27B
100
AcDbEntity
  8
TEXT_BUBBLES
  0
INSERT
  5
27E
330
2
100
AcDbEntity
  8
TEXT_BUBBLES
100
AcDbBlockReference
 66
     1
  2
bubble
 10
11.15817940477742
 20
6.882761299746483
 30
0.0
  0
ATTRIB
  5
27F
330
27E
100
AcDbEntity
  8
TEXT_BUBBLES
100
AcDbText
 10
11.09865559525361
 20
6.820261299746483
 30
0.0
 40
0.125
  1
2
  7
ROMANS
 72
     4
 11
11.15817940477742
 21
6.882761299746483
 31
0.0
100
AcDbAttribute
  2
XX
 70
     0
  0
SEQEND
  5
280
330
27E
100
AcDbEntity
  8
TEXT_BUBBLES
  0
INSERT
  5
281
330
2
100
AcDbEntity
  8
TEXT_BUBBLES
100
AcDbBlockReference
 66
     1
  2
bubble
 10
11.15817940477742
 20
7.518545893132869
 30
0.0
  0
ATTRIB
  5
282
330
281
100
AcDbEntity
  8
TEXT_BUBBLES
100
AcDbText
 10
11.10758416668219
 20
7.456045893132869
 30
0.0
 40
0.125
  1
1
  7
ROMANS
 72
     4
 11
11.15817940477742
 21
7.518545893132869
 31
0.0
100
AcDbAttribute
  2
XX
 70
     0
  0
SEQEND
  5
283
330
281
100
AcDbEntity
  8
TEXT_BUBBLES
  0
LWPOLYLINE
  5
2B7
330
2
100
AcDbEntity
  8
IMAGE
100
AcDbPolyline
 90
        4
 70
     0
 43
0.01
 10
2.969675145633051
 20
6.170509682099566
 10
1.369903476353819
 20
6.170509682099566
 42
0.4634086362512573
 10
1.286770737724949
 20
6.072389823370964
 10
1.286770737724949
 20
4.825898789331161
  0
LINE
  5
2B8
330
2
100
AcDbEntity
  8
IMAGE
100
AcDbLine
 10
1.330366639530381
 20
4.671838817078588
 30
0.0
 11
1.286770737724949
 21
4.671838817078588
 31
0.0
  0
LINE
  5
2B9
330
2
100
AcDbEntity
  8
IMAGE
100
AcDbLine
 10
1.451323140888554
 20
4.825898789331161
 30
0.0
 11
1.122218334561345
 21
4.825898789331161
 31
0.0
  0
LINE
  5
2BA
330
2
100
AcDbEntity
  8
IMAGE
100
AcDbLine
 10
1.376526597709087
 20
4.741175820242026
 30
0.0
 11
1.286770737724949
 21
4.741175820242026
 31
0.0
  0
LINE
  5
2BB
330
2
100
AcDbEntity
  8
IMAGE
100
AcDbLine
 10
1.243174835919518
 20
4.671838817078588
 30
0.0
 11
1.286770737724949
 21
4.671838817078588
 31
0.0
  0
LINE
  5
2BC
330
2
100
AcDbEntity
  8
IMAGE
100
AcDbLine
 10
1.197014877740812
 20
4.741175820242026
 30
0.0
 11
1.286770737724949
 21
4.741175820242026
 31
0.0
  0
LWPOLYLINE
  5
2BD
330
2
100
AcDbEntity
  8
IMAGE
100
AcDbPolyline
 90
        4
 70
     0
 43
0.0
 10
3.206003270633051
 20
6.141863848766236
 10
3.163034520633051
 20
6.141863848766236
 10
3.148711603966383
 20
6.1561867654329
 10
3.141550145633051
 20
6.1561867654329
  0
LWPOLYLINE
  5
2BE
330
2
100
AcDbEntity
  8
IMAGE
100
AcDbPolyline
 90
        4
 70
     0
 43
0.0
 10
3.206003270633051
 20
6.1991555154329
 10
3.163034520633051
 20
6.1991555154329
 10
3.148711603966383
 20
6.184832598766236
 10
3.141550145633051
 20
6.184832598766236
  0
LWPOLYLINE
  5
2C2
330
2
100
AcDbEntity
  8
IMAGE
100
AcDbPolyline
 90
        9
 70
     0
 43
0.0
 10
3.141550145633051
 20
6.206316973766236
 10
3.141550145633051
 20
6.1347023904329
 10
3.098581395633051
 20
6.1347023904329
 10
3.034128270633051
 20
6.127540932099565
 10
2.969675145633051
 20
6.127540932099565
 10
2.969675145633051
 20
6.213478432099565
 10
3.034128270633051
 20
6.213478432099565
 10
3.098581395633051
 20
6.206316973766236
 10
3.141550145633051
 20
6.206316973766236
  0
LWPOLYLINE
  5
2C3
330
2
100
AcDbEntity
  8
IMAGE
100
AcDbPolyline
 90
        5
 70
     0
 43
0.0
 10
3.277617853966383
 20
6.206316973766236
 10
3.206003270633051
 20
6.206316973766236
 10
3.206003270633051
 20
6.1347023904329
 10
3.277617853966383
 20
6.1347023904329
 10
3.277617853966383
 20
6.206316973766236
  0
LWPOLYLINE
  5
2C4
330
2
100
AcDbEntity
  8
IMAGE
100
AcDbPolyline
 90
        5
 70
     0
 43
0.0
 10
3.245838882612218
 20
6.199826902266233
 10
3.265532893028883
 20
6.146115964766233
 10
3.252105158653883
 20
6.141192462162068
 10
3.232411148237218
 20
6.194903399662068
 10
3.245838882612218
 20
6.199826902266233
  0
CIRCLE
  5
2C5
330
2
100
AcDbEntity
  8
IMAGE
100
AcDbCircle
 10
3.248972020633051
 20
6.170509682099566
 30
0.0
 40
0.0286458333333333
  0
LINE
  5
2C7
330
2
100
AcDbEntity
  8
IMAGE
100
AcDbLine
 10
2.974422020633053
 20
6.127540932099565
 30
0.0
 11
2.974422020633053
 21
6.046923776346237
 31
0.0
  0
LINE
  5
2C8
330
2
100
AcDbEntity
  8
IMAGE
100
AcDbLine
 10
3.01692202063305
 20
6.127540932099565
 30
0.0
 11
3.01692202063305
 21
6.096822351089666
 31
0.0
  0
INSERT
  5
2CA
330
2
100
AcDbEntity
  8
TEXT_BUBBLES
100
AcDbBlockReference
 66
     1
  2
bubble
 10
11.15817940477742
 20
4.812727962072349
 30
0.0
  0
ATTRIB
  5
2CB
330
2CA
100
AcDbEntity
  8
TEXT_BUBBLES
100
AcDbText
 10
11.09865559525361
 20
4.750227962072349
 30
0.0
 40
0.125
  1
5
  7
ROMANS
 72
     4
 11
11.15817940477742
 21
4.812727962072349
 31
0.0
100
AcDbAttribute
  2
XX
 70
     0
  0
SEQEND
  5
2CC
330
2CA
100
AcDbEntity
  8
TEXT_BUBBLES
  0
LINE
  5
2CD
330
2
100
AcDbEntity
  8
TEXT_BUBBLES
100
AcDbLine
 10
1.962271473229838
 20
6.257369096071633
 30
0.0
 11
2.206997867137471
 21
6.493841323175828
 31
0.0
  0
SOLID
  5
2CE
330
2
100
AcDbEntity
  8
TEXT_BUBBLES
100
AcDbTrace
 10
1.976748042225179
 20
6.242387216086107
 30
0.0
 11
1.947794904234489
 21
6.272350976057164
 31
0.0
 12
1.872380193316663
 22
6.170509682099566
 32
0.0
 13
1.872380193316663
 23
6.170509682099566
 33
0.0
  0
INSERT
  5
2CF
330
2
100
AcDbEntity
  8
TEXT_BUBBLES
100
AcDbBlockReference
 66
     1
  2
bubble
 10
2.301704627664645
 20
6.596795748592497
 30
0.0
  0
ATTRIB
  5
2D0
330
2CF
100
AcDbEntity
  8
TEXT_BUBBLES
100
AcDbText
 10
2.242180818140836
 20
6.534295748592497
 30
0.0
 40
0.125
  1
5
  7
ROMANS
 72
     4
 11
2.301704627664645
 21
6.596795748592497
 31
0.0
100
AcDbAttribute
  2
XX
 70
     0
  0
SEQEND
  5
2D1
330
2CF
100
AcDbEntity
  8
TEXT_BUBBLES
  0
ENDSEC
  0
SECTION
  2
OBJECTS
  0
DICTIONARY
  5
7
330
0
100
AcDbDictionary
281
     1
  3
ACAD_GROUP
350
1F
  3
ACAD_LAYOUT
350
B
  3
ACAD_MLINESTYLE
350
20
  3
ACAD_PLOTSETTINGS
350
21
  3
ACAD_PLOTSTYLENAME
350
6
  3
AcDbVariableDictionary
350
287
  3
ASE_INDEX_DICTIONARY
350
290
  0
DICTIONARY
  5
2A1
330
10
100
AcDbDictionary
280
     1
281
     1
  3
ACAD_LAYERSTATES
360
2A2
  0
DICTIONARY
  5
1F
102
{ACAD_REACTORS
330
7
102
}
330
7
100
AcDbDictionary
281
     1
  0
DICTIONARY
  5
B
102
{ACAD_REACTORS
330
7
102
}
330
7
100
AcDbDictionary
281
     1
  3
Layout1
350
F
  3
Model
350
A
  0
DICTIONARY
  5
20
102
{ACAD_REACTORS
330
7
102
}
330
7
100
AcDbDictionary
281
     1
  3
Standard
350
24
  0
DICTIONARY
  5
21
102
{ACAD_REACTORS
330
7
102
}
330
7
100
AcDbDictionary
281
     1
  0
ACDBDICTIONARYWDFLT
  5
6
102
{ACAD_REACTORS
330
7
102
}
330
7
100
AcDbDictionary
281
     1
  3
Normal
350
5
100
AcDbDictionaryWithDefault
340
5
  0
DICTIONARY
  5
287
102
{ACAD_REACTORS
330
7
102
}
330
7
100
AcDbDictionary
281
     1
  3
DIMASSOC
350
289
  3
HIDETEXT
350
288
  3
SORTENTS
350
2ED
  0
DICTIONARY
  5
290
102
{ACAD_REACTORS
330
7
102
}
330
7
100
AcDbDictionary
281
     1
  3
ASEBlockHierarchyIndexRecord
350
292
1001
DCO15
1040
1449390782.296
  0
DICTIONARY
  5
2A2
102
{ACAD_REACTORS
330
2A1
102
}
330
2A1
100
AcDbDictionary
281
     1
  0
LAYOUT
  5
F
102
{ACAD_REACTORS
330
B
102
}
330
B
100
AcDbPlotSettings
  1

  2
S:\AutoCAD 2002\Plotters\1055ColorDraftShaded.pc3
  4

  6

 40
0.0
 41
0.0
 42
0.0
 43
0.0
 44
0.0
 45
0.0
 46
0.0
 47
0.0
 48
0.0
 49
0.0
140
0.0
141
0.0
142
1.0
143
1.0
 70
   688
 72
     0
 73
     0
 74
     5
  7
Black&White.ctb
 75
    16
147
1.0
148
0.0
149
0.0
100
AcDbLayout
  1
Layout1
 70
     0
 71
     1
 10
0.0
 20
0.0
 11
12.0
 21
9.0
 12
0.0
 22
0.0
 32
0.0
 14
1.000000000000000E+20
 24
1.000000000000000E+20
 34
1.000000000000000E+20
 15
-1.000000000000000E+20
 25
-1.000000000000000E+20
 35
-1.000000000000000E+20
146
0.0
 13
0.0
 23
0.0
 33
0.0
 16
1.0
 26
0.0
 36
0.0
 17
0.0
 27
1.0
 37
0.0
 76
     0
330
C
  0
LAYOUT
  5
A
102
{ACAD_REACTORS
330
B
102
}
330
B
100
AcDbPlotSettings
  1

  2
8500ColorShaded.pc3
  4
11x17
  6
PS1
 40
5.027083396911621
 41
5.027085304260253
 42
5.027099609375
 43
5.027069091796875
 44
279.3999938964843
 45
431.7999877929687
 46
2.032
 47
1.523999999999999
 48
180360.0524337165
 49
80033.77936194791
140
180369.1574725906
141
80037.61796031875
142
1.0
143
1.0
 70
 11956
 72
     0
 73
     1
 74
     3
  7
8500ColorShaded.ctb
 75
    16
147
1.0
148
0.000000000000002
149
0.0
100
AcDbLayout
  1
Model
 70
     1
 71
     0
 10
0.0
 20
0.0
 11
12.0
 21
9.0
 12
0.0
 22
0.0
 32
0.0
 14
0.0
 24
0.0
 34
0.0
 15
0.0
 25
0.0
 35
0.0
146
0.0
 13
0.0
 23
0.0
 33
0.0
 16
1.0
 26
0.0
 36
0.0
 17
0.0
 27
1.0
 37
0.0
 76
     0
330
2
  0
MLINESTYLE
  5
24
102
{ACAD_REACTORS
330
20
102
}
330
20
100
AcDbMlineStyle
  2
STANDARD
 70
     0
  3

 62
   256
 51
90.0
 52
90.0
 71
     2
 49
0.5
 62
   256
  6
BYLAYER
 49
-0.5
 62
   256
  6
BYLAYER
  0
ACDBPLACEHOLDER
  5
5
102
{ACAD_REACTORS
330
6
102
}
330
6
  0
DICTIONARYVAR
  5
289
102
{ACAD_REACTORS
330
287
102
}
330
287
100
DictionaryVariables
280
     0
  1
1
  0
DICTIONARYVAR
  5
288
102
{ACAD_REACTORS
330
287
102
}
330
287
100
DictionaryVariables
280
     0
  1
1
  0
DICTIONARYVAR
  5
2ED
102
{ACAD_REACTORS
330
287
102
}
330
287
100
DictionaryVariables
280
     0
  1
1
  0
XRECORD
  5
292
102
{ACAD_REACTORS
330
290
102
}
330
290
100
AcDbXrecord
280
     1
330
EC
330
180
330
241
330
24A
330
24F
330
250
330
251
330
257
330
259
330
25A
330
278
330
27B
330
27E
330
281
330
28
330
35
330
51
330
243
  0
ENDSEC
  0
EOF
