  0
SECTION
  2
HEADER
  9
$ACADVER
  1
AC1015
  9
$ACADMAINTVER
 70
    13
  9
$DWGCODEPAGE
  3
ANSI_1252
  9
$INSBASE
 10
0.0
 20
0.0
 30
0.0
  9
$EXTMIN
 10
-2.449418365895529
 20
-1.705751236806984
 30
0.0
  9
$EXTMAX
 10
14.04058163410446
 20
8.734248763193015
 30
0.03
  9
$LIMMIN
 10
0.0
 20
0.0
  9
$LIMMAX
 10
136.0000000000054
 20
88.00000000000354
  9
$ORTHOMODE
 70
     1
  9
$REGENMODE
 70
     0
  9
$FILLMODE
 70
     1
  9
$QTEXTMODE
 70
     0
  9
$MIRRTEXT
 70
     0
  9
$LTSCALE
 40
1.0
  9
$ATTMODE
 70
     1
  9
$TEXTSIZE
 40
0.1
  9
$TRACEWID
 40
0.05
  9
$TEXTSTYLE
  7
STANDARD
  9
$CLAYER
  8
TITLE
  9
$CELTYPE
  6
ByLayer
  9
$CECOLOR
 62
   256
  9
$CELTSCALE
 40
1.0
  9
$DISPSILH
 70
     0
  9
$DIMSCALE
 40
1.0
  9
$DIMASZ
 40
0.18
  9
$DIMEXO
 40
0.0625
  9
$DIMDLI
 40
0.3799999999999999
  9
$DIMRND
 40
0.0
  9
$DIMDLE
 40
0.0
  9
$DIMEXE
 40
0.18
  9
$DIMTP
 40
0.0
  9
$DIMTM
 40
0.0
  9
$DIMTXT
 40
0.18
  9
$DIMCEN
 40
0.09
  9
$DIMTSZ
 40
0.0
  9
$DIMTOL
 70
     0
  9
$DIMLIM
 70
     0
  9
$DIMTIH
 70
     1
  9
$DIMTOH
 70
     1
  9
$DIMSE1
 70
     0
  9
$DIMSE2
 70
     0
  9
$DIMTAD
 70
     0
  9
$DIMZIN
 70
     0
  9
$DIMBLK
  1

  9
$DIMASO
 70
     0
  9
$DIMSHO
 70
     0
  9
$DIMPOST
  1

  9
$DIMAPOST
  1

  9
$DIMALT
 70
     0
  9
$DIMALTD
 70
     2
  9
$DIMALTF
 40
25.4
  9
$DIMLFAC
 40
1.0
  9
$DIMTOFL
 70
     0
  9
$DIMTVP
 40
0.0
  9
$DIMTIX
 70
     0
  9
$DIMSOXD
 70
     0
  9
$DIMSAH
 70
     0
  9
$DIMBLK1
  1

  9
$DIMBLK2
  1

  9
$DIMSTYLE
  2
Standard
  9
$DIMCLRD
 70
     0
  9
$DIMCLRE
 70
     0
  9
$DIMCLRT
 70
     0
  9
$DIMTFAC
 40
1.0
  9
$DIMGAP
 40
0.09
  9
$DIMJUST
 70
     0
  9
$DIMSD1
 70
     0
  9
$DIMSD2
 70
     0
  9
$DIMTOLJ
 70
     1
  9
$DIMTZIN
 70
     0
  9
$DIMALTZ
 70
     0
  9
$DIMALTTZ
 70
     0
  9
$DIMUPT
 70
     0
  9
$DIMDEC
 70
     3
  9
$DIMTDEC
 70
     3
  9
$DIMALTU
 70
     2
  9
$DIMALTTD
 70
     2
  9
$DIMTXSTY
  7
STANDARD
  9
$DIMAUNIT
 70
     0
  9
$DIMADEC
 70
     0
  9
$DIMALTRND
 40
0.0
  9
$DIMAZIN
 70
     0
  9
$DIMDSEP
 70
    46
  9
$DIMATFIT
 70
     3
  9
$DIMFRAC
 70
     0
  9
$DIMLDRBLK
  1

  9
$DIMLUNIT
 70
     2
  9
$DIMLWD
 70
    -2
  9
$DIMLWE
 70
    -2
  9
$DIMTMOVE
 70
     2
  9
$LUNITS
 70
     2
  9
$LUPREC
 70
     3
  9
$SKETCHINC
 40
0.1
  9
$FILLETRAD
 40
0.0
  9
$AUNITS
 70
     0
  9
$AUPREC
 70
     0
  9
$MENU
  1
ACAD
  9
$ELEVATION
 40
0.0
  9
$PELEVATION
 40
0.0
  9
$THICKNESS
 40
0.0
  9
$LIMCHECK
 70
     0
  9
$CHAMFERA
 40
0.0
  9
$CHAMFERB
 40
0.0
  9
$CHAMFERC
 40
0.0
  9
$CHAMFERD
 40
0.0
  9
$SKPOLY
 70
     0
  9
$TDCREATE
 40
2448094.721502199
  9
$TDUCREATE
 40
2448095.013168865
  9
$TDUPDATE
 40
2453025.573392210
  9
$TDUUPDATE
 40
2453025.865058877
  9
$TDINDWG
 40
0.9019696875
  9
$TDUSRTIMER
 40
0.9019696875
  9
$USRTIMER
 70
     1
  9
$ANGBASE
 50
0.0
  9
$ANGDIR
 70
     0
  9
$PDMODE
 70
     2
  9
$PDSIZE
 40
0.0
  9
$PLINEWID
 40
0.023
  9
$SPLFRAME
 70
     0
  9
$SPLINETYPE
 70
     6
  9
$SPLINESEGS
 70
     8
  9
$HANDSEED
  5
1024
  9
$SURFTAB1
 70
     6
  9
$SURFTAB2
 70
     6
  9
$SURFTYPE
 70
     6
  9
$SURFU
 70
     6
  9
$SURFV
 70
     6
  9
$UCSBASE
  2

  9
$UCSNAME
  2

  9
$UCSORG
 10
0.0
 20
0.0
 30
0.0
  9
$UCSXDIR
 10
1.0
 20
0.0
 30
0.0
  9
$UCSYDIR
 10
0.0
 20
1.0
 30
0.0
  9
$UCSORTHOREF
  2

  9
$UCSORTHOVIEW
 70
     0
  9
$UCSORGTOP
 10
0.0
 20
0.0
 30
0.0
  9
$UCSORGBOTTOM
 10
0.0
 20
0.0
 30
0.0
  9
$UCSORGLEFT
 10
0.0
 20
0.0
 30
0.0
  9
$UCSORGRIGHT
 10
0.0
 20
0.0
 30
0.0
  9
$UCSORGFRONT
 10
0.0
 20
0.0
 30
0.0
  9
$UCSORGBACK
 10
0.0
 20
0.0
 30
0.0
  9
$PUCSBASE
  2

  9
$PUCSNAME
  2

  9
$PUCSORG
 10
0.0
 20
0.0
 30
0.0
  9
$PUCSXDIR
 10
1.0
 20
0.0
 30
0.0
  9
$PUCSYDIR
 10
0.0
 20
1.0
 30
0.0
  9
$PUCSORTHOREF
  2

  9
$PUCSORTHOVIEW
 70
     0
  9
$PUCSORGTOP
 10
0.0
 20
0.0
 30
0.0
  9
$PUCSORGBOTTOM
 10
0.0
 20
0.0
 30
0.0
  9
$PUCSORGLEFT
 10
0.0
 20
0.0
 30
0.0
  9
$PUCSORGRIGHT
 10
0.0
 20
0.0
 30
0.0
  9
$PUCSORGFRONT
 10
0.0
 20
0.0
 30
0.0
  9
$PUCSORGBACK
 10
0.0
 20
0.0
 30
0.0
  9
$USERI1
 70
     0
  9
$USERI2
 70
     0
  9
$USERI3
 70
     0
  9
$USERI4
 70
     0
  9
$USERI5
 70
     0
  9
$USERR1
 40
0.0
  9
$USERR2
 40
0.0
  9
$USERR3
 40
0.0
  9
$USERR4
 40
0.0
  9
$USERR5
 40
0.0
  9
$WORLDVIEW
 70
     1
  9
$SHADEDGE
 70
     3
  9
$SHADEDIF
 70
    70
  9
$TILEMODE
 70
     1
  9
$MAXACTVP
 70
    16
  9
$PINSBASE
 10
0.0
 20
0.0
 30
0.0
  9
$PLIMCHECK
 70
     0
  9
$PEXTMIN
 10
1.000000000000000E+20
 20
1.000000000000000E+20
 30
1.000000000000000E+20
  9
$PEXTMAX
 10
-1.000000000000000E+20
 20
-1.000000000000000E+20
 30
-1.000000000000000E+20
  9
$PLIMMIN
 10
0.0
 20
0.0
  9
$PLIMMAX
 10
12.0
 20
9.0
  9
$UNITMODE
 70
     0
  9
$VISRETAIN
 70
     0
  9
$PLINEGEN
 70
     1
  9
$PSLTSCALE
 70
     0
  9
$TREEDEPTH
 70
  3020
  9
$CMLSTYLE
  2
Standard
  9
$CMLJUST
 70
     0
  9
$CMLSCALE
 40
1.0
  9
$PROXYGRAPHICS
 70
     1
  9
$MEASUREMENT
 70
     0
  9
$CELWEIGHT
370
    -1
  9
$ENDCAPS
280
     0
  9
$JOINSTYLE
280
     0
  9
$LWDISPLAY
290
     0
  9
$INSUNITS
 70
     0
  9
$HYPERLINKBASE
  1

  9
$STYLESHEET
  1

  9
$XEDIT
290
     1
  9
$CEPSNTYPE
380
     0
  9
$PSTYLEMODE
290
     1
  9
$FINGERPRINTGUID
  2
{76173557-3EAE-4415-A7A6-80D1F0F3FE8F}
  9
$VERSIONGUID
  2
{FB67FF44-A0EF-432B-86F7-1385AF80844F}
  9
$EXTNAMES
290
     1
  9
$PSVPSCALE
 40
0.0
  9
$OLESTARTUP
290
     0
  0
ENDSEC
  0
SECTION
  2
CLASSES
  0
CLASS
  1
ACDBDICTIONARYWDFLT
  2
AcDbDictionaryWithDefault
  3
AutoCAD 2000
 90
        0
280
     0
281
     0
  0
CLASS
  1
ACDBPLACEHOLDER
  2
AcDbPlaceHolder
  3
AutoCAD 2000
 90
        0
280
     0
281
     0
  0
CLASS
  1
LAYOUT
  2
AcDbLayout
  3
AutoCAD 2000
 90
        0
280
     0
281
     0
  0
CLASS
  1
DICTIONARYVAR
  2
AcDbDictionaryVar
  3
AutoCAD 2000
 90
        0
280
     0
281
     0
  0
ENDSEC
  0
SECTION
  2
TABLES
  0
TABLE
  2
VPORT
  5
8
330
0
100
AcDbSymbolTable
 70
     2
  0
VPORT
  5
1023
330
8
100
AcDbSymbolTableRecord
100
AcDbViewportTableRecord
  2
*Active
 70
     0
 10
0.0
 20
0.0
 11
1.0
 21
1.0
 12
5.950685491195457
 22
3.513487656780701
 13
0.0
 23
0.0
 14
0.025
 24
0.025
 15
0.25
 25
0.25
 16
0.0
 26
0.0
 36
1.0
 17
0.0
 27
0.0
 37
0.0
 40
10.53290581947486
 41
1.639044943820225
 42
50.0
 43
0.0
 44
0.0
 50
0.0
 51
0.0
 71
     0
 72
 20000
 73
     1
 74
     0
 75
     0
 76
     0
 77
     0
 78
     1
281
     0
 65
     1
110
0.0
120
0.0
130
0.0
111
1.0
121
0.0
131
0.0
112
0.0
122
1.0
132
0.0
 79
     0
146
0.0
  0
ENDTAB
  0
TABLE
  2
LTYPE
  5
5
330
0
100
AcDbSymbolTable
 70
     2
  0
LTYPE
  5
13
330
5
100
AcDbSymbolTableRecord
100
AcDbLinetypeTableRecord
  2
ByBlock
 70
     0
  3

 72
    65
 73
     0
 40
0.0
  0
LTYPE
  5
14
330
5
100
AcDbSymbolTableRecord
100
AcDbLinetypeTableRecord
  2
ByLayer
 70
     0
  3

 72
    65
 73
     0
 40
0.0
  0
LTYPE
  5
15
330
5
100
AcDbSymbolTableRecord
100
AcDbLinetypeTableRecord
  2
CONTINUOUS
 70
     0
  3
Solid line
 72
    65
 73
     0
 40
0.0
  0
LTYPE
  5
24
330
5
100
AcDbSymbolTableRecord
100
AcDbLinetypeTableRecord
  2
HIDDEN2
 70
     0
  3
_ _ _ _ _ _ _ _ _ _ _ _ _ _ _ _ _ _ _ _ _ _ _ _
 72
    65
 73
     2
 40
0.1875
 49
0.125
 74
     0
 49
-0.0625
 74
     0
  0
ENDTAB
  0
TABLE
  2
LAYER
  5
2
102
{ACAD_XDICTIONARY
360
C4D
102
}
330
0
100
AcDbSymbolTable
 70
     4
  0
LAYER
  5
10
330
2
100
AcDbSymbolTableRecord
100
AcDbLayerTableRecord
  2
0
 70
     0
 62
     7
  6
CONTINUOUS
370
    -3
390
F
  0
LAYER
  5
27
330
2
100
AcDbSymbolTableRecord
100
AcDbLayerTableRecord
  2
IMAGE
 70
     0
 62
     7
  6
CONTINUOUS
370
    -3
390
F
  0
LAYER
  5
28
330
2
100
AcDbSymbolTableRecord
100
AcDbLayerTableRecord
  2
TEXT_BUBBLES
 70
     0
 62
     6
  6
CONTINUOUS
370
    -3
390
F
  0
LAYER
  5
C48
330
2
100
AcDbSymbolTableRecord
100
AcDbLayerTableRecord
  2
TITLE
 70
     0
 62
     4
  6
CONTINUOUS
370
    -3
390
F
  0
ENDTAB
  0
TABLE
  2
STYLE
  5
3
330
0
100
AcDbSymbolTable
 70
     5
  0
STYLE
  5
11
330
3
100
AcDbSymbolTableRecord
100
AcDbTextStyleTableRecord
  2
STANDARD
 70
     0
 40
0.0
 41
1.0
 50
0.0
 71
     0
 42
0.1
  3
ARIAL.TTF
  4

1001
ACAD
1000
Arial
1071
       34
  0
STYLE
  5
22
330
3
100
AcDbSymbolTableRecord
100
AcDbTextStyleTableRecord
  2
ROMANS
 70
     0
 40
0.0
 41
1.0
 50
0.0
 71
     0
 42
1.0
  3
romans
  4

  0
STYLE
  5
C49
330
3
100
AcDbSymbolTableRecord
100
AcDbTextStyleTableRecord
  2
L100
 70
     0
 40
0.1
 41
1.0
 50
0.0
 71
     0
 42
0.1
  3
SIMPLEX
  4

  0
STYLE
  5
C4A
330
3
100
AcDbSymbolTableRecord
100
AcDbTextStyleTableRecord
  2
L200
 70
     0
 40
0.2
 41
1.0
 50
0.0
 71
     0
 42
0.1
  3
ARIAL.TTF
  4

1001
ACAD
1000
Arial
1071
       34
  0
STYLE
  5
C4B
330
3
100
AcDbSymbolTableRecord
100
AcDbTextStyleTableRecord
  2
L80
 70
     0
 40
0.08
 41
1.0
 50
0.0
 71
     0
 42
0.08
  3
ROMANS
  4

  0
ENDTAB
  0
TABLE
  2
VIEW
  5
6
330
0
100
AcDbSymbolTable
 70
     0
  0
ENDTAB
  0
TABLE
  2
UCS
  5
7
330
0
100
AcDbSymbolTable
 70
     0
  0
ENDTAB
  0
TABLE
  2
APPID
  5
9
330
0
100
AcDbSymbolTable
 70
     2
  0
APPID
  5
12
330
9
100
AcDbSymbolTableRecord
100
AcDbRegAppTableRecord
  2
ACAD
 70
     0
  0
APPID
  5
C4C
330
9
100
AcDbSymbolTableRecord
100
AcDbRegAppTableRecord
  2
RAK
 70
     0
  0
ENDTAB
  0
TABLE
  2
DIMSTYLE
  5
A
330
0
100
AcDbSymbolTable
 70
     1
100
AcDbDimStyleTable
 71
     0
  0
DIMSTYLE
105
C12
330
A
100
AcDbSymbolTableRecord
100
AcDbDimStyleTableRecord
  2
Standard
 70
     0
340
11
  0
ENDTAB
  0
TABLE
  2
BLOCK_RECORD
  5
1
330
0
100
AcDbSymbolTable
 70
     2
  0
BLOCK_RECORD
  5
1E
330
1
100
AcDbSymbolTableRecord
100
AcDbBlockTableRecord
  2
*Model_Space
340
21
  0
BLOCK_RECORD
  5
1A
330
1
100
AcDbSymbolTableRecord
100
AcDbBlockTableRecord
  2
*Paper_Space
340
1D
  0
BLOCK_RECORD
  5
C3D
330
1
100
AcDbSymbolTableRecord
100
AcDbBlockTableRecord
  2
TITLBLK
340
0
102
{BLKREFS
331
C60
102
}
  0
BLOCK_RECORD
  5
C6C
330
1
100
AcDbSymbolTableRecord
100
AcDbBlockTableRecord
  2
bubble
340
0
310
2800000020000000200000000100080000000000000400000000000000000000000000000000000000000000000080000080000000808000800000008000800080800000C0C0C000C0DCC000F0CAA6000020400000206000002080000020A0000020C0000020E00000400000004020000040400000406000004080000040A0
310
000040C0000040E00000600000006020000060400000606000006080000060A0000060C0000060E00000800000008020000080400000806000008080000080A0000080C0000080E00000A0000000A0200000A0400000A0600000A0800000A0A00000A0C00000A0E00000C0000000C0200000C0400000C0600000C0800000C0
310
A00000C0C00000C0E00000E0000000E0200000E0400000E0600000E0800000E0A00000E0C00000E0E00040000000400020004000400040006000400080004000A0004000C0004000E00040200000402020004020400040206000402080004020A0004020C0004020E000404000004040200040404000404060004040800040
310
40A0004040C0004040E00040600000406020004060400040606000406080004060A0004060C0004060E00040800000408020004080400040806000408080004080A0004080C0004080E00040A0000040A0200040A0400040A0600040A0800040A0A00040A0C00040A0E00040C0000040C0200040C0400040C0600040C08000
310
40C0A00040C0C00040C0E00040E0000040E0200040E0400040E0600040E0800040E0A00040E0C00040E0E00080000000800020008000400080006000800080008000A0008000C0008000E00080200000802020008020400080206000802080008020A0008020C0008020E00080400000804020008040400080406000804080
310
008040A0008040C0008040E00080600000806020008060400080606000806080008060A0008060C0008060E00080800000808020008080400080806000808080008080A0008080C0008080E00080A0000080A0200080A0400080A0600080A0800080A0A00080A0C00080A0E00080C0000080C0200080C0400080C0600080C0
310
800080C0A00080C0C00080C0E00080E0000080E0200080E0400080E0600080E0800080E0A00080E0C00080E0E000C0000000C0002000C0004000C0006000C0008000C000A000C000C000C000E000C0200000C0202000C0204000C0206000C0208000C020A000C020C000C020E000C0400000C0402000C0404000C0406000C0
310
408000C040A000C040C000C040E000C0600000C0602000C0604000C0606000C0608000C060A000C060C000C060E000C0800000C0802000C0804000C0806000C0808000C080A000C080C000C080E000C0A00000C0A02000C0A04000C0A06000C0A08000C0A0A000C0A0C000C0A0E000C0C00000C0C02000C0C04000C0C06000
310
C0C08000C0C0A000F0FBFF00A4A0A000808080000000FF0000FF000000FFFF00FF000000FF00FF00FFFF0000FFFFFF0008080808080808080808080808080808080808080808080808080808080808080808080808080808080808080808080808080808080808080808080808080808080808080808080808080808FDFDFD
310
08080808080808080808080808080808080808080808080808080808FD080808FDFDFDFDFDFD0808080808080808080808080808080808080808FDFD08080808080808080808FDFDFDFD080808080808080808080808080808FD08080808080808080808080808080808FD08080808080808080808080808FD080808080808
310
0808080808080808080808FD0808080808080808080808FDFD08080808080808080808080808080808080808FD080808080808080808FD080808080808080808080808080808080808080808FD0808080808080808FD08FD0808080808080808FD0808FD0808080808080808FDFD08080808080808FD0808FD080808080808
310
FD08080808FD080808080808FD08FD08080808080808FD0808FD080808080808FD08080808FD080808080808FD0808FD080808080808FD080808FD08080808FD080808080808FD08080808FD080808FD080808080808FD08080808FD0808FD0808080808080808FD0808FD0808080808FD0808080808FD08080808FD0808FD
310
0808080808080808FD0808FD0808080808FD0808080808FD0808080808FDFD08080808080808080808FDFD08080808080808FD08080808FD0808080808FDFD08080808080808080808FDFD08080808080808FD08080808FD08080808FD0808FD0808080808080808FD0808FD0808080808FD0808080808FD08080808FD0808
310
FD0808080808080808FD0808FD0808080808FD0808080808FD080808FD08080808FD080808080808FD08080808FD080808FD080808080808FD0808FD080808080808FD08080808FD080808080808FD0808FD080808080808FD0808FD080808080808FD08080808FD080808080808FD08FD08080808080808FD08FD08080808
310
08080808FD0808FD0808080808080808FDFD0808080808080808FD080808080808080808080808080808080808080808FD08080808080808080808FDFD08080808080808080808080808080808080808FD080808080808080808080808FD0808080808080808080808080808080808FD0808080808080808080808080808FD
310
08080808080808080808080808080808FD080808080808080808080808080808FDFD0808080808080808080808FDFDFD080808080808080808080808080808080808FD08080808FDFDFDFDFDFD08080808080808080808080808080808080808080808FDFDFDFD080808080808080808080808080808080808080808080808
310
0808080808080808080808080808080808080808080808080808080808080808080808080808080808080808080808080808080808080808
102
{BLKREFS
331
CBC
331
CC5
331
CC8
331
CCB
331
CCE
331
CD1
331
CD4
331
CD7
331
CDA
331
CF4
331
CF9
331
F3A
102
}
  0
ENDTAB
  0
ENDSEC
  0
SECTION
  2
BLOCKS
  0
BLOCK
  5
2F
330
1E
100
AcDbEntity
  8
0
100
AcDbBlockBegin
  2
*Model_Space
 70
     0
 10
0.0
 20
0.0
 30
0.0
  3
*Model_Space
  1

  0
ENDBLK
  5
30
330
1E
100
AcDbEntity
  8
0
100
AcDbBlockEnd
  0
BLOCK
  5
2D
330
1A
100
AcDbEntity
 67
     1
  8
0
100
AcDbBlockBegin
  2
*Paper_Space
 70
     0
 10
0.0
 20
0.0
 30
0.0
  3
*Paper_Space
  1

  0
ENDBLK
  5
2E
330
1A
100
AcDbEntity
 67
     1
  8
0
100
AcDbBlockEnd
  0
BLOCK
  5
C46
330
C3D
100
AcDbEntity
  8
0
100
AcDbBlockBegin
  2
TITLBLK
 70
     2
 10
0.0
 20
0.0
 30
0.0
  3
TITLBLK
  1

  0
LWPOLYLINE
  5
C3E
330
C3D
100
AcDbEntity
  8
TITLE
 62
     3
100
AcDbPolyline
 90
        2
 70
     0
 43
0.04
 39
0.03
 10
0.3424999999999994
 20
-0.0000000000000003
 10
7.654581983261419
 20
-0.0000000000000003
  0
ATTDEF
  5
C3F
330
C3D
100
AcDbEntity
  8
TITLE
100
AcDbText
 10
0.625
 20
0.0999999999999998
 30
0.0
 40
0.2
  1
TITLE
  7
L200
100
AcDbAttributeDefinition
  3
DETAIL TITLE
  2
TITLE
 70
     0
  0
LWPOLYLINE
  5
C40
330
C3D
100
AcDbEntity
  8
TITLE
 62
     3
100
AcDbPolyline
 90
        2
 70
     1
 43
0.03
 10
0.0
 20
-0.3425000000000002
 42
0.9999999999999998
 10
0.0
 20
0.3425000000000002
 42
0.9999999999999998
  0
ATTDEF
  5
C41
330
C3D
100
AcDbEntity
  8
TITLE
100
AcDbText
 10
-0.0776944065484311
 20
-0.1000000000000003
 30
0.0
 40
0.2
  1
#
  7
L200
 72
     4
 11
0.0
 21
-0.0000000000000003
 31
0.0
100
AcDbAttributeDefinition
  3
#
  2
#
 70
     0
  0
ATTDEF
  5
C42
330
C3D
100
AcDbEntity
  8
TITLE
 62
     2
100
AcDbText
 10
0.625
 20
-0.1836633170828782
 30
0.0
 40
0.1
  1
N.T.S.
  7
L100
100
AcDbAttributeDefinition
  3
SCALE
  2
SCALE
 70
     0
  0
ATTDEF
  5
C43
330
C3D
100
AcDbEntity
  8
TITLE
100
AcDbText
 10
2.107203380653828
 20
-0.2914343300200487
 30
0.0
 40
0.2
  1
TITLE2
  7
L200
100
AcDbAttributeDefinition
  3
DETAIL TITLE2
  2
TITLE2
 70
     0
  0
ATTDEF
  5
C44
330
C3D
100
AcDbEntity
  8
TITLE
 62
     2
100
AcDbText
 10
7.570772459451895
 20
-0.1618486459795794
 30
0.0
 40
0.08
  1
-
  7
L80
 72
     2
 11
7.654581983261419
 21
-0.1618486459795794
 31
0.0
100
AcDbAttributeDefinition
  3
DWG-NAME
  2
DWG-NAME
 70
     0
  0
ATTDEF
  5
C45
330
C3D
100
AcDbEntity
  8
TITLE
 62
     2
100
AcDbText
 10
7.570772459451895
 20
0.0853756950662722
 30
0.0
 40
0.08
  1
-
  7
L80
 72
     2
 11
7.654581983261419
 21
0.0853756950662722
 31
0.0
100
AcDbAttributeDefinition
  3
REVISION DATE
  2
REVISED
 70
     0
  0
ENDBLK
  5
C47
330
C3D
100
AcDbEntity
  8
0
100
AcDbBlockEnd
  0
BLOCK
  5
C6F
330
C6C
100
AcDbEntity
  8
0
100
AcDbBlockBegin
  2
bubble
 70
     2
 10
0.0
 20
0.0
 30
0.0
  3
bubble
  1

  0
CIRCLE
  5
C6D
330
C6C
100
AcDbEntity
  8
TEXT_BUBBLES
100
AcDbCircle
 10
0.0
 20
0.0
 30
0.0
 40
0.1398891854377198
  0
ATTDEF
  5
C6E
330
C6C
100
AcDbEntity
  8
TEXT_BUBBLES
100
AcDbText
 10
0.0
 20
0.0
 30
0.0
 40
0.125
  1

  7
ROMANS
 72
     4
 11
0.0
 21
0.0
 31
0.0
100
AcDbAttributeDefinition
  3
Number
  2
XX
 70
     0
  0
ENDBLK
  5
C70
330
C6C
100
AcDbEntity
  8
0
100
AcDbBlockEnd
  0
ENDSEC
  0
SECTION
  2
ENTITIES
  0
LINE
  5
31
330
1E
100
AcDbEntity
  8
IMAGE
  6
HIDDEN2
100
AcDbLine
 10
2.767833540499363
 20
3.870981665101311
 30
0.0
 11
2.373152750388335
 21
4.098850725515874
 31
0.0
  0
LINE
  5
32
330
1E
100
AcDbEntity
  8
IMAGE
  6
HIDDEN2
100
AcDbLine
 10
3.006089141513982
 20
4.092982090100449
 30
0.0
 11
2.684538558595846
 21
4.27862940570632
 31
0.0
  0
LINE
  5
75
330
1E
100
AcDbEntity
  8
IMAGE
100
AcDbLine
 10
2.324888738733077
 20
6.273979328776821
 30
0.0
 11
2.17248312398985
 21
6.1859879060788
 31
0.0
  0
LINE
  5
76
330
1E
100
AcDbEntity
  8
IMAGE
100
AcDbLine
 10
2.17248312398985
 20
6.1859879060788
 30
0.0
 11
2.17248312398985
 21
5.845020175204115
 31
0.0
  0
LINE
  5
77
330
1E
100
AcDbEntity
  8
IMAGE
100
AcDbLine
 10
2.17248312398985
 20
5.845020175204115
 30
0.0
 11
2.324888738733077
 21
5.933011597793355
 31
0.0
  0
LINE
  5
78
330
1E
100
AcDbEntity
  8
IMAGE
100
AcDbLine
 10
2.324888738733077
 20
5.933011597793355
 30
0.0
 11
2.324888738733077
 21
6.273979328776821
 31
0.0
  0
LINE
  5
79
330
1E
100
AcDbEntity
  8
IMAGE
100
AcDbLine
 10
2.315363387811645
 20
6.27947879269545
 30
0.0
 11
2.162957773068387
 21
6.191487369997425
 31
0.0
  0
LINE
  5
7A
330
1E
100
AcDbEntity
  8
IMAGE
100
AcDbLine
 10
2.162957773068387
 20
6.191487369997425
 30
0.0
 11
2.162957773068387
 21
5.850519639122745
 31
0.0
  0
LINE
  5
7B
330
1E
100
AcDbEntity
  8
IMAGE
100
AcDbLine
 10
2.315363387811645
 20
6.27947879269545
 30
0.0
 11
2.324888738733077
 21
6.273979328776821
 31
0.0
  0
LINE
  5
7C
330
1E
100
AcDbEntity
  8
IMAGE
100
AcDbLine
 10
2.162957773068387
 20
6.191487369997425
 30
0.0
 11
2.17248312398985
 21
6.1859879060788
 31
0.0
  0
LINE
  5
7D
330
1E
100
AcDbEntity
  8
IMAGE
100
AcDbLine
 10
2.162957773068387
 20
5.850519639122745
 30
0.0
 11
2.17248312398985
 21
5.845020175204115
 31
0.0
  0
LINE
  5
F1
330
1E
100
AcDbEntity
  8
IMAGE
100
AcDbLine
 10
2.724300156215352
 20
4.255125593262684
 30
0.0
 11
2.687383303416517
 21
4.233811638361627
 31
0.0
  0
LINE
  5
F2
330
1E
100
AcDbEntity
  8
IMAGE
100
AcDbLine
 10
2.724300156215352
 20
4.232253731698007
 30
0.0
 11
2.724300156215352
 21
4.255125593262684
 31
0.0
  0
LINE
  5
F3
330
1E
100
AcDbEntity
  8
IMAGE
100
AcDbLine
 10
2.687383303416517
 20
4.210939776796954
 30
0.0
 11
2.724300156215352
 21
4.232253731698007
 31
0.0
  0
LINE
  5
F4
330
1E
100
AcDbEntity
  8
IMAGE
100
AcDbLine
 10
2.687383303416517
 20
4.233811638361627
 30
0.0
 11
2.687383303416517
 21
4.210939776796954
 31
0.0
  0
LINE
  5
F5
330
1E
100
AcDbEntity
  8
IMAGE
100
AcDbLine
 10
1.589879117069213
 20
3.742895487290904
 30
0.0
 11
1.589879117069213
 21
3.238026668531759
 31
0.0
  0
LINE
  5
F6
330
1E
100
AcDbEntity
  8
IMAGE
100
AcDbLine
 10
2.963987793497695
 20
4.536260773912414
 30
0.0
 11
1.589879117069213
 21
3.742895487290904
 31
0.0
  0
LINE
  5
F8
330
1E
100
AcDbEntity
  8
IMAGE
100
AcDbLine
 10
1.589879117069213
 20
3.238026668531759
 30
0.0
 11
2.753653938407228
 21
3.909952085008661
 31
0.0
  0
LINE
  5
F9
330
1E
100
AcDbEntity
  8
IMAGE
100
AcDbLine
 10
1.589879117069213
 20
3.742895487290904
 30
0.0
 11
0.5280678671017807
 21
4.355950481498437
 31
0.0
  0
LINE
  5
FA
330
1E
100
AcDbEntity
  8
IMAGE
100
AcDbLine
 10
0.5280678671017807
 20
3.851081662739292
 30
0.0
 11
1.589879117069213
 21
3.238026668531759
 31
0.0
  0
LINE
  5
FB
330
1E
100
AcDbEntity
  8
IMAGE
100
AcDbLine
 10
0.5280678671017807
 20
4.355950481498437
 30
0.0
 11
0.5280678671017807
 21
3.851081662739292
 31
0.0
  0
LINE
  5
FC
330
1E
100
AcDbEntity
  8
IMAGE
100
AcDbLine
 10
0.8975844673114359
 20
4.569297248363135
 30
0.0
 11
0.5280678671017807
 21
4.355950481498437
 31
0.0
  0
LINE
  5
FD
330
1E
100
AcDbEntity
  8
IMAGE
100
AcDbLine
 10
2.963987793497695
 20
4.536260773912414
 30
0.0
 11
2.469670606674114
 21
4.821663306720483
 31
0.0
  0
LINE
  5
FE
330
1E
100
AcDbEntity
  8
IMAGE
100
AcDbLine
 10
3.387758836774366
 20
3.655605039020863
 30
0.0
 11
3.434604824912677
 21
3.628558495158763
 31
0.0
  0
LINE
  5
FF
330
1E
100
AcDbEntity
  8
IMAGE
100
AcDbLine
 10
3.325297519256663
 20
3.619542980538066
 30
0.0
 11
3.372143507394941
 21
3.59249643667597
 31
0.0
  0
LINE
  5
100
330
1E
100
AcDbEntity
  8
IMAGE
100
AcDbLine
 10
3.262836201738928
 20
3.583480922055267
 30
0.0
 11
3.309682189877205
 21
3.556434378193172
 31
0.0
  0
LINE
  5
101
330
1E
100
AcDbEntity
  8
IMAGE
100
AcDbLine
 10
3.200374884221193
 20
3.547418863572474
 30
0.0
 11
3.247220872359502
 21
3.520372319710378
 31
0.0
  0
LINE
  5
102
330
1E
100
AcDbEntity
  8
IMAGE
100
AcDbLine
 10
3.434604824912677
 20
3.628558495158763
 30
0.0
 11
3.247220872359502
 21
3.520372319710378
 31
0.0
  0
LINE
  5
103
330
1E
100
AcDbEntity
  8
IMAGE
100
AcDbLine
 10
3.387758836774366
 20
3.655605039020863
 30
0.0
 11
3.200374884221193
 21
3.547418863572474
 31
0.0
  0
LINE
  5
104
330
1E
100
AcDbEntity
  8
IMAGE
100
AcDbLine
 10
3.122298237324061
 20
3.448248202744785
 30
0.0
 11
3.075452249185752
 21
3.475294746606882
 31
0.0
  0
LINE
  5
105
330
1E
100
AcDbEntity
  8
IMAGE
100
AcDbLine
 10
3.169144225462339
 20
3.475294746606882
 30
0.0
 11
3.122298237324061
 21
3.502341290468976
 31
0.0
  0
LINE
  5
106
330
1E
100
AcDbEntity
  8
IMAGE
100
AcDbLine
 10
3.21599021360065
 20
3.502341290468976
 30
0.0
 11
3.169144225462339
 21
3.529387834331076
 31
0.0
  0
LINE
  5
107
330
1E
100
AcDbEntity
  8
IMAGE
100
AcDbLine
 10
3.21599021360065
 20
3.502341290468976
 30
0.0
 11
3.075452249185752
 21
3.421201658882686
 31
0.0
  0
LINE
  5
108
330
1E
100
AcDbEntity
  8
IMAGE
100
AcDbLine
 10
3.075452249185752
 20
3.421201658882686
 30
0.0
 11
3.028606261047475
 21
3.448248202744785
 31
0.0
  0
LINE
  5
109
330
1E
100
AcDbEntity
  8
IMAGE
100
AcDbLine
 10
3.169144225462339
 20
3.529387834331076
 30
0.0
 11
3.028606261047475
 21
3.448248202744785
 31
0.0
  0
LINE
  5
10A
330
1E
100
AcDbEntity
  8
IMAGE
100
AcDbLine
 10
3.0442215904269
 20
3.40317062964129
 30
0.0
 11
2.856837637873723
 21
3.294984454192899
 31
0.0
  0
LINE
  5
10B
330
1E
100
AcDbEntity
  8
IMAGE
100
AcDbLine
 10
2.997375602288619
 20
3.430217173503384
 30
0.0
 11
2.809991649735446
 21
3.322030998054999
 31
0.0
  0
LINE
  5
10C
330
1E
100
AcDbEntity
  8
IMAGE
100
AcDbLine
 10
2.856837637873723
 20
3.294984454192899
 30
0.0
 11
2.809991649735446
 21
3.322030998054999
 31
0.0
  0
LINE
  5
10D
330
1E
100
AcDbEntity
  8
IMAGE
100
AcDbLine
 10
2.903683626012032
 20
3.322030998054999
 30
0.0
 11
2.856837637873723
 21
3.349077541917093
 31
0.0
  0
LINE
  5
10E
330
1E
100
AcDbEntity
  8
IMAGE
100
AcDbLine
 10
2.95052961415031
 20
3.349077541917093
 30
0.0
 11
2.903683626012032
 21
3.376124085779194
 31
0.0
  0
LINE
  5
10F
330
1E
100
AcDbEntity
  8
IMAGE
100
AcDbLine
 10
2.997375602288619
 20
3.376124085779194
 30
0.0
 11
2.95052961415031
 21
3.40317062964129
 31
0.0
  0
LINE
  5
110
330
1E
100
AcDbEntity
  8
IMAGE
100
AcDbLine
 10
3.0442215904269
 20
3.40317062964129
 30
0.0
 11
2.997375602288619
 21
3.430217173503384
 31
0.0
  0
LINE
  5
111
330
1E
100
AcDbEntity
  8
IMAGE
100
AcDbLine
 10
2.833414643804568
 20
3.28146118226185
 30
0.0
 11
2.78656865566629
 21
3.308507726123952
 31
0.0
  0
LINE
  5
112
330
1E
100
AcDbEntity
  8
IMAGE
100
AcDbLine
 10
2.78656865566629
 20
3.254414638399754
 30
0.0
 11
2.739722667528012
 21
3.28146118226185
 31
0.0
  0
LINE
  5
113
330
1E
100
AcDbEntity
  8
IMAGE
100
AcDbLine
 10
2.739722667528012
 20
3.227368094537661
 30
0.0
 11
2.692876679389702
 21
3.254414638399754
 31
0.0
  0
LINE
  5
114
330
1E
100
AcDbEntity
  8
IMAGE
100
AcDbLine
 10
2.692876679389702
 20
3.20032155067556
 30
0.0
 11
2.646030691251422
 21
3.227368094537661
 31
0.0
  0
LINE
  5
115
330
1E
100
AcDbEntity
  8
IMAGE
100
AcDbLine
 10
2.646030691251422
 20
3.173275006813467
 30
0.0
 11
2.599184703113112
 21
3.20032155067556
 31
0.0
  0
LINE
  5
116
330
1E
100
AcDbEntity
  8
IMAGE
100
AcDbLine
 10
2.78656865566629
 20
3.308507726123952
 30
0.0
 11
2.599184703113112
 21
3.20032155067556
 31
0.0
  0
LINE
  5
117
330
1E
100
AcDbEntity
  8
IMAGE
100
AcDbLine
 10
2.833414643804568
 20
3.28146118226185
 30
0.0
 11
2.646030691251422
 21
3.173275006813467
 31
0.0
  0
LINE
  5
118
330
1E
100
AcDbEntity
  8
IMAGE
100
AcDbLine
 10
2.388377756490814
 20
3.024519015571932
 30
0.0
 11
2.341531768352503
 21
2.997472471709832
 31
0.0
  0
LINE
  5
119
330
1E
100
AcDbEntity
  8
IMAGE
100
AcDbLine
 10
2.341531768352503
 20
3.051565559434028
 30
0.0
 11
2.294685780214225
 21
3.024519015571932
 31
0.0
  0
LINE
  5
11A
330
1E
100
AcDbEntity
  8
IMAGE
100
AcDbLine
 10
2.341531768352503
 20
2.997472471709832
 30
0.0
 11
2.294685780214225
 21
3.024519015571932
 31
0.0
  0
LINE
  5
11B
330
1E
100
AcDbEntity
  8
IMAGE
100
AcDbLine
 10
2.622607697182268
 20
3.159751734882418
 30
0.0
 11
2.435223744629092
 21
3.051565559434028
 31
0.0
  0
LINE
  5
11C
330
1E
100
AcDbEntity
  8
IMAGE
100
AcDbLine
 10
2.575761709043989
 20
3.186798278744513
 30
0.0
 11
2.388377756490814
 21
3.078612103296123
 31
0.0
  0
LINE
  5
11D
330
1E
100
AcDbEntity
  8
IMAGE
100
AcDbLine
 10
2.388377756490814
 20
3.024519015571932
 30
0.0
 11
2.341531768352503
 21
3.051565559434028
 31
0.0
  0
LINE
  5
11E
330
1E
100
AcDbEntity
  8
IMAGE
100
AcDbLine
 10
2.435223744629092
 20
3.051565559434028
 30
0.0
 11
2.388377756490814
 21
3.078612103296123
 31
0.0
  0
LINE
  5
11F
330
1E
100
AcDbEntity
  8
IMAGE
100
AcDbLine
 10
2.482069732767402
 20
3.078612103296123
 30
0.0
 11
2.435223744629092
 21
3.105658647158223
 31
0.0
  0
LINE
  5
120
330
1E
100
AcDbEntity
  8
IMAGE
100
AcDbLine
 10
2.528915720905679
 20
3.105658647158223
 30
0.0
 11
2.482069732767402
 21
3.132705191020317
 31
0.0
  0
LINE
  5
121
330
1E
100
AcDbEntity
  8
IMAGE
100
AcDbLine
 10
2.575761709043989
 20
3.132705191020317
 30
0.0
 11
2.528915720905679
 21
3.159751734882418
 31
0.0
  0
LINE
  5
122
330
1E
100
AcDbEntity
  8
IMAGE
100
AcDbLine
 10
2.622607697182268
 20
3.159751734882418
 30
0.0
 11
2.575761709043989
 21
3.186798278744513
 31
0.0
  0
LINE
  5
123
330
1E
100
AcDbEntity
  8
IMAGE
100
AcDbLine
 10
3.411181830843522
 20
3.28146118226185
 30
0.0
 11
3.317489854566935
 21
3.335554269986047
 31
0.0
  0
LINE
  5
124
330
1E
100
AcDbEntity
  8
IMAGE
100
AcDbLine
 10
3.4580278189818
 20
3.308507726123952
 30
0.0
 11
3.364335842705213
 21
3.362600813848141
 31
0.0
  0
LINE
  5
125
330
1E
100
AcDbEntity
  8
IMAGE
100
AcDbLine
 10
3.50487380712011
 20
3.335554269986047
 30
0.0
 11
3.4580278189818
 21
3.362600813848141
 31
0.0
  0
LINE
  5
126
330
1E
100
AcDbEntity
  8
IMAGE
100
AcDbLine
 10
3.4580278189818
 20
3.362600813848141
 30
0.0
 11
3.317489854566935
 21
3.28146118226185
 31
0.0
  0
LINE
  5
127
330
1E
100
AcDbEntity
  8
IMAGE
100
AcDbLine
 10
3.50487380712011
 20
3.335554269986047
 30
0.0
 11
3.364335842705213
 21
3.254414638399754
 31
0.0
  0
LINE
  5
128
330
1E
100
AcDbEntity
  8
IMAGE
100
AcDbLine
 10
3.364335842705213
 20
3.254414638399754
 30
0.0
 11
3.317489854566935
 21
3.28146118226185
 31
0.0
  0
LINE
  5
129
330
1E
100
AcDbEntity
  8
IMAGE
100
AcDbLine
 10
3.364335842705213
 20
3.362600813848141
 30
0.0
 11
3.317489854566935
 21
3.335554269986047
 31
0.0
  0
LINE
  5
12A
330
1E
100
AcDbEntity
  8
IMAGE
100
AcDbLine
 10
3.270643866428656
 20
3.470786989296533
 30
0.0
 11
3.13010590201376
 21
3.389647357710243
 31
0.0
  0
LINE
  5
12B
330
1E
100
AcDbEntity
  8
IMAGE
100
AcDbLine
 10
3.223797878290346
 20
3.335554269986047
 30
0.0
 11
3.13010590201376
 21
3.389647357710243
 31
0.0
  0
LINE
  5
12C
330
1E
100
AcDbEntity
  8
IMAGE
100
AcDbLine
 10
3.364335842705213
 20
3.416693901572335
 30
0.0
 11
3.223797878290346
 21
3.335554269986047
 31
0.0
  0
LINE
  5
12D
330
1E
100
AcDbEntity
  8
IMAGE
100
AcDbLine
 10
3.317489854566935
 20
3.443740445434437
 30
0.0
 11
3.176951890152069
 21
3.362600813848141
 31
0.0
  0
LINE
  5
12E
330
1E
100
AcDbEntity
  8
IMAGE
100
AcDbLine
 10
3.364335842705213
 20
3.416693901572335
 30
0.0
 11
3.270643866428656
 21
3.470786989296533
 31
0.0
  0
LINE
  5
12F
330
1E
100
AcDbEntity
  8
IMAGE
100
AcDbLine
 10
3.317489854566935
 20
3.389647357710243
 30
0.0
 11
3.223797878290346
 21
3.443740445434437
 31
0.0
  0
LINE
  5
130
330
1E
100
AcDbEntity
  8
IMAGE
100
AcDbLine
 10
3.270643866428656
 20
3.362600813848141
 30
0.0
 11
3.176951890152069
 21
3.416693901572335
 31
0.0
  0
LINE
  5
131
330
1E
100
AcDbEntity
  8
IMAGE
100
AcDbLine
 10
3.333105183946361
 20
3.236383609158359
 30
0.0
 11
2.630415361871996
 21
2.830685451226903
 31
0.0
  0
LINE
  5
132
330
1E
100
AcDbEntity
  8
IMAGE
100
AcDbLine
 10
3.286259195808082
 20
3.263430153020454
 30
0.0
 11
2.583569373733687
 21
2.857731995088999
 31
0.0
  0
LINE
  5
133
330
1E
100
AcDbEntity
  8
IMAGE
100
AcDbLine
 10
3.239413207669772
 20
3.290476696882549
 30
0.0
 11
2.536723385595409
 21
2.884778538951096
 31
0.0
  0
LINE
  5
134
330
1E
100
AcDbEntity
  8
IMAGE
100
AcDbLine
 10
3.192567219531495
 20
3.31752324074465
 30
0.0
 11
2.489877397457099
 21
2.911825082813194
 31
0.0
  0
LINE
  5
135
330
1E
100
AcDbEntity
  8
IMAGE
100
AcDbLine
 10
3.145721231393185
 20
3.344569784606745
 30
0.0
 11
2.443031409318821
 21
2.938871626675291
 31
0.0
  0
LINE
  5
136
330
1E
100
AcDbEntity
  8
IMAGE
100
AcDbLine
 10
3.098875243254908
 20
3.371616328468844
 30
0.0
 11
2.39618542118051
 21
2.965918170537388
 31
0.0
  0
LINE
  5
137
330
1E
100
AcDbEntity
  8
IMAGE
100
AcDbLine
 10
3.536104465878964
 20
3.353585299227443
 30
0.0
 11
3.301874525187509
 21
3.488818018537928
 31
0.0
  0
LINE
  5
138
330
1E
100
AcDbEntity
  8
IMAGE
100
AcDbLine
 10
3.536104465878964
 20
3.40767838695164
 30
0.0
 11
3.348720513325787
 21
3.515864562400028
 31
0.0
  0
LINE
  5
139
330
1E
100
AcDbEntity
  8
IMAGE
100
AcDbLine
 10
3.629796442155551
 20
3.40767838695164
 30
0.0
 11
3.395566501464096
 21
3.542911106262125
 31
0.0
  0
LINE
  5
13A
330
1E
100
AcDbEntity
  8
IMAGE
100
AcDbLine
 10
3.676642430293829
 20
3.434724930813733
 30
0.0
 11
3.442412489602374
 21
3.56995765012422
 31
0.0
  0
LINE
  5
13B
330
1E
100
AcDbEntity
  8
IMAGE
100
AcDbLine
 10
3.72348841843214
 20
3.461771474675834
 30
0.0
 11
3.489258477740683
 21
3.597004193986319
 31
0.0
  0
LINE
  5
13C
330
1E
100
AcDbEntity
  8
IMAGE
100
AcDbLine
 10
2.724107338148554
 20
2.992964714399484
 30
0.0
 11
2.817799314425141
 21
2.938871626675291
 31
0.0
  0
LINE
  5
13D
330
1E
100
AcDbEntity
  8
IMAGE
100
AcDbLine
 10
3.052029255116627
 20
3.182290521434163
 30
0.0
 11
3.145721231393185
 21
3.128197433709969
 31
0.0
  0
LINE
  5
13E
330
1E
100
AcDbEntity
  8
IMAGE
100
AcDbLine
 10
3.21599021360065
 20
3.168767249503116
 30
0.0
 11
3.169144225462339
 21
3.195813793365211
 31
0.0
  0
LINE
  5
13F
330
1E
100
AcDbEntity
  8
IMAGE
100
AcDbLine
 10
2.747530332217708
 20
2.898301810882146
 30
0.0
 11
2.700684344079431
 21
2.925348354744242
 31
0.0
  0
LINE
  5
140
330
1E
100
AcDbEntity
  8
IMAGE
100
AcDbLine
 10
3.262836201738928
 20
3.195813793365211
 30
0.0
 11
3.21599021360065
 21
3.222860337227306
 31
0.0
  0
LINE
  5
141
330
1E
100
AcDbEntity
  8
IMAGE
100
AcDbLine
 10
2.700684344079431
 20
2.871255267020049
 30
0.0
 11
2.653838355941121
 21
2.898301810882146
 31
0.0
  0
LINE
  5
142
330
1E
100
AcDbEntity
  8
IMAGE
100
AcDbLine
 10
2.677261350010276
 20
2.911825082813194
 30
0.0
 11
2.630415361871996
 21
2.938871626675291
 31
0.0
  0
LINE
  5
143
330
1E
100
AcDbEntity
  8
IMAGE
100
AcDbLine
 10
2.724107338148554
 20
2.938871626675291
 30
0.0
 11
2.677261350010276
 21
2.965918170537388
 31
0.0
  0
LINE
  5
144
330
1E
100
AcDbEntity
  8
IMAGE
100
AcDbLine
 10
2.817799314425141
 20
2.992964714399484
 30
0.0
 11
2.770953326286864
 21
3.020011258261583
 31
0.0
  0
LINE
  5
145
330
1E
100
AcDbEntity
  8
IMAGE
100
AcDbLine
 10
2.864645302563451
 20
3.020011258261583
 30
0.0
 11
2.817799314425141
 21
3.047057802123678
 31
0.0
  0
LINE
  5
146
330
1E
100
AcDbEntity
  8
IMAGE
100
AcDbLine
 10
2.91149129070173
 20
3.047057802123678
 30
0.0
 11
2.864645302563451
 21
3.074104345985775
 31
0.0
  0
LINE
  5
147
330
1E
100
AcDbEntity
  8
IMAGE
100
AcDbLine
 10
2.95833727884004
 20
3.074104345985775
 30
0.0
 11
2.91149129070173
 21
3.101150889847874
 31
0.0
  0
LINE
  5
148
330
1E
100
AcDbEntity
  8
IMAGE
100
AcDbLine
 10
3.005183266978317
 20
3.101150889847874
 30
0.0
 11
2.95833727884004
 21
3.128197433709969
 31
0.0
  0
LINE
  5
149
330
1E
100
AcDbEntity
  8
IMAGE
100
AcDbLine
 10
3.052029255116627
 20
3.128197433709969
 30
0.0
 11
3.005183266978317
 21
3.155243977572069
 31
0.0
  0
LINE
  5
14A
330
1E
100
AcDbEntity
  8
IMAGE
100
AcDbLine
 10
3.145721231393185
 20
3.182290521434163
 30
0.0
 11
3.098875243254908
 21
3.20933706529626
 31
0.0
  0
LINE
  5
14B
330
1E
100
AcDbEntity
  8
IMAGE
100
AcDbLine
 10
3.134009734358637
 20
3.229621973192832
 30
0.0
 11
3.087163746220328
 21
3.256668517054928
 31
0.0
  0
LINE
  5
14C
330
1E
100
AcDbEntity
  8
IMAGE
100
AcDbLine
 10
3.087163746220328
 20
3.202575429330737
 30
0.0
 11
3.04031775808205
 21
3.229621973192832
 31
0.0
  0
LINE
  5
14D
330
1E
100
AcDbEntity
  8
IMAGE
100
AcDbLine
 10
3.04031775808205
 20
3.175528885468638
 30
0.0
 11
2.993471769943741
 21
3.202575429330737
 31
0.0
  0
LINE
  5
14E
330
1E
100
AcDbEntity
  8
IMAGE
100
AcDbLine
 10
2.993471769943741
 20
3.148482341606541
 30
0.0
 11
2.946625781805463
 21
3.175528885468638
 31
0.0
  0
LINE
  5
14F
330
1E
100
AcDbEntity
  8
IMAGE
100
AcDbLine
 10
2.946625781805463
 20
3.121435797744448
 30
0.0
 11
2.899779793667152
 21
3.148482341606541
 31
0.0
  0
LINE
  5
150
330
1E
100
AcDbEntity
  8
IMAGE
100
AcDbLine
 10
2.899779793667152
 20
3.094389253882347
 30
0.0
 11
2.852933805528875
 21
3.121435797744448
 31
0.0
  0
LINE
  5
151
330
1E
100
AcDbEntity
  8
IMAGE
100
AcDbLine
 10
2.852933805528875
 20
3.067342710020252
 30
0.0
 11
2.806087817390565
 21
3.094389253882347
 31
0.0
  0
LINE
  5
152
330
1E
100
AcDbEntity
  8
IMAGE
100
AcDbLine
 10
2.806087817390565
 20
3.040296166158153
 30
0.0
 11
2.759241829252286
 21
3.067342710020252
 31
0.0
  0
LINE
  5
153
330
1E
100
AcDbEntity
  8
IMAGE
100
AcDbLine
 10
2.759241829252286
 20
3.013249622296056
 30
0.0
 11
2.712395841114007
 21
3.040296166158153
 31
0.0
  0
LINE
  5
154
330
1E
100
AcDbEntity
  8
IMAGE
100
AcDbLine
 10
2.712395841114007
 20
2.98620307843396
 30
0.0
 11
2.665549852975698
 21
3.013249622296056
 31
0.0
  0
LINE
  5
155
330
1E
100
AcDbEntity
  8
IMAGE
100
AcDbLine
 10
2.665549852975698
 20
2.959156534571863
 30
0.0
 11
2.61870386483742
 21
2.98620307843396
 31
0.0
  0
LINE
  5
156
330
1E
100
AcDbEntity
  8
IMAGE
100
AcDbLine
 10
2.61870386483742
 20
2.932109990709766
 30
0.0
 11
2.57185787669911
 21
2.959156534571863
 31
0.0
  0
LINE
  5
157
330
1E
100
AcDbEntity
  8
IMAGE
100
AcDbLine
 10
3.122298237324061
 20
3.276953424951502
 30
0.0
 11
3.075452249185752
 21
3.303999968813601
 31
0.0
  0
LINE
  5
158
330
1E
100
AcDbEntity
  8
IMAGE
100
AcDbLine
 10
3.075452249185752
 20
3.249906881089407
 30
0.0
 11
3.028606261047475
 21
3.276953424951502
 31
0.0
  0
LINE
  5
159
330
1E
100
AcDbEntity
  8
IMAGE
100
AcDbLine
 10
3.028606261047475
 20
3.222860337227306
 30
0.0
 11
2.981760272909165
 21
3.249906881089407
 31
0.0
  0
LINE
  5
15A
330
1E
100
AcDbEntity
  8
IMAGE
100
AcDbLine
 10
2.981760272909165
 20
3.195813793365211
 30
0.0
 11
2.934914284770884
 21
3.222860337227306
 31
0.0
  0
LINE
  5
15B
330
1E
100
AcDbEntity
  8
IMAGE
100
AcDbLine
 10
2.934914284770884
 20
3.168767249503116
 30
0.0
 11
2.888068296632575
 21
3.195813793365211
 31
0.0
  0
LINE
  5
15C
330
1E
100
AcDbEntity
  8
IMAGE
100
AcDbLine
 10
2.888068296632575
 20
3.141720705641017
 30
0.0
 11
2.841222308494297
 21
3.168767249503116
 31
0.0
  0
LINE
  5
15D
330
1E
100
AcDbEntity
  8
IMAGE
100
AcDbLine
 10
2.841222308494297
 20
3.114674161778919
 30
0.0
 11
2.794376320356019
 21
3.141720705641017
 31
0.0
  0
LINE
  5
15E
330
1E
100
AcDbEntity
  8
IMAGE
100
AcDbLine
 10
2.794376320356019
 20
3.087627617916827
 30
0.0
 11
2.747530332217708
 21
3.114674161778919
 31
0.0
  0
LINE
  5
15F
330
1E
100
AcDbEntity
  8
IMAGE
100
AcDbLine
 10
2.747530332217708
 20
3.060581074054725
 30
0.0
 11
2.700684344079431
 21
3.087627617916827
 31
0.0
  0
LINE
  5
160
330
1E
100
AcDbEntity
  8
IMAGE
100
AcDbLine
 10
2.700684344079431
 20
3.033534530192631
 30
0.0
 11
2.653838355941121
 21
3.060581074054725
 31
0.0
  0
LINE
  5
161
330
1E
100
AcDbEntity
  8
IMAGE
100
AcDbLine
 10
2.653838355941121
 20
3.00648798633053
 30
0.0
 11
2.606992367802842
 21
3.033534530192631
 31
0.0
  0
LINE
  5
162
330
1E
100
AcDbEntity
  8
IMAGE
100
AcDbLine
 10
2.606992367802842
 20
2.979441442468437
 30
0.0
 11
2.560146379664532
 21
3.00648798633053
 31
0.0
  0
LINE
  5
163
330
1E
100
AcDbEntity
  8
IMAGE
100
AcDbLine
 10
2.560146379664532
 20
2.95239489860634
 30
0.0
 11
2.513300391526254
 21
2.979441442468437
 31
0.0
  0
LINE
  5
164
330
1E
100
AcDbEntity
  8
IMAGE
100
AcDbLine
 10
3.333105183946361
 20
3.236383609158359
 30
0.0
 11
3.098875243254908
 21
3.371616328468844
 31
0.0
  0
LINE
  5
165
330
1E
100
AcDbEntity
  8
IMAGE
100
AcDbLine
 10
3.052029255116627
 20
3.290476696882549
 30
0.0
 11
3.005183266978317
 21
3.31752324074465
 31
0.0
  0
LINE
  5
166
330
1E
100
AcDbEntity
  8
IMAGE
100
AcDbLine
 10
3.005183266978317
 20
3.263430153020454
 30
0.0
 11
2.95833727884004
 21
3.290476696882549
 31
0.0
  0
LINE
  5
167
330
1E
100
AcDbEntity
  8
IMAGE
100
AcDbLine
 10
2.95833727884004
 20
3.236383609158359
 30
0.0
 11
2.91149129070173
 21
3.263430153020454
 31
0.0
  0
LINE
  5
168
330
1E
100
AcDbEntity
  8
IMAGE
100
AcDbLine
 10
2.91149129070173
 20
3.20933706529626
 30
0.0
 11
2.864645302563451
 21
3.236383609158359
 31
0.0
  0
LINE
  5
169
330
1E
100
AcDbEntity
  8
IMAGE
100
AcDbLine
 10
2.864645302563451
 20
3.182290521434163
 30
0.0
 11
2.817799314425141
 21
3.20933706529626
 31
0.0
  0
LINE
  5
16A
330
1E
100
AcDbEntity
  8
IMAGE
100
AcDbLine
 10
2.817799314425141
 20
3.155243977572069
 30
0.0
 11
2.770953326286864
 21
3.182290521434163
 31
0.0
  0
LINE
  5
16B
330
1E
100
AcDbEntity
  8
IMAGE
100
AcDbLine
 10
2.770953326286864
 20
3.128197433709969
 30
0.0
 11
2.724107338148554
 21
3.155243977572069
 31
0.0
  0
LINE
  5
16C
330
1E
100
AcDbEntity
  8
IMAGE
100
AcDbLine
 10
2.724107338148554
 20
3.101150889847874
 30
0.0
 11
2.677261350010276
 21
3.128197433709969
 31
0.0
  0
LINE
  5
16D
330
1E
100
AcDbEntity
  8
IMAGE
100
AcDbLine
 10
2.677261350010276
 20
3.074104345985775
 30
0.0
 11
2.630415361871996
 21
3.101150889847874
 31
0.0
  0
LINE
  5
16E
330
1E
100
AcDbEntity
  8
IMAGE
100
AcDbLine
 10
2.630415361871996
 20
3.047057802123678
 30
0.0
 11
2.583569373733687
 21
3.074104345985775
 31
0.0
  0
LINE
  5
16F
330
1E
100
AcDbEntity
  8
IMAGE
100
AcDbLine
 10
2.583569373733687
 20
3.020011258261583
 30
0.0
 11
2.536723385595409
 21
3.047057802123678
 31
0.0
  0
LINE
  5
170
330
1E
100
AcDbEntity
  8
IMAGE
100
AcDbLine
 10
2.536723385595409
 20
2.992964714399484
 30
0.0
 11
2.489877397457099
 21
3.020011258261583
 31
0.0
  0
LINE
  5
171
330
1E
100
AcDbEntity
  8
IMAGE
100
AcDbLine
 10
2.489877397457099
 20
2.965918170537388
 30
0.0
 11
2.443031409318821
 21
2.992964714399484
 31
0.0
  0
LINE
  5
172
330
1E
100
AcDbEntity
  8
IMAGE
100
AcDbLine
 10
3.489258477740683
 20
3.597004193986319
 30
0.0
 11
3.301874525187509
 21
3.488818018537928
 31
0.0
  0
LINE
  5
173
330
1E
100
AcDbEntity
  8
IMAGE
100
AcDbLine
 10
3.536104465878964
 20
3.56995765012422
 30
0.0
 11
3.348720513325787
 21
3.461771474675834
 31
0.0
  0
LINE
  5
174
330
1E
100
AcDbEntity
  8
IMAGE
100
AcDbLine
 10
3.536104465878964
 20
3.515864562400028
 30
0.0
 11
3.395566501464096
 21
3.434724930813733
 31
0.0
  0
LINE
  5
175
330
1E
100
AcDbEntity
  8
IMAGE
100
AcDbLine
 10
3.629796442155551
 20
3.515864562400028
 30
0.0
 11
3.442412489602374
 21
3.40767838695164
 31
0.0
  0
LINE
  5
176
330
1E
100
AcDbEntity
  8
IMAGE
100
AcDbLine
 10
3.629796442155551
 20
3.461771474675834
 30
0.0
 11
3.489258477740683
 21
3.380631843089543
 31
0.0
  0
LINE
  5
177
330
1E
100
AcDbEntity
  8
IMAGE
100
AcDbLine
 10
3.72348841843214
 20
3.461771474675834
 30
0.0
 11
3.536104465878964
 21
3.353585299227443
 31
0.0
  0
LINE
  5
178
330
1E
100
AcDbEntity
  8
IMAGE
100
AcDbLine
 10
2.630415361871996
 20
2.830685451226903
 30
0.0
 11
2.39618542118051
 21
2.965918170537388
 31
0.0
  0
LINE
  5
179
330
1E
100
AcDbEntity
  8
IMAGE
100
AcDbLine
 10
2.177570809868482
 20
3.020011258261583
 30
0.0
 11
3.395566501464096
 21
3.723221398676101
 31
0.0
  0
LINE
  5
17A
330
1E
100
AcDbEntity
  8
IMAGE
100
AcDbLine
 10
3.395566501464096
 20
3.723221398676101
 30
0.0
 11
3.832795724088153
 21
3.470786989296533
 31
0.0
  0
LINE
  5
17B
330
1E
100
AcDbEntity
  8
IMAGE
100
AcDbLine
 10
2.614800032492539
 20
2.767576848882011
 30
0.0
 11
2.177570809868482
 21
3.020011258261583
 31
0.0
  0
LINE
  5
17C
330
1E
100
AcDbEntity
  8
IMAGE
100
AcDbLine
 10
3.832795724088153
 20
3.470786989296533
 30
0.0
 11
2.614800032492539
 21
2.767576848882011
 31
0.0
  0
LINE
  5
17D
330
1E
100
AcDbEntity
  8
IMAGE
100
AcDbLine
 10
3.375767057187906
 20
3.75268364240017
 30
0.0
 11
3.870650914548972
 21
3.466962314135143
 31
0.0
  0
LINE
  5
17E
330
1E
100
AcDbEntity
  8
IMAGE
100
AcDbLine
 10
2.099494162971352
 20
3.015827143364818
 30
0.0
 11
2.099494162971352
 21
2.961346077754692
 31
0.0
  0
ARC
  5
17F
330
1E
100
AcDbEntity
  8
IMAGE
100
AcDbCircle
 10
2.117525192212732
 20
3.015827143364818
 30
0.0
 40
0.018031029241398
100
AcDbArc
 50
60.00000000000003
 51
180.0
  0
ARC
  5
180
330
1E
100
AcDbEntity
  8
IMAGE
100
AcDbCircle
 10
2.117525192212732
 20
2.961346077754692
 30
0.0
 40
0.018031029241398
100
AcDbArc
 50
180.0
 51
250.0
  0
ARC
  5
181
330
1E
100
AcDbEntity
  8
IMAGE
100
AcDbCircle
 10
3.3667515425672
 20
3.737068313020738
 30
0.0
 40
0.018031029241398
100
AcDbArc
 50
60.00000000000003
 51
119.9999999999999
  0
LINE
  5
182
330
1E
100
AcDbEntity
  8
IMAGE
100
AcDbLine
 10
2.108509677592027
 20
3.031442472744248
 30
0.0
 11
3.357736027946494
 21
3.75268364240017
 31
0.0
  0
LINE
  5
183
330
1E
100
AcDbEntity
  8
IMAGE
100
AcDbLine
 10
2.621424564194538
 20
2.745721144479225
 30
0.0
 11
2.126540706833439
 21
3.031442472744248
 31
0.0
  0
LINE
  5
184
330
1E
100
AcDbEntity
  8
IMAGE
100
AcDbLine
 10
2.606283698696539
 20
2.713251453636314
 30
0.0
 11
2.111358217007278
 21
2.944402452631377
 31
0.0
  0
ARC
  5
185
330
1E
100
AcDbEntity
  8
IMAGE
100
AcDbCircle
 10
2.612433766517047
 20
2.730148626101291
 30
0.0
 40
0.0179815953549209
100
AcDbArc
 50
250.0
 51
60.00000000000023
  0
ARC
  5
186
330
1E
100
AcDbEntity
  8
IMAGE
100
AcDbCircle
 10
3.861660116871514
 20
3.451389795757209
 30
0.0
 40
0.0179815953549209
100
AcDbArc
 50
300.0000000000009
 51
60.00000000000023
  0
LINE
  5
187
330
1E
100
AcDbEntity
  8
IMAGE
100
AcDbLine
 10
3.870650914548972
 20
3.435817277379275
 30
0.0
 11
2.621424564194538
 21
2.714576107723357
 31
0.0
  0
LINE
  5
24B
330
1E
100
AcDbEntity
  8
IMAGE
100
AcDbLine
 10
2.249782793488826
 20
6.024143790680763
 30
0.0
 11
2.259308144429883
 21
6.02964325459939
 31
0.0
  0
LINE
  5
24C
330
1E
100
AcDbEntity
  8
IMAGE
100
AcDbLine
 10
2.259308144429883
 20
6.02964325459939
 30
0.0
 11
2.259308144429883
 21
6.040642182436645
 31
0.0
  0
LINE
  5
24D
330
1E
100
AcDbEntity
  8
IMAGE
100
AcDbLine
 10
2.259308144429883
 20
6.040642182436645
 30
0.0
 11
2.249782793488826
 21
6.035142718518018
 31
0.0
  0
LINE
  5
24E
330
1E
100
AcDbEntity
  8
IMAGE
100
AcDbLine
 10
2.249782793488826
 20
6.035142718518018
 30
0.0
 11
2.249782793488826
 21
6.024143790680763
 31
0.0
  0
LINE
  5
24F
330
1E
100
AcDbEntity
  8
IMAGE
100
AcDbLine
 10
2.249782793488826
 20
6.024143790680763
 30
0.0
 11
2.245020118018266
 21
6.026893522640078
 31
0.0
  0
LINE
  5
250
330
1E
100
AcDbEntity
  8
IMAGE
100
AcDbLine
 10
2.245020118018266
 20
6.026893522640078
 30
0.0
 11
2.245020118018266
 21
6.037892450477331
 31
0.0
  0
LINE
  5
251
330
1E
100
AcDbEntity
  8
IMAGE
100
AcDbLine
 10
2.245020118018266
 20
6.037892450477331
 30
0.0
 11
2.249782793488826
 21
6.035142718518018
 31
0.0
  0
LINE
  5
252
330
1E
100
AcDbEntity
  8
IMAGE
100
AcDbLine
 10
2.245020118018266
 20
6.037892450477331
 30
0.0
 11
2.254545468959354
 21
6.043391914395954
 31
0.0
  0
LINE
  5
253
330
1E
100
AcDbEntity
  8
IMAGE
100
AcDbLine
 10
2.254545468959354
 20
6.043391914395954
 30
0.0
 11
2.259308144429883
 21
6.040642182436645
 31
0.0
  0
LINE
  5
254
330
1E
100
AcDbEntity
  8
IMAGE
100
AcDbLine
 10
2.240257442547738
 20
6.040642182436645
 30
0.0
 11
2.259308144429883
 21
6.051641110273896
 31
0.0
  0
LINE
  5
255
330
1E
100
AcDbEntity
  8
IMAGE
100
AcDbLine
 10
2.259308144429883
 20
6.051641110273896
 30
0.0
 11
2.259308144429883
 21
6.040642182436645
 31
0.0
  0
LINE
  5
256
330
1E
100
AcDbEntity
  8
IMAGE
100
AcDbLine
 10
2.240257442547738
 20
6.040642182436645
 30
0.0
 11
2.240257442547738
 21
6.018644326762141
 31
0.0
  0
LINE
  5
257
330
1E
100
AcDbEntity
  8
IMAGE
100
AcDbLine
 10
2.240257442547738
 20
6.018644326762141
 30
0.0
 11
2.254545468959354
 21
6.026893522640078
 31
0.0
  0
LINE
  5
260
330
1E
100
AcDbEntity
  8
IMAGE
100
AcDbLine
 10
1.606429530697272
 20
3.500016463674676
 30
0.0
 11
2.276933455283455
 21
3.88713208502722
 31
0.0
  0
LINE
  5
261
330
1E
100
AcDbEntity
  8
IMAGE
100
AcDbLine
 10
2.276933455283455
 20
3.670759734130442
 30
0.0
 11
2.276933455283455
 21
3.88713208502722
 31
0.0
  0
LINE
  5
262
330
1E
100
AcDbEntity
  8
IMAGE
100
AcDbLine
 10
1.606429530697272
 20
3.456741993495319
 30
0.0
 11
2.276933455283455
 21
3.843857614847863
 31
0.0
  0
LINE
  5
263
330
1E
100
AcDbEntity
  8
IMAGE
100
AcDbLine
 10
1.606429530697272
 20
3.413467523315968
 30
0.0
 11
2.276933455283455
 21
3.800583144668509
 31
0.0
  0
LINE
  5
264
330
1E
100
AcDbEntity
  8
IMAGE
100
AcDbLine
 10
1.606429530697272
 20
3.370193053136613
 30
0.0
 11
2.276933455283455
 21
3.757308674489154
 31
0.0
  0
LINE
  5
265
330
1E
100
AcDbEntity
  8
IMAGE
100
AcDbLine
 10
1.606429530697272
 20
3.326918582957258
 30
0.0
 11
2.276933455283455
 21
3.714034204309797
 31
0.0
  0
LINE
  5
266
330
1E
100
AcDbEntity
  8
IMAGE
100
AcDbLine
 10
1.60642953069724
 20
3.2836441127779
 30
0.0
 11
2.276933455283455
 21
3.670759734130442
 31
0.0
  0
LINE
  5
267
330
1E
100
AcDbEntity
  8
IMAGE
100
AcDbLine
 10
2.963987793497695
 20
4.240528621963745
 30
0.0
 11
2.950429096216983
 21
4.275974974618234
 31
0.0
  0
LINE
  5
268
330
1E
100
AcDbEntity
  8
IMAGE
100
AcDbLine
 10
2.963987793497695
 20
4.197254151784393
 30
0.0
 11
2.950429096216983
 21
4.232700504438877
 31
0.0
  0
LINE
  5
269
330
1E
100
AcDbEntity
  8
IMAGE
100
AcDbLine
 10
2.963987793497695
 20
4.153979681605038
 30
0.0
 11
2.950429096216983
 21
4.189426034259524
 31
0.0
  0
LINE
  5
26C
330
1E
100
AcDbEntity
  8
IMAGE
100
AcDbLine
 10
1.516033765004126
 20
3.316713303903969
 30
0.0
 11
1.516033765004126
 21
3.533085654800745
 31
0.0
  0
LINE
  5
26D
330
1E
100
AcDbEntity
  8
IMAGE
100
AcDbLine
 10
1.573035495347776
 20
3.500183930720886
 30
0.0
 11
1.516033765004126
 21
3.533085654800745
 31
0.0
  0
LINE
  5
26E
330
1E
100
AcDbEntity
  8
IMAGE
100
AcDbLine
 10
1.573035495347808
 20
3.456909460541509
 30
0.0
 11
1.516033765004126
 21
3.489811184621394
 31
0.0
  0
LINE
  5
26F
330
1E
100
AcDbEntity
  8
IMAGE
100
AcDbLine
 10
1.573035495347776
 20
3.413634990362167
 30
0.0
 11
1.516033765004126
 21
3.446536714442036
 31
0.0
  0
LINE
  5
270
330
1E
100
AcDbEntity
  8
IMAGE
100
AcDbLine
 10
1.573035495347776
 20
3.370360520182822
 30
0.0
 11
1.516033765004126
 21
3.40326224426268
 31
0.0
  0
LINE
  5
271
330
1E
100
AcDbEntity
  8
IMAGE
100
AcDbLine
 10
1.573035495347808
 20
3.327086050003451
 30
0.0
 11
1.516033765004126
 21
3.359987774083326
 31
0.0
  0
LINE
  5
272
330
1E
100
AcDbEntity
  8
IMAGE
100
AcDbLine
 10
1.573035495347776
 20
3.28381157982411
 30
0.0
 11
1.516033765004126
 21
3.316713303903969
 31
0.0
  0
LINE
  5
273
330
1E
100
AcDbEntity
  8
IMAGE
100
AcDbLine
 10
1.516033765004126
 20
3.489811184621394
 30
0.0
 11
1.523351650636137
 21
3.528861460856375
 31
0.0
  0
LINE
  5
274
330
1E
100
AcDbEntity
  8
IMAGE
100
AcDbLine
 10
1.516033765004126
 20
3.446536714442036
 30
0.0
 11
1.523351650636137
 21
3.485586990677021
 31
0.0
  0
LINE
  5
275
330
1E
100
AcDbEntity
  8
IMAGE
100
AcDbLine
 10
1.516033765004126
 20
3.40326224426268
 30
0.0
 11
1.523351650636137
 21
3.442312520497666
 31
0.0
  0
LINE
  5
276
330
1E
100
AcDbEntity
  8
IMAGE
100
AcDbLine
 10
1.516033765004126
 20
3.359987774083326
 30
0.0
 11
1.523351650636137
 21
3.399038050318312
 31
0.0
  0
LINE
  5
277
330
1E
100
AcDbEntity
  8
IMAGE
100
AcDbLine
 10
1.516033765004126
 20
3.316713303903969
 30
0.0
 11
1.523351650636137
 21
3.355763580138956
 31
0.0
  0
ARC
  5
278
330
1E
100
AcDbEntity
  8
IMAGE
100
AcDbCircle
 10
1.589883083848384
 20
3.530125014592114
 30
0.0
 40
0.0343556362431295
100
AcDbArc
 50
239.3753508440049
 51
298.7914226834349
  0
ARC
  5
279
330
1E
100
AcDbEntity
  8
IMAGE
100
AcDbCircle
 10
1.589883083848384
 20
3.486850544412758
 30
0.0
 40
0.0343556362431295
100
AcDbArc
 50
239.3753508440049
 51
298.7914226834349
  0
ARC
  5
27A
330
1E
100
AcDbEntity
  8
IMAGE
100
AcDbCircle
 10
1.589883083848384
 20
3.443576074233405
 30
0.0
 40
0.0343556362431295
100
AcDbArc
 50
239.3753508440049
 51
298.7914226834349
  0
ARC
  5
27B
330
1E
100
AcDbEntity
  8
IMAGE
100
AcDbCircle
 10
1.589883083848384
 20
3.40030160405405
 30
0.0
 40
0.0343556362431295
100
AcDbArc
 50
239.3753508440049
 51
298.7914226834349
  0
ARC
  5
27C
330
1E
100
AcDbEntity
  8
IMAGE
100
AcDbCircle
 10
1.589883083848384
 20
3.357027133874696
 30
0.0
 40
0.0343556362431295
100
AcDbArc
 50
239.3753508440049
 51
298.7914226834349
  0
ARC
  5
27D
330
1E
100
AcDbEntity
  8
IMAGE
100
AcDbCircle
 10
1.589883083848384
 20
3.313752663695337
 30
0.0
 40
0.0343556362431295
100
AcDbArc
 50
239.3753508440049
 51
298.7914226834349
  0
LINE
  5
27E
330
1E
100
AcDbEntity
  8
IMAGE
100
AcDbLine
 10
1.726831331888997
 20
3.749409818715527
 30
0.0
 11
1.879161918246031
 21
3.837357923754575
 31
0.0
  0
LINE
  5
27F
330
1E
100
AcDbEntity
  8
IMAGE
100
AcDbLine
 10
1.726831331888997
 20
3.641739576209925
 30
0.0
 11
1.879161918246031
 21
3.729687681248974
 31
0.0
  0
LWPOLYLINE
  5
280
330
1E
100
AcDbEntity
  8
IMAGE
100
AcDbPolyline
 90
        6
 70
     0
 43
0.0
 10
1.927204721464264
 20
3.81124840928319
 42
0.0916206593036187
 10
1.924391778722156
 20
3.828045283368413
 42
0.1338272256830822
 10
1.916292232905105
 20
3.83956810004474
 42
0.1492998140792331
 10
1.903883008775192
 20
3.844427037562337
 42
0.1119210550517672
 10
1.888660841903203
 20
3.842036036346311
 42
0.04280351424259
 10
1.879161918246031
 20
3.837357923754574
 42
0.0573757824643943
  0
LWPOLYLINE
  5
288
330
1E
100
AcDbEntity
  8
IMAGE
100
AcDbPolyline
 90
        7
 70
     0
 43
0.0
 10
1.879161918246031
 20
3.729687681248974
 42
0.0460155166304545
 10
1.888660841903203
 20
3.735954143739653
 42
0.0573757824643849
 10
1.903883008775192
 20
3.751140186806037
 42
0.0507700122154819
 10
1.916292232905105
 20
3.770328062107289
 42
0.0528850936149955
 10
1.924391778722156
 20
3.791203428699201
 42
0.0647821012387659
 10
1.927204721464264
 20
3.81124840928319
 10
1.927204721464264
 20
3.81124840928319
 42
0.0916206593036187
  0
LWPOLYLINE
  5
291
330
1E
100
AcDbEntity
  8
IMAGE
100
AcDbPolyline
 90
       11
 70
     0
 43
0.0
 10
1.726831331888997
 20
3.749409818715526
 42
0.0330010923162996
 10
1.720131163912039
 20
3.744735381391681
 42
0.0573757824643943
 10
1.704908997040019
 20
3.729549338325286
 42
0.0507700122154773
 10
1.692499772910137
 20
3.710361463024037
 42
0.0528850936149996
 10
1.684400227093056
 20
3.689486096432124
 42
0.0647821012387702
 10
1.681587284350949
 20
3.669441115848136
 42
0.0916206593036252
 10
1.684400227093056
 20
3.652644241762913
 42
0.1338272256830897
 10
1.692499772910137
 20
3.641121425086587
 42
0.1492998140792305
 10
1.704908997040019
 20
3.636262487568989
 42
0.1119210550517757
 10
1.720131163912039
 20
3.638653488785019
 42
0.0297922521763874
 10
1.726831331888997
 20
3.641739576209925
 42
0.0573757824643849
  0
LINE
  5
29E
330
1E
100
AcDbEntity
  8
IMAGE
100
AcDbLine
 10
1.499642869406684
 20
3.794995343000803
 30
0.0
 11
1.499642869406684
 21
3.290126524241658
 31
0.0
  0
LINE
  5
29F
330
1E
100
AcDbEntity
  8
IMAGE
100
AcDbLine
 10
1.499642869406684
 20
3.794995343000803
 30
0.0
 11
2.87377134880162
 21
4.588348790480589
 31
0.0
  0
LINE
  5
2A0
330
1E
100
AcDbEntity
  8
IMAGE
100
AcDbLine
 10
2.306550381567668
 20
3.687859074493204
 30
0.0
 11
2.306550381567668
 21
3.904231425389976
 31
0.0
  0
LINE
  5
2A1
330
1E
100
AcDbEntity
  8
IMAGE
100
AcDbLine
 10
2.794479127971469
 20
4.089601531454116
 30
0.0
 11
2.794479127971469
 21
4.185937218471567
 31
0.0
  0
LINE
  5
2A2
330
1E
100
AcDbEntity
  8
IMAGE
100
AcDbLine
 10
2.794479127971469
 20
4.185937218471567
 30
0.0
 11
2.306550381567668
 21
3.904231425389976
 31
0.0
  0
LINE
  5
2A3
330
1E
100
AcDbEntity
  8
IMAGE
100
AcDbLine
 10
2.306550381567668
 20
3.687859074493204
 30
0.0
 11
2.743142714477313
 21
3.939925775424709
 31
0.0
  0
LINE
  5
2A4
330
1E
100
AcDbEntity
  8
IMAGE
100
AcDbLine
 10
2.824264763530729
 20
4.105833533275933
 30
0.0
 11
2.824264763530729
 21
4.203133963179686
 31
0.0
  0
LINE
  5
2A5
330
1E
100
AcDbEntity
  8
IMAGE
100
AcDbLine
 10
2.824264763530729
 20
4.203133963179686
 30
0.0
 11
2.963987793497695
 21
4.283803092143104
 31
0.0
  0
LINE
  5
2A6
330
1E
100
AcDbEntity
  8
IMAGE
100
AcDbLine
 10
2.824264763530729
 20
4.159859493000327
 30
0.0
 11
2.963987793497695
 21
4.240528621963745
 31
0.0
  0
LINE
  5
2A7
330
1E
100
AcDbEntity
  8
IMAGE
100
AcDbLine
 10
2.824264763530729
 20
4.11658502282097
 30
0.0
 11
2.963987793497695
 21
4.197254151784393
 31
0.0
  0
LINE
  5
2A8
330
1E
100
AcDbEntity
  8
IMAGE
100
AcDbLine
 10
2.903234100576541
 20
4.118903520642739
 30
0.0
 11
2.963987793497695
 21
4.153979681605038
 31
0.0
  0
LINE
  5
2AB
330
1E
100
AcDbEntity
  8
IMAGE
100
AcDbLine
 10
2.963987793497695
 20
4.283803092143104
 30
0.0
 11
2.963987793497695
 21
4.536260773912414
 31
0.0
  0
LINE
  5
2AC
330
1E
100
AcDbEntity
  8
IMAGE
100
AcDbLine
 10
2.293674492579894
 20
4.052963931975454
 30
0.0
 11
2.293674492579894
 21
4.023974282077997
 31
0.0
  0
LINE
  5
2AD
330
1E
100
AcDbEntity
  8
IMAGE
100
AcDbLine
 10
2.293674492579894
 20
4.023974282077987
 30
0.0
 11
2.56223117865505
 21
4.179025557076163
 31
0.0
  0
LINE
  5
2AE
330
1E
100
AcDbEntity
  8
IMAGE
100
AcDbLine
 10
2.562231178655047
 20
4.179025557076167
 30
0.0
 11
2.761381173583618
 21
4.294004860257289
 31
0.0
  0
LINE
  5
2AF
330
1E
100
AcDbEntity
  8
IMAGE
100
AcDbLine
 10
2.761381173583618
 20
4.294004860257289
 30
0.0
 11
2.761381173583618
 21
4.322994510154749
 31
0.0
  0
LINE
  5
2B0
330
1E
100
AcDbEntity
  8
IMAGE
100
AcDbLine
 10
2.761381173583618
 20
4.322994510154749
 30
0.0
 11
2.562212071712074
 21
4.20800417557495
 31
0.0
  0
LINE
  5
2B2
330
1E
100
AcDbEntity
  8
IMAGE
100
AcDbLine
 10
2.562212071712075
 20
4.208004175574948
 30
0.0
 11
2.293674492579894
 21
4.052963931975447
 31
0.0
  0
LWPOLYLINE
  5
2B8
330
1E
100
AcDbEntity
  8
IMAGE
100
AcDbPolyline
 90
       11
 70
     0
 43
0.0
 10
2.258006933306539
 20
3.976531417865827
 42
0.0330010923162996
 10
2.257180382971842
 20
3.975954766989631
 42
0.0573757824643943
 10
2.255302536451245
 20
3.974081376796672
 42
0.0507700122154773
 10
2.253771701941853
 20
3.971714310059398
 42
0.0528850936149996
 10
2.252772520678173
 20
3.969139069960526
 42
0.0647821012387702
 10
2.252425508666997
 20
3.96666626846246
 42
0.0916206593036252
 10
2.252772520678173
 20
3.964594161920543
 42
0.1338272256830897
 10
2.253771701941853
 20
3.963172676964759
 42
0.1492998140792305
 10
2.255302536451245
 20
3.96257326565966
 42
0.1119210550517757
 10
2.257180382971842
 20
3.962868225855012
 42
0.0297922521763874
 10
2.258006933306539
 20
3.963248933712296
 42
0.0573757824643849
  0
LINE
  5
2C5
330
1E
100
AcDbEntity
  8
IMAGE
100
AcDbLine
 10
2.258006933306539
 20
3.963248933712296
 30
0.0
 11
2.26975656450541
 21
3.970032586447846
 31
0.0
  0
LINE
  5
2C6
330
1E
100
AcDbEntity
  8
IMAGE
100
AcDbLine
 10
2.258006933306539
 20
3.976531417865827
 30
0.0
 11
2.26975656450541
 21
3.983315070601373
 31
0.0
  0
LWPOLYLINE
  5
2C7
330
1E
100
AcDbEntity
  8
IMAGE
100
AcDbPolyline
 90
        7
 70
     0
 43
0.0
 10
2.26975656450541
 20
3.970032586447847
 42
0.0460155166304545
 10
2.270928376698015
 20
3.97080563373365
 42
0.0573757824643849
 10
2.272806223218612
 20
3.972679023926618
 42
0.0507700122154819
 10
2.274337057728001
 20
3.975046090663883
 42
0.0528850936149955
 10
2.275336238991685
 20
3.977621330762764
 42
0.0647821012387659
 10
2.275683251002861
 20
3.980094132260822
 10
2.275683251002861
 20
3.980094132260822
 42
0.0916206593036187
  0
LWPOLYLINE
  5
2D0
330
1E
100
AcDbEntity
  8
IMAGE
100
AcDbPolyline
 90
        6
 70
     0
 43
0.0
 10
2.275683251002861
 20
3.980094132260822
 42
0.0916206593036187
 10
2.275336238991685
 20
3.982166238802743
 42
0.1338272256830822
 10
2.274337057728001
 20
3.983587723758527
 42
0.1492998140792331
 10
2.272806223218612
 20
3.984187135063624
 42
0.1119210550517672
 10
2.270928376698045
 20
3.983892174868276
 42
0.04280351424259
 10
2.26975656450541
 20
3.983315070601372
 42
0.0573757824643943
  0
LWPOLYLINE
  5
2D8
330
1E
100
AcDbEntity
  8
IMAGE
100
AcDbPolyline
 90
        6
 70
     0
 43
0.0
 10
2.275683251002861
 20
4.040177465356634
 42
0.0916206593036187
 10
2.275336238991685
 20
4.042249571898553
 42
0.1338272256830822
 10
2.274337057728001
 20
4.043671056854339
 42
0.1492998140792331
 10
2.272806223218612
 20
4.044270468159435
 42
0.1119210550517672
 10
2.270928376698045
 20
4.043975507964082
 42
0.04280351424259
 10
2.26975656450541
 20
4.043398403697185
 42
0.0573757824643943
  0
LWPOLYLINE
  5
2E0
330
1E
100
AcDbEntity
  8
IMAGE
100
AcDbPolyline
 90
        7
 70
     0
 43
0.0
 10
2.26975656450541
 20
4.030115919543655
 42
0.0460155166304545
 10
2.270928376698015
 20
4.030888966829462
 42
0.0573757824643849
 10
2.272806223218612
 20
4.032762357022428
 42
0.0507700122154819
 10
2.274337057728001
 20
4.035129423759695
 42
0.0528850936149955
 10
2.275336238991685
 20
4.037704663858577
 42
0.0647821012387659
 10
2.275683251002861
 20
4.040177465356634
 10
2.275683251002861
 20
4.040177465356634
 42
0.0916206593036187
  0
LINE
  5
2E9
330
1E
100
AcDbEntity
  8
IMAGE
100
AcDbLine
 10
2.258006933306539
 20
4.036614750961637
 30
0.0
 11
2.26975656450541
 21
4.043398403697183
 31
0.0
  0
LINE
  5
2EA
330
1E
100
AcDbEntity
  8
IMAGE
100
AcDbLine
 10
2.258006933306539
 20
4.023332266808109
 30
0.0
 11
2.26975656450541
 21
4.030115919543655
 31
0.0
  0
LWPOLYLINE
  5
2EB
330
1E
100
AcDbEntity
  8
IMAGE
100
AcDbPolyline
 90
       11
 70
     0
 43
0.0
 10
2.258006933306539
 20
4.036614750961636
 42
0.0330010923162996
 10
2.257180382971842
 20
4.036038100085442
 42
0.0573757824643943
 10
2.255302536451245
 20
4.034164709892478
 42
0.0507700122154773
 10
2.253771701941853
 20
4.03179764315521
 42
0.0528850936149996
 10
2.252772520678173
 20
4.029222403056336
 42
0.0647821012387702
 10
2.252425508666997
 20
4.026749601558271
 42
0.0916206593036252
 10
2.252772520678173
 20
4.024677495016357
 42
0.1338272256830897
 10
2.253771701941853
 20
4.023256010060572
 42
0.1492998140792305
 10
2.255302536451245
 20
4.022656598755472
 42
0.1119210550517757
 10
2.257180382971842
 20
4.022951558950824
 42
0.0297922521763874
 10
2.258006933306539
 20
4.023332266808111
 42
0.0573757824643849
  0
LINE
  5
318
330
1E
100
AcDbEntity
  8
IMAGE
100
AcDbLine
 10
2.276933455283455
 20
3.670759734130442
 30
0.0
 11
2.263374758002774
 21
3.706206086784931
 31
0.0
  0
LINE
  5
319
330
1E
100
AcDbEntity
  8
IMAGE
100
AcDbLine
 10
2.276933455283455
 20
3.714034204309797
 30
0.0
 11
2.263374758002774
 21
3.749480556964282
 31
0.0
  0
LINE
  5
31A
330
1E
100
AcDbEntity
  8
IMAGE
100
AcDbLine
 10
2.276933455283455
 20
3.757308674489154
 30
0.0
 11
2.263374758002774
 21
3.792755027143641
 31
0.0
  0
LINE
  5
31B
330
1E
100
AcDbEntity
  8
IMAGE
100
AcDbLine
 10
2.276933455283455
 20
3.800583144668509
 30
0.0
 11
2.263374758002774
 21
3.836029497322993
 31
0.0
  0
LINE
  5
31C
330
1E
100
AcDbEntity
  8
IMAGE
100
AcDbLine
 10
2.276933455283455
 20
3.843857614847863
 30
0.0
 11
2.263374758002774
 21
3.879303967502348
 31
0.0
  0
LINE
  5
31D
330
1E
100
AcDbEntity
  8
IMAGE
100
AcDbLine
 10
2.414320731068445
 20
5.535053982310118
 30
0.0
 11
1.440178454114327
 21
4.972632676480712
 31
0.0
  0
ARC
  5
31E
330
1E
100
AcDbEntity
  8
IMAGE
100
AcDbCircle
 10
-0.6727580661081883
 20
5.000529406091894
 30
0.0
 40
3.045322272269339
100
AcDbArc
 50
353.5999954330317
 51
6.400004566968314
  0
LINE
  5
31F
330
1E
100
AcDbEntity
  8
IMAGE
100
AcDbLine
 10
2.386456415825648
 20
5.358966510269164
 30
0.0
 11
2.386456415825648
 21
4.632255412295355
 31
0.0
  0
LINE
  5
320
330
1E
100
AcDbEntity
  8
IMAGE
100
AcDbLine
 10
2.386456415825648
 20
5.358966510269164
 30
0.0
 11
1.57874252056846
 21
4.89263267541345
 31
0.0
  0
LINE
  5
321
330
1E
100
AcDbEntity
  8
IMAGE
100
AcDbLine
 10
0.7905497202172178
 20
5.401076264069307
 30
0.0
 11
0.7905497202172178
 21
4.631093788410629
 31
0.0
  0
ARC
  5
322
330
1E
100
AcDbEntity
  8
IMAGE
100
AcDbCircle
 10
2.338347659532789
 20
4.390078129168113
 30
0.0
 40
1.222094444593049
100
AcDbArc
 50
92.59927624826023
 51
147.400723751823
  0
LINE
  5
323
330
1E
100
AcDbEntity
  8
IMAGE
100
AcDbLine
 10
2.469670606674114
 20
5.503097716729573
 30
0.0
 11
1.495528329719996
 21
4.940676410900175
 31
0.0
  0
LINE
  5
324
330
1E
100
AcDbEntity
  8
IMAGE
100
AcDbLine
 10
2.469670606674114
 20
5.503097716729572
 30
0.0
 11
2.469670606674114
 21
4.584211676808633
 31
0.0
  0
LINE
  5
325
330
1E
100
AcDbEntity
  8
IMAGE
100
AcDbLine
 10
1.495528329719996
 20
4.021790370979227
 30
0.0
 11
1.308782948223284
 21
4.129607867256279
 31
0.0
  0
LINE
  5
326
330
1E
100
AcDbEntity
  8
IMAGE
100
AcDbLine
 10
1.495528329719996
 20
4.940676410900175
 30
0.0
 11
1.308782948223284
 21
5.048493907177223
 31
0.0
  0
LINE
  5
327
330
1E
100
AcDbEntity
  8
IMAGE
100
AcDbLine
 10
1.308782948223284
 20
4.33189169471832
 30
0.0
 11
0.7905497202172178
 21
4.631093788410629
 31
0.0
  0
LINE
  5
328
330
1E
100
AcDbEntity
  8
IMAGE
100
AcDbLine
 10
1.440178454114327
 20
4.972632676480712
 30
0.0
 11
1.440178454114327
 21
4.053746636559771
 31
0.0
  0
LINE
  5
329
330
1E
100
AcDbEntity
  8
IMAGE
100
AcDbLine
 10
1.308782948223284
 20
5.048493907177223
 30
0.0
 11
1.308782948223284
 21
4.129607867256279
 31
0.0
  0
LINE
  5
32A
330
1E
100
AcDbEntity
  8
IMAGE
100
AcDbLine
 10
2.299930795404501
 20
4.449645741994876
 30
0.0
 11
1.720621343706141
 21
4.115181274112176
 31
0.0
  0
ARC
  5
32B
330
1E
100
AcDbEntity
  8
IMAGE
100
AcDbCircle
 10
-0.3206555367668367
 20
8.398280075864919
 30
0.0
 40
4.595465333098895
100
AcDbArc
 50
294.4135678153628
 51
305.5864321847203
  0
LINE
  5
32C
330
1E
100
AcDbEntity
  8
IMAGE
100
AcDbLine
 10
2.386456415825648
 20
4.632255412295355
 30
0.0
 11
1.57874252056846
 21
4.165921577439638
 31
0.0
  0
LINE
  5
32D
330
1E
100
AcDbEntity
  8
IMAGE
100
AcDbLine
 10
1.57874252056846
 20
4.89263267541345
 30
0.0
 11
1.57874252056846
 21
4.165921577439638
 31
0.0
  0
LINE
  5
32E
330
1E
100
AcDbEntity
  8
IMAGE
100
AcDbLine
 10
2.469670606674114
 20
4.584211676808633
 30
0.0
 11
1.495528329719996
 21
4.021790370979227
 31
0.0
  0
LINE
  5
32F
330
1E
100
AcDbEntity
  8
IMAGE
100
AcDbLine
 10
1.495528329719996
 20
4.940676410900175
 30
0.0
 11
1.495528329719996
 21
4.021790370979227
 31
0.0
  0
LINE
  5
330
330
1E
100
AcDbEntity
  8
IMAGE
100
AcDbLine
 10
1.720621343706141
 20
4.151747883197053
 30
0.0
 11
1.720621343706141
 21
4.115181274112176
 31
0.0
  0
LINE
  5
331
330
1E
100
AcDbEntity
  8
IMAGE
100
AcDbLine
 10
1.720621343706141
 20
4.115181274112176
 30
0.0
 11
1.688953731308397
 21
4.133464578654602
 31
0.0
  0
LINE
  5
332
330
1E
100
AcDbEntity
  8
IMAGE
100
AcDbLine
 10
2.299930795404501
 20
4.486212351079757
 30
0.0
 11
2.299930795404501
 21
4.449645741994876
 31
0.0
  0
ARC
  5
333
330
1E
100
AcDbEntity
  8
IMAGE
100
AcDbCircle
 10
1.746452109362071
 20
4.639652956091173
 30
0.0
 40
1.222094444593049
100
AcDbArc
 50
100.9057319219941
 51
141.4609526495484
  0
LINE
  5
334
330
1E
100
AcDbEntity
  8
IMAGE
100
AcDbLine
 10
1.334475899387384
 20
5.087040338106127
 30
0.0
 11
0.7905497202172178
 21
5.401076264069307
 31
0.0
  0
LINE
  5
335
330
1E
100
AcDbEntity
  8
IMAGE
100
AcDbLine
 10
1.994697573524962
 20
5.562860909520886
 30
0.0
 11
1.515239566418674
 21
5.839676118988807
 31
0.0
  0
LINE
  5
336
330
1E
100
AcDbEntity
  8
IMAGE
100
AcDbLine
 10
2.469670606674114
 20
5.503097716729572
 30
0.0
 11
2.282925225177404
 21
5.61091521300662
 31
0.0
  0
LWPOLYLINE
  5
337
330
1E
100
AcDbEntity
  8
IMAGE
100
AcDbPolyline
 90
      322
 70
     0
 43
0.015625
 10
1.595807435343715
 20
2.995286218876781
 42
-0.2899700021476821
 10
1.518611748898621
 20
3.034641753363635
 42
-0.0275081070956442
 10
1.517060376270439
 20
3.03762263997264
 42
-0.1066170543910081
 10
1.51133034659377
 20
3.064189193217679
 42
-0.0723410840576596
 10
1.515512451896717
 20
3.09294338890042
 42
-0.0587518675353761
 10
1.529624842932872
 20
3.125750977797205
 42
-0.0587518675353761
 10
1.537633346646662
 20
3.136485534144895
 42
-0.0723410840576596
 10
1.54618740087486
 20
3.143235124373028
 42
-0.1066170543910081
 10
1.555889522689681
 20
3.146355471382304
 42
-0.1568512196707774
 10
1.562749958816846
 20
3.144875772369752
 42
-0.1568512196707774
 10
1.567461633815252
 20
3.139674309908866
 42
-0.1066170543910081
 10
1.569610394944014
 20
3.129711852441979
 42
-0.0723410840576596
 10
1.568042105455393
 20
3.118929029060948
 42
-0.0587518675353761
 10
1.562749958816846
 20
3.106626183224656
 42
-0.0587518675353761
 10
1.541393948913394
 20
3.078000699630816
 42
-0.0723410840576596
 10
1.518583137638213
 20
3.060001792355795
 42
-0.1066170543910081
 10
1.492710812798681
 20
3.051680866997722
 42
-0.1568512196707774
 10
1.474416316459579
 20
3.055626731031193
 42
-0.1568512196707774
 10
1.461851849797179
 20
3.069497297593553
 42
-0.1066170543910081
 10
1.456121820120477
 20
3.096063850838593
 42
-0.0723410840576596
 10
1.460303925423424
 20
3.124818046521335
 42
-0.0587518675353761
 10
1.474416316459579
 20
3.157625635418119
 42
-0.0587518675353761
 10
1.48242482017337
 20
3.168360191765809
 42
-0.0723410840576596
 10
1.490978874401566
 20
3.175109781993942
 42
-0.1066170543910081
 10
1.500680996216387
 20
3.178230129003219
 42
-0.1568512196707774
 10
1.507541432343554
 20
3.176750429990665
 42
-0.1568512196707774
 10
1.512253107341958
 20
3.171548967529782
 42
-0.1066170543910081
 10
1.514401868470721
 20
3.161586510062894
 42
-0.0723410840576596
 10
1.512833578982101
 20
3.150803686681863
 42
-0.0587518675353761
 10
1.507541432343554
 20
3.138500840845571
 42
-0.0587518675353761
 10
1.486185422440103
 20
3.109875357251731
 42
-0.0723410840576596
 10
1.46337461116492
 20
3.091876449976709
 42
-0.1066170543910081
 10
1.437502286325387
 20
3.083555524618633
 42
-0.1568512196707774
 10
1.419207789986286
 20
3.087501388652107
 42
-0.1568512196707774
 10
1.406643323323886
 20
3.101371955214468
 42
-0.1066170543910081
 10
1.400913293647215
 20
3.127938508459502
 42
-0.0723410840576596
 10
1.405095398950132
 20
3.15669270414225
 42
-0.0587518675353761
 10
1.419207789986286
 20
3.189500293039031
 42
-0.0587518675353761
 10
1.427216293700076
 20
3.20023484938672
 42
-0.0723410840576596
 10
1.435770347928273
 20
3.206984439614855
 42
-0.1066170543910081
 10
1.445472469743095
 20
3.210104786624133
 42
-0.1568512196707774
 10
1.452332905870261
 20
3.208625087611579
 42
-0.1568512196707774
 10
1.457044580868666
 20
3.203423625150694
 42
-0.1066170543910081
 10
1.459193341997429
 20
3.193461167683809
 42
-0.0723410840576596
 10
1.457625052508839
 20
3.182678344302776
 42
-0.0587518675353761
 10
1.452332905870261
 20
3.170375498466484
 42
-0.0587518675353761
 10
1.430976895966809
 20
3.141750014872647
 42
-0.0723410840576596
 10
1.408166084691627
 20
3.123751107597621
 42
-0.1066170543910081
 10
1.382293759852095
 20
3.115430182239547
 42
-0.1568512196707774
 10
1.363999263513024
 20
3.119376046273021
 42
-0.1568512196707774
 10
1.351434796850592
 20
3.133246612835383
 42
-0.1066170543910081
 10
1.345704767173922
 20
3.159813166080416
 42
-0.0723410840576596
 10
1.34988687247687
 20
3.188567361763164
 42
-0.0587518675353761
 10
1.363999263513024
 20
3.221374950659946
 42
-0.0587518675353761
 10
1.372007767226815
 20
3.232109507007632
 42
-0.0723410840576596
 10
1.380561821455012
 20
3.238859097235769
 42
-0.1066170543910081
 10
1.390263943269834
 20
3.241979444245048
 42
-0.1568512196707774
 10
1.397124379396969
 20
3.240499745232495
 42
-0.1568512196707774
 10
1.401836054395404
 20
3.235298282771609
 42
-0.1066170543910081
 10
1.403984815524137
 20
3.225335825304721
 42
-0.0723410840576596
 10
1.402416526035546
 20
3.21455300192369
 42
-0.0587518675353761
 10
1.397124379396969
 20
3.202250156087396
 42
-0.0587518675353761
 10
1.375768369493517
 20
3.173624672493559
 42
-0.0723410840576596
 10
1.352957558218365
 20
3.155625765218536
 42
-0.1066170543910081
 10
1.327085233378833
 20
3.147304839860462
 42
-0.1568512196707774
 10
1.30879073703973
 20
3.151250703893936
 42
-0.1568512196707774
 10
1.296226270377299
 20
3.165121270456297
 42
-0.1066170543910081
 10
1.290496240700629
 20
3.191687823701331
 42
-0.0723410840576596
 10
1.294678346003578
 20
3.220442019384078
 42
-0.0587518675353761
 10
1.30879073703973
 20
3.253249608280859
 42
-0.0587518675353761
 10
1.316799240753522
 20
3.263984164628547
 42
-0.0723410840576596
 10
1.325353294981719
 20
3.270733754856683
 42
-0.1066170543910081
 10
1.33505541679654
 20
3.273854101865961
 42
-0.1568512196707774
 10
1.341915852923707
 20
3.272374402853409
 42
-0.1568512196707774
 10
1.346627527922112
 20
3.267172940392523
 42
-0.1066170543910081
 10
1.348776289050843
 20
3.257210482925636
 42
-0.0723410840576596
 10
1.347207999562253
 20
3.246427659544604
 42
-0.0587518675353761
 10
1.341915852923707
 20
3.23412481370831
 42
-0.0587518675353761
 10
1.320559843020255
 20
3.205499330114474
 42
-0.0723410840576596
 10
1.297749031745073
 20
3.187500422839451
 42
-0.1066170543910081
 10
1.271876706905539
 20
3.179179497481374
 42
-0.1568512196707774
 10
1.253582210566438
 20
3.183125361514849
 42
-0.1568512196707774
 10
1.241017743904038
 20
3.19699592807721
 42
-0.1066170543910081
 10
1.235287714227336
 20
3.223562481322244
 42
-0.0723410840576596
 10
1.239469819530284
 20
3.252316677004992
 42
-0.0587518675353761
 10
1.253582210566438
 20
3.285124265901774
 42
-0.0587518675353761
 10
1.261590714280228
 20
3.295858822249462
 42
-0.0723410840576596
 10
1.270144768508426
 20
3.302608412477597
 42
-0.1066170543910081
 10
1.279846890323247
 20
3.305728759486873
 42
-0.1568512196707774
 10
1.286707326450413
 20
3.304249060474322
 42
-0.1568512196707774
 10
1.291419001448818
 20
3.299047598013438
 42
-0.1066170543910081
 10
1.29356776257758
 20
3.289085140546548
 42
-0.0723410840576596
 10
1.291999473088959
 20
3.278302317165518
 42
-0.0587518675353761
 10
1.286707326450413
 20
3.265999471329225
 42
-0.0587518675353761
 10
1.265351316546961
 20
3.237373987735386
 42
-0.0723410840576596
 10
1.24254050527178
 20
3.219375080460365
 42
-0.1066170543910081
 10
1.216668180432247
 20
3.211054155102289
 42
-0.1568512196707774
 10
1.198373684093144
 20
3.215000019135763
 42
-0.1568512196707774
 10
1.185809217430744
 20
3.228870585698125
 42
-0.1066170543910081
 10
1.180079187754075
 20
3.255437138943158
 42
-0.0723410840576596
 10
1.184261293056991
 20
3.284191334625906
 42
-0.0587518675353761
 10
1.198373684093144
 20
3.316998923522689
 42
-0.0587518675353761
 10
1.206382187806935
 20
3.327733479870376
 42
-0.0723410840576596
 10
1.214936242035133
 20
3.334483070098511
 42
-0.1066170543910081
 10
1.224638363849954
 20
3.337603417107788
 42
-0.1568512196707774
 10
1.231498799977121
 20
3.336123718095234
 42
-0.1568512196707774
 10
1.236210474975524
 20
3.330922255634352
 42
-0.1066170543910081
 10
1.238359236104287
 20
3.320959798167458
 42
-0.0723410840576596
 10
1.236790946615698
 20
3.310176974786431
 42
-0.0587518675353761
 10
1.231498799977121
 20
3.29787412895014
 42
-0.0587518675353761
 10
1.210142790073669
 20
3.2692486453563
 42
-0.0723410840576596
 10
1.187331978798486
 20
3.251249738081278
 42
-0.1066170543910081
 10
1.161459653958954
 20
3.242928812723203
 42
-0.1568512196707774
 10
1.143165157619884
 20
3.246874676756677
 42
-0.1568512196707774
 10
1.130600690957452
 20
3.260745243319037
 42
-0.1066170543910081
 10
1.124870661280783
 20
3.287311796564072
 42
-0.0723410840576596
 10
1.129052766583729
 20
3.316065992246819
 42
-0.0587518675353761
 10
1.143165157619884
 20
3.3488735811436
 42
-0.0587518675353761
 10
1.151173661333674
 20
3.359608137491288
 42
-0.0723410840576596
 10
1.159727715561871
 20
3.366357727719424
 42
-0.1066170543910081
 10
1.169429837376692
 20
3.369478074728703
 42
-0.1568512196707774
 10
1.176290273503828
 20
3.367998375716149
 42
-0.1568512196707774
 10
1.181001948502264
 20
3.362796913255264
 42
-0.1066170543910081
 10
1.183150709630995
 20
3.352834455788372
 42
-0.0723410840576596
 10
1.181582420142404
 20
3.342051632407346
 42
-0.0587518675353761
 10
1.176290273503828
 20
3.329748786571053
 42
-0.0587518675353761
 10
1.154934263600376
 20
3.301123302977214
 42
-0.0723410840576596
 10
1.132123452325225
 20
3.283124395702193
 42
-0.1066170543910081
 10
1.106251127485691
 20
3.274803470344116
 42
-0.1568512196707774
 10
1.08795663114659
 20
3.278749334377591
 42
-0.1568512196707774
 10
1.075392164484159
 20
3.292619900939953
 42
-0.1066170543910081
 10
1.069662134807489
 20
3.319186454184987
 42
-0.0723410840576596
 10
1.073844240110437
 20
3.347940649867734
 42
-0.0587518675353761
 10
1.08795663114659
 20
3.380748238764515
 42
-0.0587518675353761
 10
1.095965134860381
 20
3.391482795112202
 42
-0.0723410840576596
 10
1.104519189088579
 20
3.398232385340339
 42
-0.1066170543910081
 10
1.114221310903399
 20
3.401352732349618
 42
-0.1568512196707774
 10
1.121081747030566
 20
3.399873033337065
 42
-0.1568512196707774
 10
1.12579342202897
 20
3.394671570876178
 42
-0.1066170543910081
 10
1.127942183157733
 20
3.384709113409287
 42
-0.0723410840576596
 10
1.126373893669112
 20
3.37392629002826
 42
-0.0587518675353761
 10
1.121081747030566
 20
3.361623444191967
 42
-0.0587518675353761
 10
1.099725737127115
 20
3.332997960598129
 42
-0.0723410840576596
 10
1.076914925851932
 20
3.314999053323106
 42
-0.1066170543910081
 10
1.0510426010124
 20
3.306678127965028
 42
-0.1568512196707774
 10
1.032748104673298
 20
3.310623991998505
 42
-0.1568512196707774
 10
1.020183638010898
 20
3.324494558560866
 42
-0.1066170543910081
 10
1.014453608334197
 20
3.3510611118059
 42
-0.0723410840576596
 10
1.018635713637143
 20
3.379815307488647
 42
-0.0587518675353761
 10
1.032748104673298
 20
3.412622896385429
 42
-0.0587518675353761
 10
1.040756608387089
 20
3.423357452733116
 42
-0.0723410840576596
 10
1.049310662615285
 20
3.430107042961252
 42
-0.1066170543910081
 10
1.059012784430106
 20
3.433227389970526
 42
-0.1568512196707774
 10
1.065873220557273
 20
3.431747690957978
 42
-0.1568512196707774
 10
1.070584895555678
 20
3.426546228497088
 42
-0.1066170543910081
 10
1.072733656684441
 20
3.416583771030202
 42
-0.0723410840576596
 10
1.07116536719582
 20
3.405800947649175
 42
-0.0587518675353761
 10
1.065873220557273
 20
3.393498101812882
 42
-0.0587518675353761
 10
1.044517210653822
 20
3.364872618219042
 42
-0.0723410840576596
 10
1.02170639937864
 20
3.346873710944021
 42
-0.1066170543910081
 10
0.9958340745391067
 20
3.338552785585943
 42
-0.1568512196707774
 10
0.9775395782000044
 20
3.342498649619419
 42
-0.1568512196707774
 10
0.9649751115376044
 20
3.356369216181779
 42
-0.1066170543910081
 10
0.9592450818609352
 20
3.382935769426814
 42
-0.0723410840576596
 10
0.9634271871638514
 20
3.411689965109562
 42
-0.0587518675353761
 10
0.9775395782000044
 20
3.444497554006344
 42
-0.0587518675353761
 10
0.9855480819137953
 20
3.455232110354031
 42
-0.0723410840576596
 10
0.9941021361419933
 20
3.461981700582163
 42
-0.1066170543910081
 10
1.003804257956814
 20
3.465102047591441
 42
-0.1568512196707774
 10
1.01066469408398
 20
3.46362234857889
 42
-0.1568512196707774
 10
1.015376369082385
 20
3.458420886118001
 42
-0.1066170543910081
 10
1.017525130211148
 20
3.448458428651115
 42
-0.0723410840576596
 10
1.015956840722558
 20
3.437675605270088
 42
-0.0587518675353761
 10
1.01066469408398
 20
3.425372759433795
 42
-0.0587518675353761
 10
0.9893086841805288
 20
3.396747275839955
 42
-0.0723410840576596
 10
0.9664978729053464
 20
3.378748368564934
 42
-0.1066170543910081
 10
0.9406255480658129
 20
3.370427443206859
 42
-0.1568512196707774
 10
0.9223310517267439
 20
3.374373307240333
 42
-0.1568512196707774
 10
0.9097665850643119
 20
3.388243873802695
 42
-0.1066170543910081
 10
0.9040365553876414
 20
3.414810427047727
 42
-0.0723410840576596
 10
0.9082186606905896
 20
3.443564622730474
 42
-0.0587518675353761
 10
0.9223310517267439
 20
3.476372211627257
 42
-0.0587518675353761
 10
0.9303395554405335
 20
3.487106767974946
 42
-0.0723410840576596
 10
0.9388936096687315
 20
3.493856358203076
 42
-0.1066170543910081
 10
0.9485957314835523
 20
3.496976705212355
 42
-0.1568512196707774
 10
0.9554561676106885
 20
3.495497006199801
 42
-0.1568512196707774
 10
0.9601678426091238
 20
3.490295543738916
 42
-0.1066170543910081
 10
0.9623166037378549
 20
3.480333086272029
 42
-0.0723410840576596
 10
0.9607483142492657
 20
3.469550262891001
 42
-0.0587518675353761
 10
0.9554561676106885
 20
3.45724741705471
 42
-0.0587518675353761
 10
0.9341001577072351
 20
3.42862193346087
 42
-0.0723410840576596
 10
0.9112893464320846
 20
3.410623026185847
 42
-0.1066170543910081
 10
0.8854170215925524
 20
3.402302100827772
 42
-0.1568512196707774
 10
0.8671225252534501
 20
3.406247964861245
 42
-0.1568512196707774
 10
0.8545580585910194
 20
3.420118531423607
 42
-0.1066170543910081
 10
0.848828028914349
 20
3.446685084668642
 42
-0.0723410840576596
 10
0.8530101342172971
 20
3.475439280351389
 42
-0.0587518675353761
 10
0.8671225252534501
 20
3.50824686924817
 42
-0.0587518675353761
 10
0.875131028967241
 20
3.518981425595859
 42
-0.0723410840576596
 10
0.8836850831954389
 20
3.52573101582399
 42
-0.1066170543910081
 10
0.89338720501026
 20
3.528851362833267
 42
-0.1568512196707774
 10
0.9002476411374267
 20
3.527371663820716
 42
-0.1568512196707774
 10
0.90495931613583
 20
3.522170201359831
 42
-0.1066170543910081
 10
0.9071080772645627
 20
3.512207743892943
 42
-0.0723410840576596
 10
0.905539787775972
 20
3.501424920511915
 42
-0.0587518675353761
 10
0.9002476411374267
 20
3.489122074675623
 42
-0.0587518675353761
 10
0.8788916312339747
 20
3.460496591081783
 42
-0.0723410840576596
 10
0.8560808199587921
 20
3.44249768380676
 42
-0.1066170543910081
 10
0.8302084951192586
 20
3.434176758448686
 42
-0.1568512196707774
 10
0.8119139987801577
 20
3.43812262248216
 42
-0.1568512196707774
 10
0.7993495321177578
 20
3.45199318904452
 42
-0.1066170543910081
 10
0.7936195024410569
 20
3.478559742289555
 42
-0.0723410840576596
 10
0.7978016077440034
 20
3.507313937972303
 42
-0.0587518675353761
 10
0.8119139987801577
 20
3.540121526869081
 42
-0.0587518675353761
 10
0.8199225024939488
 20
3.550856083216773
 42
-0.0723410840576596
 10
0.8284765567221468
 20
3.557605673444905
 42
-0.1066170543910081
 10
0.8381786785369662
 20
3.560726020454182
 42
-0.1568512196707774
 10
0.8450391146641342
 20
3.55924632144163
 42
-0.1568512196707774
 10
0.8497507896625375
 20
3.554044858980745
 42
-0.1066170543910081
 10
0.8518995507913007
 20
3.544082401513856
 42
-0.0723410840576596
 10
0.8503312613026798
 20
3.533299578132824
 42
-0.0587518675353761
 10
0.8450391146641342
 20
3.520996732296533
 42
-0.0587518675353761
 10
0.8236831047606809
 20
3.492371248702694
 42
-0.0723410840576596
 10
0.8008722934854999
 20
3.474372341427672
 42
-0.1066170543910081
 10
0.7749999686459664
 20
3.4660514160696
 42
-0.1568512196707774
 10
0.7567054723068654
 20
3.469997280103074
 42
-0.1568512196707774
 10
0.744141005644464
 20
3.483867846665435
 42
-0.1066170543910081
 10
0.7384109759677948
 20
3.51043439991047
 42
-0.0723410840576596
 10
0.7425930812707112
 20
3.539188595593216
 42
-0.0587518675353761
 10
0.7567054723068654
 20
3.571996184489994
 42
-0.0587518675353761
 10
0.7647139760206552
 20
3.582730740837686
 42
-0.0723410840576596
 10
0.7732680302488531
 20
3.58948033106582
 42
-0.1066170543910081
 10
0.7829701520636741
 20
3.592600678075095
 42
-0.1568512196707774
 10
0.7898305881908405
 20
3.591120979062544
 42
-0.1568512196707774
 10
0.7945422631892438
 20
3.585919516601659
 42
-0.1066170543910081
 10
0.7966910243180086
 20
3.575957059134771
 42
-0.0723410840576596
 10
0.7951227348294179
 20
3.565174235753739
 42
-0.0587518675353761
 10
0.7898305881908405
 20
3.552871389917446
 42
-0.0587518675353761
 10
0.7684745782873888
 20
3.524245906323609
 42
-0.0723410840576596
 10
0.7456637670122062
 20
3.506246999048586
 42
-0.1066170543910081
 10
0.7197914421726739
 20
3.497926073690514
 42
-0.1568512196707774
 10
0.7014969458336036
 20
3.501871937723988
 42
-0.1568512196707774
 10
0.6889324791711715
 20
3.515742504286347
 42
-0.1066170543910081
 10
0.6832024494945026
 20
3.542309057531382
 42
-0.0723410840576596
 10
0.6873845547974491
 20
3.571063253214131
 42
-0.0587518675353761
 10
0.7014969458336036
 20
3.603870842110908
 42
-0.0587518675353761
 10
0.7095054495473932
 20
3.6146053984586
 42
-0.0723410840576596
 10
0.7180595037755911
 20
3.621354988686731
 42
-0.1066170543910081
 10
0.7277616255904121
 20
3.62447533569601
 42
-0.1568512196707774
 10
0.7346220617175482
 20
3.622995636683457
 42
-0.1568512196707774
 10
0.7393337367159834
 20
3.617794174222571
 42
-0.1066170543910081
 10
0.7414824978447148
 20
3.607831716755685
 42
-0.0723410840576596
 10
0.7399142083561241
 20
3.597048893374653
 42
-0.0587518675353761
 10
0.7346220617175482
 20
3.584746047538359
 42
-0.0587518675353761
 10
0.7132660518140963
 20
3.556120563944522
 42
-0.0723410840576596
 10
0.6904552405389457
 20
3.5381216566695
 42
-0.1066170543910081
 10
0.6645829156994121
 20
3.529800731311428
 42
-0.1568512196707774
 10
0.6462884193603112
 20
3.533746595344902
 42
-0.1568512196707774
 10
0.6337239526978791
 20
3.547617161907258
 42
-0.1066170543910081
 10
0.6279939230212089
 20
3.574183715152297
 42
-0.0723410840576596
 10
0.6321760283241554
 20
3.602937910835045
 42
-0.0587518675353761
 10
0.6462884193603112
 20
3.635745499731822
 42
-0.0587518675353761
 10
0.654296923074101
 20
3.646480056079513
 42
-0.0723410840576596
 10
0.6628509773022988
 20
3.653229646307646
 42
-0.1066170543910081
 10
0.6725530991171183
 20
3.656349993316923
 42
-0.1568512196707774
 10
0.6794135352442864
 20
3.654870294304371
 42
-0.1568512196707774
 10
0.6841252102426897
 20
3.649668831843486
 42
-0.1066170543910081
 10
0.6862739713714527
 20
3.639706374376598
 42
-0.0723410840576596
 10
0.684705681882832
 20
3.628923550995567
 42
-0.0587518675353761
 10
0.6794135352442864
 20
3.616620705159275
 42
-0.0587518675353761
 10
0.6580575253408345
 20
3.587995221565435
 42
-0.0723410840576596
 10
0.635246714065652
 20
3.569996314290413
 42
-0.1066170543910081
 10
0.6093743892261197
 20
3.561675388932342
 42
-0.1568512196707774
 10
0.5910798928870174
 20
3.565621252965812
 42
-0.1568512196707774
 10
0.5785154262246173
 20
3.579491819528172
 42
-0.1066170543910081
 10
0.5727853965479151
 20
3.606058372773211
 42
-0.0723410840576596
 10
0.5769675018508631
 20
3.634812568455959
 42
-0.0587518675353761
 10
0.5910798928870174
 20
3.667620157352737
 42
-0.0587518675353761
 10
0.5990883966008085
 20
3.678354713700429
 42
-0.0723410840576596
 10
0.6076424508290051
 20
3.685104303928559
 42
-0.1066170543910081
 10
0.617344572643826
 20
3.688224650937837
 42
-0.1568512196707774
 10
0.6242050087709926
 20
3.686744951925284
 42
-0.1568512196707774
 10
0.6289166837693971
 20
3.681543489464401
 42
-0.1066170543910081
 10
0.6310654448981606
 20
3.671581031997511
 42
-0.0723410840576596
 10
0.6294971554095394
 20
3.660798208616482
 42
-0.0587518675353761
 10
0.6242050087709926
 20
3.648495362780189
 42
-0.0587518675353761
 10
0.6028489988675421
 20
3.61986987918635
 42
-0.0723410840576596
 10
0.5800381875923582
 20
3.601870971911328
 42
-0.1066170543910081
 10
0.5541658627528259
 20
3.593550046553255
 42
-0.1568512196707774
 10
0.5358713664137249
 20
3.597495910586726
 42
-0.1568512196707774
 10
0.5233068997513249
 20
3.611366477149087
 42
-0.1066170543910081
 10
0.5175768700746546
 20
3.637933030394126
 42
-0.0723410840576596
 10
0.5217589753775707
 20
3.666687226076872
 42
-0.0587518675353761
 10
0.5358713664137249
 20
3.699494814973649
 42
-0.0587518675353761
 10
0.5438798701275147
 20
3.710229371321341
 42
-0.0723410840576596
 10
0.5524339243557126
 20
3.716978961549474
 42
-0.1066170543910081
 10
0.5621360461705337
 20
3.720099308558755
 42
-0.1568512196707774
 10
0.5689964822977001
 20
3.7186196095462
 42
-0.1568512196707774
 10
0.573708157296105
 20
3.713418147085315
 42
-0.1066170543910081
 10
0.5758569184248668
 20
3.703455689618426
 42
-0.0723410840576596
 10
0.5742886289362776
 20
3.692672866237398
 42
-0.0587518675353761
 10
0.5689964822977001
 20
3.680370020401101
 42
-0.0587518675353761
 10
0.5476404723942484
 20
3.651744536807262
 42
-0.0723410840576596
 10
0.5248296611190657
 20
3.63374562953224
 42
-0.1066170543910081
 10
0.4989573362795321
 20
3.62542470417417
 42
-0.1568512196707774
 10
0.4806628399404631
 20
3.629370568207639
 42
-0.1568512196707774
 10
0.4680983732780311
 20
3.643241134770001
 42
-0.1066170543910081
 10
0.4623683436013622
 20
3.66980768801504
 42
-0.0723410840576596
 10
0.4665504489043089
 20
3.698561883697786
 42
-0.0587518675353761
 10
0.4806628399404631
 20
3.731369472594566
 42
-0.0587518675353761
 10
0.4886713436542543
 20
3.742104028942255
 42
-0.0723410840576596
 10
0.4972253978824508
 20
3.74885361917039
 42
-0.1066170543910081
 10
0.5069275196972719
 20
3.751973966179667
 42
-0.1568512196707774
 10
0.5137879558244079
 20
3.750494267167115
 42
-0.1568512196707774
 10
0.518499630822843
 20
3.745292804706228
 42
-0.1066170543910081
 10
0.5206483919515743
 20
3.735330347239341
 42
-0.0723410840576596
 10
0.5190801024629853
 20
3.724547523858309
 42
-0.0587518675353761
 10
0.5137879558244079
 20
3.712244678022017
 42
-0.0587518675353761
 10
0.4924319459209558
 20
3.683619194428176
 42
-0.0723410840576596
 10
0.4696211346458039
 20
3.665620287153156
 42
-0.1066170543910081
 10
0.4437488098062717
 20
3.657299361795082
 42
-0.1492817613657529
 10
0.4262439507383604
 20
3.660804771819607
 42
-0.1568512196707774
  0
POLYLINE
  5
47B
330
1E
100
AcDbEntity
  8
IMAGE
100
AcDb2dPolyline
 66
     1
 10
0.0
 20
0.0
 30
0.0
 70
     4
 40
0.015625
 41
0.015625
 75
     6
  0
VERTEX
  5
47C
330
47B
100
AcDbEntity
  8
IMAGE
100
AcDbVertex
100
AcDb2dVertex
 10
1.595807435343715
 20
2.995286218876781
 30
0.0
 70
    16
  0
VERTEX
  5
47D
330
47B
100
AcDbEntity
  8
IMAGE
100
AcDbVertex
100
AcDb2dVertex
 10
1.595807435343715
 20
2.995286218876781
 30
0.0
 70
     8
  0
VERTEX
  5
47E
330
47B
100
AcDbEntity
  8
IMAGE
100
AcDbVertex
100
AcDb2dVertex
 10
1.627449466245334
 20
3.002487461398592
 30
0.0
 70
     8
  0
VERTEX
  5
47F
330
47B
100
AcDbEntity
  8
IMAGE
100
AcDbVertex
100
AcDb2dVertex
 10
1.656021974709236
 20
3.011826412901513
 30
0.0
 70
     8
  0
VERTEX
  5
480
330
47B
100
AcDbEntity
  8
IMAGE
100
AcDbVertex
100
AcDb2dVertex
 10
1.681874582043463
 20
3.022835688859911
 30
0.0
 70
     8
  0
VERTEX
  5
481
330
47B
100
AcDbEntity
  8
IMAGE
100
AcDbVertex
100
AcDb2dVertex
 10
1.705356909556098
 20
3.035047904748131
 30
0.0
 70
     8
  0
VERTEX
  5
482
330
47B
100
AcDbEntity
  8
IMAGE
100
AcDbVertex
100
AcDb2dVertex
 10
1.72681857855525
 20
3.047995676040541
 30
0.0
 70
     8
  0
VERTEX
  5
483
330
47B
100
AcDbEntity
  8
IMAGE
100
AcDbVertex
100
AcDb2dVertex
 10
1.746609210348931
 20
3.061211618211491
 30
0.0
 70
     8
  0
VERTEX
  5
484
330
47B
100
AcDbEntity
  8
IMAGE
100
AcDbVertex
100
AcDb2dVertex
 10
1.765078426245223
 20
3.074228346735344
 30
0.0
 70
     8
  0
VERTEX
  5
485
330
47B
100
AcDbEntity
  8
IMAGE
100
AcDbVertex
100
AcDb2dVertex
 10
1.782575847552203
 20
3.086578477086453
 30
0.0
 70
     8
  0
VERTEX
  5
486
330
47B
100
AcDbEntity
  8
IMAGE
100
AcDbVertex
100
AcDb2dVertex
 10
1.799411887041344
 20
3.097888516481303
 30
0.0
 70
     8
  0
VERTEX
  5
487
330
47B
100
AcDbEntity
  8
IMAGE
100
AcDbVertex
100
AcDb2dVertex
 10
1.815740123337715
 20
3.108160539104884
 30
0.0
 70
     8
  0
VERTEX
  5
488
330
47B
100
AcDbEntity
  8
IMAGE
100
AcDbVertex
100
AcDb2dVertex
 10
1.83167492652975
 20
3.11749051088431
 30
0.0
 70
     8
  0
VERTEX
  5
489
330
47B
100
AcDbEntity
  8
IMAGE
100
AcDbVertex
100
AcDb2dVertex
 10
1.847330666705975
 20
3.125974397746693
 30
0.0
 70
     8
  0
VERTEX
  5
48A
330
47B
100
AcDbEntity
  8
IMAGE
100
AcDbVertex
100
AcDb2dVertex
 10
1.86282171395476
 20
3.133708165619157
 30
0.0
 70
     8
  0
VERTEX
  5
48B
330
47B
100
AcDbEntity
  8
IMAGE
100
AcDbVertex
100
AcDb2dVertex
 10
1.878262438364664
 20
3.140787780428803
 30
0.0
 70
     8
  0
VERTEX
  5
48C
330
47B
100
AcDbEntity
  8
IMAGE
100
AcDbVertex
100
AcDb2dVertex
 10
1.893767210024086
 20
3.147309208102757
 30
0.0
 70
     8
  0
VERTEX
  5
48D
330
47B
100
AcDbEntity
  8
IMAGE
100
AcDbVertex
100
AcDb2dVertex
 10
1.909450399021493
 20
3.153368414568132
 30
0.0
 70
     8
  0
VERTEX
  5
48E
330
47B
100
AcDbEntity
  8
IMAGE
100
AcDbVertex
100
AcDb2dVertex
 10
1.925400705714435
 20
3.159033925953308
 30
0.0
 70
     8
  0
VERTEX
  5
48F
330
47B
100
AcDbEntity
  8
IMAGE
100
AcDbVertex
100
AcDb2dVertex
 10
1.941604151536487
 20
3.164264509191738
 30
0.0
 70
     8
  0
VERTEX
  5
490
330
47B
100
AcDbEntity
  8
IMAGE
100
AcDbVertex
100
AcDb2dVertex
 10
1.958021088190344
 20
3.168991491418158
 30
0.0
 70
     8
  0
VERTEX
  5
491
330
47B
100
AcDbEntity
  8
IMAGE
100
AcDbVertex
100
AcDb2dVertex
 10
1.974611867378702
 20
3.173146199767288
 30
0.0
 70
     8
  0
VERTEX
  5
492
330
47B
100
AcDbEntity
  8
IMAGE
100
AcDbVertex
100
AcDb2dVertex
 10
1.991336840804131
 20
3.176659961373852
 30
0.0
 70
     8
  0
VERTEX
  5
493
330
47B
100
AcDbEntity
  8
IMAGE
100
AcDbVertex
100
AcDb2dVertex
 10
2.008156360169386
 20
3.179464103372575
 30
0.0
 70
     8
  0
VERTEX
  5
494
330
47B
100
AcDbEntity
  8
IMAGE
100
AcDbVertex
100
AcDb2dVertex
 10
2.025030777177129
 20
3.181489952898184
 30
0.0
 70
     8
  0
VERTEX
  5
495
330
47B
100
AcDbEntity
  8
IMAGE
100
AcDbVertex
100
AcDb2dVertex
 10
2.041920443529967
 20
3.182668837085405
 30
0.0
 70
     8
  0
VERTEX
  5
496
330
47B
100
AcDbEntity
  8
IMAGE
100
AcDbVertex
100
AcDb2dVertex
 10
2.058768936650951
 20
3.182955267497833
 30
0.0
 70
     8
  0
VERTEX
  5
497
330
47B
100
AcDbEntity
  8
IMAGE
100
AcDbVertex
100
AcDb2dVertex
 10
2.075452736844589
 20
3.182396493414566
 30
0.0
 70
     8
  0
VERTEX
  5
498
330
47B
100
AcDbEntity
  8
IMAGE
100
AcDbVertex
100
AcDb2dVertex
 10
2.091831550135625
 20
3.181062948543591
 30
0.0
 70
     8
  0
VERTEX
  5
499
330
47B
100
AcDbEntity
  8
IMAGE
100
AcDbVertex
100
AcDb2dVertex
 10
2.107765082548896
 20
3.17902506659287
 30
0.0
 70
     8
  0
VERTEX
  5
49A
330
47B
100
AcDbEntity
  8
IMAGE
100
AcDbVertex
100
AcDb2dVertex
 10
2.123113040109242
 20
3.17635328127038
 30
0.0
 70
     8
  0
VERTEX
  5
49B
330
47B
100
AcDbEntity
  8
IMAGE
100
AcDbVertex
100
AcDb2dVertex
 10
2.137735128841497
 20
3.173118026284101
 30
0.0
 70
     8
  0
VERTEX
  5
49C
330
47B
100
AcDbEntity
  8
IMAGE
100
AcDbVertex
100
AcDb2dVertex
 10
2.151491054770436
 20
3.169389735341996
 30
0.0
 70
     8
  0
VERTEX
  5
49D
330
47B
100
AcDbEntity
  8
IMAGE
100
AcDbVertex
100
AcDb2dVertex
 10
2.16424052392087
 20
3.165238842152053
 30
0.0
 70
     8
  0
VERTEX
  5
49E
330
47B
100
AcDbEntity
  8
IMAGE
100
AcDbVertex
100
AcDb2dVertex
 10
2.175894365979401
 20
3.16070005692379
 30
0.0
 70
     8
  0
VERTEX
  5
49F
330
47B
100
AcDbEntity
  8
IMAGE
100
AcDbVertex
100
AcDb2dVertex
 10
2.186567905279571
 20
3.155665195872984
 30
0.0
 70
     8
  0
VERTEX
  5
4A0
330
47B
100
AcDbEntity
  8
IMAGE
100
AcDbVertex
100
AcDb2dVertex
 10
2.196427589816661
 20
3.149990351716951
 30
0.0
 70
     8
  0
VERTEX
  5
4A1
330
47B
100
AcDbEntity
  8
IMAGE
100
AcDbVertex
100
AcDb2dVertex
 10
2.205639867585948
 20
3.143531617173017
 30
0.0
 70
     8
  0
VERTEX
  5
4A2
330
47B
100
AcDbEntity
  8
IMAGE
100
AcDbVertex
100
AcDb2dVertex
 10
2.214371186582775
 20
3.136145084958501
 30
0.0
 70
     8
  0
VERTEX
  5
4A3
330
47B
100
AcDbEntity
  8
IMAGE
100
AcDbVertex
100
AcDb2dVertex
 10
2.22278799480239
 20
3.12768684779073
 30
0.0
 70
     8
  0
VERTEX
  5
4A4
330
47B
100
AcDbEntity
  8
IMAGE
100
AcDbVertex
100
AcDb2dVertex
 10
2.231056740240103
 20
3.118012998387029
 30
0.0
 70
     8
  0
VERTEX
  5
4A5
330
47B
100
AcDbEntity
  8
IMAGE
100
AcDbVertex
100
AcDb2dVertex
 10
2.239343870891191
 20
3.106979629464717
 30
0.0
 70
     8
  0
VERTEX
  5
4A6
330
47B
100
AcDbEntity
  8
IMAGE
100
AcDbVertex
100
AcDb2dVertex
 10
1.684589655494373
 20
3.011223800715107
 30
0.0
 70
    16
  0
VERTEX
  5
4A7
330
47B
100
AcDbEntity
  8
IMAGE
100
AcDbVertex
100
AcDb2dVertex
 10
1.789212362552149
 20
3.098674292535891
 30
0.0
 70
    16
  0
VERTEX
  5
4A8
330
47B
100
AcDbEntity
  8
IMAGE
100
AcDbVertex
100
AcDb2dVertex
 10
1.906327333139174
 20
3.157275137570432
 30
0.0
 70
    16
  0
VERTEX
  5
4A9
330
47B
100
AcDbEntity
  8
IMAGE
100
AcDbVertex
100
AcDb2dVertex
 10
2.042180699020149
 20
3.19243564459116
 30
0.0
 70
    16
  0
VERTEX
  5
4AA
330
47B
100
AcDbEntity
  8
IMAGE
100
AcDbVertex
100
AcDb2dVertex
 10
2.176472531959965
 20
3.168995306577343
 30
0.0
 70
    16
  0
VERTEX
  5
4AB
330
47B
100
AcDbEntity
  8
IMAGE
100
AcDbVertex
100
AcDb2dVertex
 10
2.217072388430155
 20
3.138342556866964
 30
0.0
 70
    16
  0
VERTEX
  5
4AC
330
47B
100
AcDbEntity
  8
IMAGE
100
AcDbVertex
100
AcDb2dVertex
 10
2.239343870891191
 20
3.106979629464717
 30
0.0
 70
    16
  0
SEQEND
  5
4AD
330
47B
100
AcDbEntity
  8
IMAGE
  0
LWPOLYLINE
  5
4AE
330
1E
100
AcDbEntity
  8
IMAGE
100
AcDbPolyline
 90
       55
 70
     0
 43
0.015625
 10
0.4262439507383604
 20
3.660804771819607
 10
0.412885656385587
 20
3.669630913107775
 10
0.3999702640577865
 20
3.678193125680419
 10
0.3875512684511753
 20
3.686479810044168
 10
0.3756821642620607
 20
3.694479366705666
 10
0.3644164461867205
 20
3.702180196171545
 10
0.3538076089214321
 20
3.709570698948439
 10
0.3439091471624747
 20
3.716639275542988
 10
0.3347745556061268
 20
3.723374326461826
 10
0.3264349429110958
 20
3.729782473255454
 10
0.3188318735857623
 20
3.735943221649822
 10
0.3118845261009684
 20
3.741954298414745
 10
0.3055120789275254
 20
3.74791343032004
 10
0.2996337105362141
 20
3.753918344135514
 10
0.2941685993979068
 20
3.760066766630992
 10
0.2890359239834165
 20
3.766456424576275
 10
0.2841548627635197
 20
3.773185044741186
 10
0.2794641642019788
 20
3.78032702272977
 10
0.2749808567341823
 20
3.787863429483012
 10
0.2707415387884677
 20
3.795752004776125
 10
0.2667828087931094
 20
3.803950488384322
 10
0.2631412651764118
 20
3.812416620082826
 10
0.2598535063667144
 20
3.821108139646842
 10
0.2569561307922925
 20
3.829982786851593
 10
0.2544857368814508
 20
3.838998301472289
 10
0.2524743482590106
 20
3.848119760128734
 10
0.2509356893355508
 20
3.857341586819043
 10
0.2498789097181295
 20
3.866665542385907
 10
0.2493131590138701
 20
3.876093387672042
 10
0.2492475868298042
 20
3.885626883520137
 10
0.2496913427730538
 20
3.895267790772887
 10
0.2506535764506799
 20
3.905017870273006
 10
0.2521434374697099
 20
3.914878882863173
 10
0.2541827832249006
 20
3.924857578440418
 10
0.2568443022613542
 20
3.934980663119015
 10
0.2602133909117458
 20
3.945279832067543
 10
0.264375445508808
 20
3.955786780454595
 10
0.2694158623853071
 20
3.966533203448763
 10
0.2754200378738862
 20
3.977550796218626
 10
0.2824733683073402
 20
3.988871253932782
 10
0.2906612500183429
 20
4.000526271759812
 10
0.3000495093467133
 20
4.012520692017149
 10
0.3106256926606061
 20
4.024751945617544
 10
0.3223577763352321
 20
4.037090610622604
 10
0.3352137367458294
 20
4.049407265093918
 10
0.3491615502676379
 20
4.061572487093091
 10
0.3641691932758695
 20
4.073456854681708
 10
0.3802046421457612
 20
4.084930945921383
 10
0.3972358732525538
 20
4.09586533887371
 10
0.4153274421572723
 20
4.106144111394302
 10
0.4349302211642387
 20
4.11570534051491
 10
0.456591661763556
 20
4.124500603061296
 10
0.4808592154453342
 20
4.132481475859231
 10
0.5082803336997071
 20
4.139599535734484
 10
0.5280678671017811
 20
4.143545850327937
  0
LINE
  5
4E7
330
1E
100
AcDbEntity
  8
IMAGE
100
AcDbLine
 10
-0.4625181342786915
 20
4.009241266849638
 30
0.0
 11
2.373225679679383
 21
2.372023812508122
 31
0.0
  0
LINE
  5
4E8
330
1E
100
AcDbEntity
  8
IMAGE
100
AcDbLine
 10
2.373225679679383
 20
2.372023812508122
 30
0.0
 11
6.499621830868243
 21
4.754399741180039
 31
0.0
  0
LINE
  5
4E9
330
1E
100
AcDbEntity
  8
IMAGE
100
AcDbLine
 10
6.499621830868243
 20
4.754399741180037
 30
0.0
 11
5.887408480938473
 21
5.107861283563473
 31
0.0
  0
LINE
  5
4EA
330
1E
100
AcDbEntity
  8
IMAGE
100
AcDbLine
 10
3.663878016910135
 20
6.391617195521554
 30
0.0
 11
2.297293871400953
 21
5.602619471241554
 31
0.0
  0
LINE
  5
4EB
330
1E
100
AcDbEntity
  8
IMAGE
100
AcDbLine
 10
0.7905497202172178
 20
4.732700329955725
 30
0.0
 11
-0.4625181342786915
 21
4.009241266849638
 31
0.0
  0
LINE
  5
4EC
330
1E
100
AcDbEntity
  8
IMAGE
100
AcDbLine
 10
5.887408480938473
 20
5.107861283563473
 30
0.0
 11
3.663878016910136
 21
6.391617195521554
 31
0.0
  0
LINE
  5
4ED
330
1E
100
AcDbEntity
  8
IMAGE
100
AcDbLine
 10
-0.4625181342786915
 20
3.817210805428753
 30
0.0
 11
2.373225679679383
 21
2.179993351087234
 31
0.0
  0
LINE
  5
4EE
330
1E
100
AcDbEntity
  8
IMAGE
100
AcDbLine
 10
2.373225679679383
 20
2.179993351087234
 30
0.0
 11
6.499621830868243
 21
4.56236927975915
 31
0.0
  0
LINE
  5
4EF
330
1E
100
AcDbEntity
  8
IMAGE
100
AcDbLine
 10
-0.4625181342786915
 20
4.009241266849638
 30
0.0
 11
-0.4625181342786915
 21
3.817210805428753
 31
0.0
  0
LINE
  5
4F0
330
1E
100
AcDbEntity
  8
IMAGE
100
AcDbLine
 10
2.373225679679383
 20
2.372023812508122
 30
0.0
 11
2.373225679679383
 21
2.179993351087234
 31
0.0
  0
LINE
  5
4F1
330
1E
100
AcDbEntity
  8
IMAGE
100
AcDbLine
 10
6.499621830868243
 20
4.754399741180037
 30
0.0
 11
6.499621830868243
 21
4.562369279759147
 31
0.0
  0
LINE
  5
4F2
330
1E
100
AcDbEntity
  8
IMAGE
100
AcDbLine
 10
2.500881000389557
 20
2.253695184862738
 30
0.0
 11
2.482852887913909
 21
-0.0430478569378989
 31
0.0
  0
LINE
  5
4F3
330
1E
100
AcDbEntity
  8
IMAGE
100
AcDbLine
 10
2.24557035896921
 20
2.253695184862738
 30
0.0
 11
2.263598471444857
 21
-0.0430478569378989
 31
0.0
  0
LINE
  5
4F4
330
1E
100
AcDbEntity
  8
IMAGE
100
AcDbLine
 10
2.373225679679383
 20
2.179993351087234
 30
0.0
 11
2.373225679679383
 21
-0.1063411551226077
 31
0.0
  0
LINE
  5
4F5
330
1E
100
AcDbEntity
  8
IMAGE
100
AcDbLine
 10
2.373225679679383
 20
-0.1063411551226063
 30
0.0
 11
2.263598471444857
 21
-0.0430478569378989
 31
0.0
  0
LINE
  5
4F6
330
1E
100
AcDbEntity
  8
IMAGE
100
AcDbLine
 10
2.373225679679383
 20
-0.1063411551226077
 30
0.0
 11
2.482852887913909
 21
-0.0430478569378989
 31
0.0
  0
LINE
  5
4F7
330
1E
100
AcDbEntity
  8
IMAGE
100
AcDbLine
 10
-0.4625181342786915
 20
3.817210805428753
 30
0.0
 11
-0.4444900218030439
 21
1.520467763628114
 31
0.0
  0
LINE
  5
4F8
330
1E
100
AcDbEntity
  8
IMAGE
100
AcDbLine
 10
-0.2083593070364786
 20
3.670472138103542
 30
0.0
 11
-0.2252356053340208
 21
1.520467763628114
 31
0.0
  0
LINE
  5
4F9
330
1E
100
AcDbEntity
  8
IMAGE
100
AcDbLine
 10
-0.3348628135685177
 20
3.743508971653248
 30
0.0
 11
-0.3348628135685177
 21
1.457174465443405
 31
0.0
  0
LINE
  5
4FA
330
1E
100
AcDbEntity
  8
IMAGE
100
AcDbLine
 10
-0.3348628135685177
 20
1.457174465443405
 30
0.0
 11
-0.2252356053340208
 21
1.520467763628114
 31
0.0
  0
LINE
  5
4FB
330
1E
100
AcDbEntity
  8
IMAGE
100
AcDbLine
 10
-0.3348628135685177
 20
1.457174465443405
 30
0.0
 11
-0.4444900218030439
 21
1.520467763628114
 31
0.0
  0
LINE
  5
4FC
330
1E
100
AcDbEntity
  8
IMAGE
100
AcDbLine
 10
6.245463003626031
 20
4.41563061243394
 30
0.0
 11
6.262339301923541
 21
2.265626237958511
 31
0.0
  0
LINE
  5
4FD
330
1E
100
AcDbEntity
  8
IMAGE
100
AcDbLine
 10
6.499621830868243
 20
4.562369279759147
 30
0.0
 11
6.481593718392595
 21
2.265626237958511
 31
0.0
  0
LINE
  5
4FE
330
1E
100
AcDbEntity
  8
IMAGE
100
AcDbLine
 10
6.37196651015807
 20
4.488667445983643
 30
0.0
 11
6.37196651015807
 21
2.202332939773802
 31
0.0
  0
LINE
  5
4FF
330
1E
100
AcDbEntity
  8
IMAGE
100
AcDbLine
 10
6.37196651015807
 20
2.202332939773802
 30
0.0
 11
6.481593718392595
 21
2.265626237958511
 31
0.0
  0
LINE
  5
500
330
1E
100
AcDbEntity
  8
IMAGE
100
AcDbLine
 10
6.37196651015807
 20
2.202332939773802
 30
0.0
 11
6.262339301923541
 21
2.265626237958511
 31
0.0
  0
LINE
  5
501
330
1E
100
AcDbEntity
  8
IMAGE
100
AcDbLine
 10
5.61735571684092
 20
5.263776319610598
 30
0.0
 11
6.537674642762288
 21
5.79512269923159
 31
0.0
  0
LINE
  5
502
330
1E
100
AcDbEntity
  8
IMAGE
100
AcDbLine
 10
-1.814353846079384
 20
0.9661082968805878
 30
0.0
 11
-0.446392736217101
 21
1.762869517939363
 31
0.0
  0
POLYLINE
  5
503
330
1E
100
AcDbEntity
  8
IMAGE
100
AcDb2dPolyline
 66
     1
 10
0.0
 20
0.0
 30
0.0
 70
     4
 40
0.0234375
 41
0.0234375
 75
     6
  0
VERTEX
  5
504
330
503
100
AcDbEntity
  8
IMAGE
100
AcDbVertex
100
AcDb2dVertex
 10
-0.0487119091938793
 20
4.248152402294698
 30
0.0
 70
    16
  0
VERTEX
  5
505
330
503
100
AcDbEntity
  8
IMAGE
100
AcDbVertex
100
AcDb2dVertex
 10
-0.0487119091938793
 20
4.248152402294698
 30
0.0
 70
     8
  0
VERTEX
  5
506
330
503
100
AcDbEntity
  8
IMAGE
100
AcDbVertex
100
AcDb2dVertex
 10
-0.047876499236593
 20
4.262912814404783
 30
0.0
 70
     8
  0
VERTEX
  5
507
330
503
100
AcDbEntity
  8
IMAGE
100
AcDbVertex
100
AcDb2dVertex
 10
-0.045395684939928
 20
4.279771270231824
 30
0.0
 70
     8
  0
VERTEX
  5
508
330
503
100
AcDbEntity
  8
IMAGE
100
AcDbVertex
100
AcDb2dVertex
 10
-0.0413075896667348
 20
4.298163419742013
 30
0.0
 70
     8
  0
VERTEX
  5
509
330
503
100
AcDbEntity
  8
IMAGE
100
AcDbVertex
100
AcDb2dVertex
 10
-0.0356503367798062
 20
4.317524912901544
 30
0.0
 70
     8
  0
VERTEX
  5
50A
330
503
100
AcDbEntity
  8
IMAGE
100
AcDbVertex
100
AcDb2dVertex
 10
-0.028462049641961
 20
4.33729139967659
 30
0.0
 70
     8
  0
VERTEX
  5
50B
330
503
100
AcDbEntity
  8
IMAGE
100
AcDbVertex
100
AcDb2dVertex
 10
-0.019780851616054
 20
4.356898530033355
 30
0.0
 70
     8
  0
VERTEX
  5
50C
330
503
100
AcDbEntity
  8
IMAGE
100
AcDbVertex
100
AcDb2dVertex
 10
-0.0096448660648747
 20
4.37578195393802
 30
0.0
 70
     8
  0
VERTEX
  5
50D
330
503
100
AcDbEntity
  8
IMAGE
100
AcDbVertex
100
AcDb2dVertex
 10
0.0019077836487256
 20
4.393377321356775
 30
0.0
 70
     8
  0
VERTEX
  5
50E
330
503
100
AcDbEntity
  8
IMAGE
100
AcDbVertex
100
AcDb2dVertex
 10
0.0148145752097726
 20
4.409248236816738
 30
0.0
 70
     8
  0
VERTEX
  5
50F
330
503
100
AcDbEntity
  8
IMAGE
100
AcDbVertex
100
AcDb2dVertex
 10
0.0289153904943413
 20
4.423470123088755
 30
0.0
 70
     8
  0
VERTEX
  5
510
330
503
100
AcDbEntity
  8
IMAGE
100
AcDbVertex
100
AcDb2dVertex
 10
0.0440257124264489
 20
4.436246357504602
 30
0.0
 70
     8
  0
VERTEX
  5
511
330
503
100
AcDbEntity
  8
IMAGE
100
AcDbVertex
100
AcDb2dVertex
 10
0.0599610239300201
 20
4.447780317396054
 30
0.0
 70
     8
  0
VERTEX
  5
512
330
503
100
AcDbEntity
  8
IMAGE
100
AcDbVertex
100
AcDb2dVertex
 10
0.0765368079289459
 20
4.458275380094886
 30
0.0
 70
     8
  0
VERTEX
  5
513
330
503
100
AcDbEntity
  8
IMAGE
100
AcDbVertex
100
AcDb2dVertex
 10
0.0935685473472434
 20
4.467934922932876
 30
0.0
 70
     8
  0
VERTEX
  5
514
330
503
100
AcDbEntity
  8
IMAGE
100
AcDbVertex
100
AcDb2dVertex
 10
0.1108717251088374
 20
4.476962323241792
 30
0.0
 70
     8
  0
VERTEX
  5
515
330
503
100
AcDbEntity
  8
IMAGE
100
AcDbVertex
100
AcDb2dVertex
 10
0.128261824137649
 20
4.485560958353421
 30
0.0
 70
     8
  0
VERTEX
  5
516
330
503
100
AcDbEntity
  8
IMAGE
100
AcDbVertex
100
AcDb2dVertex
 10
0.1456089708443411
 20
4.493876538001126
 30
0.0
 70
     8
  0
VERTEX
  5
517
330
503
100
AcDbEntity
  8
IMAGE
100
AcDbVertex
100
AcDb2dVertex
 10
0.1630018655864323
 20
4.501824101524665
 30
0.0
 70
     8
  0
VERTEX
  5
518
330
503
100
AcDbEntity
  8
IMAGE
100
AcDbVertex
100
AcDb2dVertex
 10
0.1805838522081133
 20
4.509261020665392
 30
0.0
 70
     8
  0
VERTEX
  5
519
330
503
100
AcDbEntity
  8
IMAGE
100
AcDbVertex
100
AcDb2dVertex
 10
0.1984982745536117
 20
4.51604466716466
 30
0.0
 70
     8
  0
VERTEX
  5
51A
330
503
100
AcDbEntity
  8
IMAGE
100
AcDbVertex
100
AcDb2dVertex
 10
0.2168884764670871
 20
4.522032412763816
 30
0.0
 70
     8
  0
VERTEX
  5
51B
330
503
100
AcDbEntity
  8
IMAGE
100
AcDbVertex
100
AcDb2dVertex
 10
0.2358978017927971
 20
4.527081629204218
 30
0.0
 70
     8
  0
VERTEX
  5
51C
330
503
100
AcDbEntity
  8
IMAGE
100
AcDbVertex
100
AcDb2dVertex
 10
0.2556695943749325
 20
4.531049688227215
 30
0.0
 70
     8
  0
VERTEX
  5
51D
330
503
100
AcDbEntity
  8
IMAGE
100
AcDbVertex
100
AcDb2dVertex
 10
0.2763471980577208
 20
4.533793961574161
 30
0.0
 70
     8
  0
VERTEX
  5
51E
330
503
100
AcDbEntity
  8
IMAGE
100
AcDbVertex
100
AcDb2dVertex
 10
0.2980086386570395
 20
4.535199847732706
 30
0.0
 70
     8
  0
VERTEX
  5
51F
330
503
100
AcDbEntity
  8
IMAGE
100
AcDbVertex
100
AcDb2dVertex
 10
0.3204706698755757
 20
4.535264852175687
 30
0.0
 70
     8
  0
VERTEX
  5
520
330
503
100
AcDbEntity
  8
IMAGE
100
AcDbVertex
100
AcDb2dVertex
 10
0.3434847273877946
 20
4.534014507122255
 30
0.0
 70
     8
  0
VERTEX
  5
521
330
503
100
AcDbEntity
  8
IMAGE
100
AcDbVertex
100
AcDb2dVertex
 10
0.3668022468680672
 20
4.531474344791541
 30
0.0
 70
     8
  0
VERTEX
  5
522
330
503
100
AcDbEntity
  8
IMAGE
100
AcDbVertex
100
AcDb2dVertex
 10
0.3901746639908001
 20
4.527669897402694
 30
0.0
 70
     8
  0
VERTEX
  5
523
330
503
100
AcDbEntity
  8
IMAGE
100
AcDbVertex
100
AcDb2dVertex
 10
0.4133534144303966
 20
4.52262669717485
 30
0.0
 70
     8
  0
VERTEX
  5
524
330
503
100
AcDbEntity
  8
IMAGE
100
AcDbVertex
100
AcDb2dVertex
 10
0.4360899338612585
 20
4.516370276327149
 30
0.0
 70
     8
  0
VERTEX
  5
525
330
503
100
AcDbEntity
  8
IMAGE
100
AcDbVertex
100
AcDb2dVertex
 10
0.458135657957822
 20
4.508926167078733
 30
0.0
 70
     8
  0
VERTEX
  5
526
330
503
100
AcDbEntity
  8
IMAGE
100
AcDbVertex
100
AcDb2dVertex
 10
0.4793303133304923
 20
4.500324279279398
 30
0.0
 70
     8
  0
VERTEX
  5
527
330
503
100
AcDbEntity
  8
IMAGE
100
AcDbVertex
100
AcDb2dVertex
 10
0.499866790333817
 20
4.49061203330158
 30
0.0
 70
     8
  0
VERTEX
  5
528
330
503
100
AcDbEntity
  8
IMAGE
100
AcDbVertex
100
AcDb2dVertex
 10
0.5200262702584091
 20
4.479841227148348
 30
0.0
 70
     8
  0
VERTEX
  5
529
330
503
100
AcDbEntity
  8
IMAGE
100
AcDbVertex
100
AcDb2dVertex
 10
0.5400899343948167
 20
4.468063658822806
 30
0.0
 70
     8
  0
VERTEX
  5
52A
330
503
100
AcDbEntity
  8
IMAGE
100
AcDbVertex
100
AcDb2dVertex
 10
0.5603389640336527
 20
4.455331126328028
 30
0.0
 70
     8
  0
VERTEX
  5
52B
330
503
100
AcDbEntity
  8
IMAGE
100
AcDbVertex
100
AcDb2dVertex
 10
0.5810545404654999
 20
4.441695427667097
 30
0.0
 70
     8
  0
VERTEX
  5
52C
330
503
100
AcDbEntity
  8
IMAGE
100
AcDbVertex
100
AcDb2dVertex
 10
0.6025178449809046
 20
4.427208360843101
 30
0.0
 70
     8
  0
VERTEX
  5
52D
330
503
100
AcDbEntity
  8
IMAGE
100
AcDbVertex
100
AcDb2dVertex
 10
0.6250100588705126
 20
4.411921723859138
 30
0.0
 70
     8
  0
VERTEX
  5
52E
330
503
100
AcDbEntity
  8
IMAGE
100
AcDbVertex
100
AcDb2dVertex
 10
-0.0487119091938793
 20
4.284214465157812
 30
0.0
 70
    16
  0
VERTEX
  5
52F
330
503
100
AcDbEntity
  8
IMAGE
100
AcDbVertex
100
AcDb2dVertex
 10
-0.0127966515472018
 20
4.413136324233804
 30
0.0
 70
    16
  0
VERTEX
  5
530
330
503
100
AcDbEntity
  8
IMAGE
100
AcDbVertex
100
AcDb2dVertex
 10
0.1293028460984118
 20
4.487965095585607
 30
0.0
 70
    16
  0
VERTEX
  5
531
330
503
100
AcDbEntity
  8
IMAGE
100
AcDbVertex
100
AcDb2dVertex
 10
0.2651562119793871
 20
4.54836904354429
 30
0.0
 70
    16
  0
VERTEX
  5
532
330
503
100
AcDbEntity
  8
IMAGE
100
AcDbVertex
100
AcDb2dVertex
 10
0.4681554943302695
 20
4.521322499682193
 30
0.0
 70
    16
  0
VERTEX
  5
533
330
503
100
AcDbEntity
  8
IMAGE
100
AcDbVertex
100
AcDb2dVertex
 10
0.5634090037410556
 20
4.45370614002695
 30
0.0
 70
    16
  0
VERTEX
  5
534
330
503
100
AcDbEntity
  8
IMAGE
100
AcDbVertex
100
AcDb2dVertex
 10
0.6250100588705126
 20
4.411921723859138
 30
0.0
 70
    16
  0
SEQEND
  5
535
330
503
100
AcDbEntity
  8
IMAGE
  0
POLYLINE
  5
536
330
1E
100
AcDbEntity
  8
IMAGE
100
AcDb2dPolyline
 66
     1
 10
0.0
 20
0.0
 30
0.0
 70
     4
 40
0.0234375
 41
0.0234375
 75
     6
  0
VERTEX
  5
537
330
536
100
AcDbEntity
  8
IMAGE
100
AcDbVertex
100
AcDb2dVertex
 10
0.7905497202172178
 20
4.799000349999722
 30
0.0
 70
    16
  0
VERTEX
  5
538
330
536
100
AcDbEntity
  8
IMAGE
100
AcDbVertex
100
AcDb2dVertex
 10
0.7905497202172178
 20
4.799000349999722
 30
0.0
 70
     8
  0
VERTEX
  5
539
330
536
100
AcDbEntity
  8
IMAGE
100
AcDbVertex
100
AcDb2dVertex
 10
0.7573440030301449
 20
4.817438720852237
 30
0.0
 70
     8
  0
VERTEX
  5
53A
330
536
100
AcDbEntity
  8
IMAGE
100
AcDbVertex
100
AcDb2dVertex
 10
0.7260667900876987
 20
4.832404709901624
 30
0.0
 70
     8
  0
VERTEX
  5
53B
330
536
100
AcDbEntity
  8
IMAGE
100
AcDbVertex
100
AcDb2dVertex
 10
0.6965297198985727
 20
4.844229355575366
 30
0.0
 70
     8
  0
VERTEX
  5
53C
330
536
100
AcDbEntity
  8
IMAGE
100
AcDbVertex
100
AcDb2dVertex
 10
0.6685444309713607
 20
4.85324369630093
 30
0.0
 70
     8
  0
VERTEX
  5
53D
330
536
100
AcDbEntity
  8
IMAGE
100
AcDbVertex
100
AcDb2dVertex
 10
0.6419225618147504
 20
4.859778770505804
 30
0.0
 70
     8
  0
VERTEX
  5
53E
330
536
100
AcDbEntity
  8
IMAGE
100
AcDbVertex
100
AcDb2dVertex
 10
0.616475750937342
 20
4.86416561661746
 30
0.0
 70
     8
  0
VERTEX
  5
53F
330
536
100
AcDbEntity
  8
IMAGE
100
AcDbVertex
100
AcDb2dVertex
 10
0.5920156368477869
 20
4.86673527306339
 30
0.0
 70
     8
  0
VERTEX
  5
540
330
536
100
AcDbEntity
  8
IMAGE
100
AcDbVertex
100
AcDb2dVertex
 10
0.5683538580547492
 20
4.867818778271059
 30
0.0
 70
     8
  0
VERTEX
  5
541
330
536
100
AcDbEntity
  8
IMAGE
100
AcDbVertex
100
AcDb2dVertex
 10
0.545317688992089
 20
4.867696106229674
 30
0.0
 70
     8
  0
VERTEX
  5
542
330
536
100
AcDbEntity
  8
IMAGE
100
AcDbVertex
100
AcDb2dVertex
 10
0.5227969477947756
 20
4.866442973175295
 30
0.0
 70
     8
  0
VERTEX
  5
543
330
536
100
AcDbEntity
  8
IMAGE
100
AcDbVertex
100
AcDb2dVertex
 10
0.500697088523042
 20
4.864084030905724
 30
0.0
 70
     8
  0
VERTEX
  5
544
330
536
100
AcDbEntity
  8
IMAGE
100
AcDbVertex
100
AcDb2dVertex
 10
0.4789235652370332
 20
4.860643931218755
 30
0.0
 70
     8
  0
VERTEX
  5
545
330
536
100
AcDbEntity
  8
IMAGE
100
AcDbVertex
100
AcDb2dVertex
 10
0.4573818319969814
 20
4.856147325912166
 30
0.0
 70
     8
  0
VERTEX
  5
546
330
536
100
AcDbEntity
  8
IMAGE
100
AcDbVertex
100
AcDb2dVertex
 10
0.4359773428630636
 20
4.850618866783757
 30
0.0
 70
     8
  0
VERTEX
  5
547
330
536
100
AcDbEntity
  8
IMAGE
100
AcDbVertex
100
AcDb2dVertex
 10
0.4146155518955422
 20
4.844083205631317
 30
0.0
 70
     8
  0
VERTEX
  5
548
330
536
100
AcDbEntity
  8
IMAGE
100
AcDbVertex
100
AcDb2dVertex
 10
0.3932019131545621
 20
4.836564994252637
 30
0.0
 70
     8
  0
VERTEX
  5
549
330
536
100
AcDbEntity
  8
IMAGE
100
AcDbVertex
100
AcDb2dVertex
 10
0.3716515386189236
 20
4.828067167385547
 30
0.0
 70
     8
  0
VERTEX
  5
54A
330
536
100
AcDbEntity
  8
IMAGE
100
AcDbVertex
100
AcDb2dVertex
 10
0.3499181719417574
 20
4.818505791528046
 30
0.0
 70
     8
  0
VERTEX
  5
54B
330
536
100
AcDbEntity
  8
IMAGE
100
AcDbVertex
100
AcDb2dVertex
 10
0.3279652146947534
 20
4.807775216118177
 30
0.0
 70
     8
  0
VERTEX
  5
54C
330
536
100
AcDbEntity
  8
IMAGE
100
AcDbVertex
100
AcDb2dVertex
 10
0.3057560684495755
 20
4.795769790593972
 30
0.0
 70
     8
  0
VERTEX
  5
54D
330
536
100
AcDbEntity
  8
IMAGE
100
AcDbVertex
100
AcDb2dVertex
 10
0.2832541347779189
 20
4.782383864393477
 30
0.0
 70
     8
  0
VERTEX
  5
54E
330
536
100
AcDbEntity
  8
IMAGE
100
AcDbVertex
100
AcDb2dVertex
 10
0.26042281525151
 20
4.767511786954717
 30
0.0
 70
     8
  0
VERTEX
  5
54F
330
536
100
AcDbEntity
  8
IMAGE
100
AcDbVertex
100
AcDb2dVertex
 10
0.2372255114420074
 20
4.751047907715746
 30
0.0
 70
     8
  0
VERTEX
  5
550
330
536
100
AcDbEntity
  8
IMAGE
100
AcDbVertex
100
AcDb2dVertex
 10
0.2136256249210788
 20
4.7328865761146
 30
0.0
 70
     8
  0
VERTEX
  5
551
330
536
100
AcDbEntity
  8
IMAGE
100
AcDbVertex
100
AcDb2dVertex
 10
0.1896028232286415
 20
4.712946206439534
 30
0.0
 70
     8
  0
VERTEX
  5
552
330
536
100
AcDbEntity
  8
IMAGE
100
AcDbVertex
100
AcDb2dVertex
 10
0.1652018377769888
 20
4.691241472379712
 30
0.0
 70
     8
  0
VERTEX
  5
553
330
536
100
AcDbEntity
  8
IMAGE
100
AcDbVertex
100
AcDb2dVertex
 10
0.1404836659466433
 20
4.667811112474524
 30
0.0
 70
     8
  0
VERTEX
  5
554
330
536
100
AcDbEntity
  8
IMAGE
100
AcDbVertex
100
AcDb2dVertex
 10
0.1155093051181559
 20
4.642693865263353
 30
0.0
 70
     8
  0
VERTEX
  5
555
330
536
100
AcDbEntity
  8
IMAGE
100
AcDbVertex
100
AcDb2dVertex
 10
0.0903397526720458
 20
4.615928469285588
 30
0.0
 70
     8
  0
VERTEX
  5
556
330
536
100
AcDbEntity
  8
IMAGE
100
AcDbVertex
100
AcDb2dVertex
 10
0.065036005988774
 20
4.587553663080609
 30
0.0
 70
     8
  0
VERTEX
  5
557
330
536
100
AcDbEntity
  8
IMAGE
100
AcDbVertex
100
AcDb2dVertex
 10
0.03965906244889
 20
4.557608185187808
 30
0.0
 70
     8
  0
VERTEX
  5
558
330
536
100
AcDbEntity
  8
IMAGE
100
AcDbVertex
100
AcDb2dVertex
 10
0.0142699194329135
 20
4.526130774146566
 30
0.0
 70
     8
  0
VERTEX
  5
559
330
536
100
AcDbEntity
  8
IMAGE
100
AcDbVertex
100
AcDb2dVertex
 10
-0.0109718718988621
 20
4.493114352714561
 30
0.0
 70
     8
  0
VERTEX
  5
55A
330
536
100
AcDbEntity
  8
IMAGE
100
AcDbVertex
100
AcDb2dVertex
 10
-0.0355125452670926
 20
4.458368580522622
 30
0.0
 70
     8
  0
VERTEX
  5
55B
330
536
100
AcDbEntity
  8
IMAGE
100
AcDbVertex
100
AcDb2dVertex
 10
-0.0586997806125655
 20
4.421657301419867
 30
0.0
 70
     8
  0
VERTEX
  5
55C
330
536
100
AcDbEntity
  8
IMAGE
100
AcDbVertex
100
AcDb2dVertex
 10
-0.0798812578761332
 20
4.382744359255418
 30
0.0
 70
     8
  0
VERTEX
  5
55D
330
536
100
AcDbEntity
  8
IMAGE
100
AcDbVertex
100
AcDb2dVertex
 10
-0.0984046569986168
 20
4.341393597878393
 30
0.0
 70
     8
  0
VERTEX
  5
55E
330
536
100
AcDbEntity
  8
IMAGE
100
AcDbVertex
100
AcDb2dVertex
 10
-0.1136176579208685
 20
4.297368861137913
 30
0.0
 70
     8
  0
VERTEX
  5
55F
330
536
100
AcDbEntity
  8
IMAGE
100
AcDbVertex
100
AcDb2dVertex
 10
-0.1248679405837043
 20
4.250433992883098
 30
0.0
 70
     8
  0
VERTEX
  5
560
330
536
100
AcDbEntity
  8
IMAGE
100
AcDbVertex
100
AcDb2dVertex
 10
-0.1315031849279817
 20
4.200352836963061
 30
0.0
 70
     8
  0
VERTEX
  5
561
330
536
100
AcDbEntity
  8
IMAGE
100
AcDbVertex
100
AcDb2dVertex
 10
0.6992623696220308
 20
4.853093437723918
 30
0.0
 70
    16
  0
VERTEX
  5
562
330
536
100
AcDbEntity
  8
IMAGE
100
AcDbVertex
100
AcDb2dVertex
 10
0.5618474707998953
 20
4.880139981586013
 30
0.0
 70
    16
  0
VERTEX
  5
563
330
536
100
AcDbEntity
  8
IMAGE
100
AcDbVertex
100
AcDb2dVertex
 10
0.3947634460957223
 20
4.846782577489427
 30
0.0
 70
    16
  0
VERTEX
  5
564
330
536
100
AcDbEntity
  8
IMAGE
100
AcDbVertex
100
AcDb2dVertex
 10
0.2183102237445897
 20
4.752119673972091
 30
0.0
 70
    16
  0
VERTEX
  5
565
330
536
100
AcDbEntity
  8
IMAGE
100
AcDbVertex
100
AcDb2dVertex
 10
0.013749408452548
 20
4.542058183309801
 30
0.0
 70
    16
  0
VERTEX
  5
566
330
536
100
AcDbEntity
  8
IMAGE
100
AcDbVertex
100
AcDb2dVertex
 10
-0.120542424487267
 20
4.338307552882006
 30
0.0
 70
    16
  0
VERTEX
  5
567
330
536
100
AcDbEntity
  8
IMAGE
100
AcDbVertex
100
AcDb2dVertex
 10
-0.1315031849279817
 20
4.200352836963061
 30
0.0
 70
    16
  0
SEQEND
  5
568
330
536
100
AcDbEntity
  8
IMAGE
  0
LINE
  5
610
330
1E
100
AcDbEntity
  8
IMAGE
100
AcDbLine
 10
2.861383308016242
 20
4.282435577153673
 30
0.0
 11
2.923653526400172
 21
4.318387304500133
 31
0.0
  0
LINE
  5
611
330
1E
100
AcDbEntity
  8
IMAGE
100
AcDbLine
 10
2.871868805825076
 20
4.35461534687597
 30
0.0
 11
2.908525958951767
 21
4.37577936410139
 31
0.0
  0
LINE
  5
612
330
1E
100
AcDbEntity
  8
IMAGE
100
AcDbLine
 10
2.883346457912586
 20
4.392620185713122
 30
0.0
 11
2.871868805825076
 21
4.35461534687597
 31
0.0
  0
LINE
  5
613
330
1E
100
AcDbEntity
  8
IMAGE
100
AcDbLine
 10
2.923653526400172
 20
4.444764592766532
 30
0.0
 11
2.923653526400172
 21
4.318387304500133
 31
0.0
  0
LINE
  5
614
330
1E
100
AcDbEntity
  8
IMAGE
100
AcDbLine
 10
2.871868805825076
 20
4.401724382092126
 30
0.0
 11
2.871868805825076
 21
4.307506311659811
 31
0.0
  0
LINE
  5
615
330
1E
100
AcDbEntity
  8
IMAGE
100
AcDbLine
 10
2.908525958951767
 20
4.37577936410139
 30
0.0
 11
2.908525958951767
 21
4.328670328885229
 31
0.0
  0
LINE
  5
616
330
1E
100
AcDbEntity
  8
IMAGE
100
AcDbLine
 10
2.871868805825076
 20
4.307506311659811
 30
0.0
 11
2.908525958951767
 21
4.328670328885229
 31
0.0
  0
LINE
  5
617
330
1E
100
AcDbEntity
  8
IMAGE
100
AcDbLine
 10
2.871868805825076
 20
4.401724382092126
 30
0.0
 11
2.908525958951767
 21
4.422888399317542
 31
0.0
  0
LINE
  5
618
330
1E
100
AcDbEntity
  8
IMAGE
100
AcDbLine
 10
2.883346457912586
 20
4.392620185713122
 30
0.0
 11
2.871868805825076
 21
4.401724382092126
 31
0.0
  0
LINE
  5
619
330
1E
100
AcDbEntity
  8
IMAGE
100
AcDbLine
 10
2.920003611039277
 20
4.413784202938536
 30
0.0
 11
2.908525958951767
 21
4.375779364101381
 31
0.0
  0
LINE
  5
61A
330
1E
100
AcDbEntity
  8
IMAGE
100
AcDbLine
 10
2.920003611039277
 20
4.413784202938539
 30
0.0
 11
2.908525958951767
 21
4.422888399317542
 31
0.0
  0
LINE
  5
61B
330
1E
100
AcDbEntity
  8
IMAGE
100
AcDbLine
 10
2.883346457912586
 20
4.39262018571312
 30
0.0
 11
2.920003611039277
 21
4.413784202938539
 31
0.0
  0
LINE
  5
61C
330
1E
100
AcDbEntity
  8
IMAGE
100
AcDbLine
 10
2.861383308016242
 20
4.408812865420074
 30
0.0
 11
2.933978163956619
 21
4.450725525039029
 31
0.0
  0
LINE
  5
61D
330
1E
100
AcDbEntity
  8
IMAGE
100
AcDbLine
 10
2.933978163956587
 20
4.450725525039029
 30
0.0
 11
2.933978163956619
 21
4.312426372227632
 31
0.0
  0
LINE
  5
61E
330
1E
100
AcDbEntity
  8
IMAGE
100
AcDbLine
 10
2.861383308016242
 20
4.270513712608676
 30
0.0
 11
2.933978163956619
 21
4.312426372227632
 31
0.0
  0
LINE
  5
61F
330
1E
100
AcDbEntity
  8
IMAGE
100
AcDbLine
 10
2.861383308016242
 20
4.408812865420074
 30
0.0
 11
2.861383308016242
 21
4.270513712608676
 31
0.0
  0
LINE
  5
620
330
1E
100
AcDbEntity
  8
IMAGE
100
AcDbLine
 10
2.933978163956619
 20
4.312426372227632
 30
0.0
 11
2.923653526400172
 21
4.318387304500133
 31
0.0
  0
POLYLINE
  5
621
330
1E
100
AcDbEntity
  8
IMAGE
100
AcDb2dPolyline
 66
     1
 10
0.0
 20
0.0
 30
0.0
 70
     4
 40
0.015625
 41
0.015625
 75
     6
  0
VERTEX
  5
622
330
621
100
AcDbEntity
  8
IMAGE
100
AcDbVertex
100
AcDb2dVertex
 10
3.895538954439173
 20
4.048822201362589
 30
0.0
 70
    16
  0
VERTEX
  5
623
330
621
100
AcDbEntity
  8
IMAGE
100
AcDbVertex
100
AcDb2dVertex
 10
3.895538954439173
 20
4.048822201362589
 30
0.0
 70
     8
  0
VERTEX
  5
624
330
621
100
AcDbEntity
  8
IMAGE
100
AcDbVertex
100
AcDb2dVertex
 10
3.859799340764716
 20
4.066186794687626
 30
0.0
 70
     8
  0
VERTEX
  5
625
330
621
100
AcDbEntity
  8
IMAGE
100
AcDbVertex
100
AcDb2dVertex
 10
3.826834878538881
 20
4.08140241633833
 30
0.0
 70
     8
  0
VERTEX
  5
626
330
621
100
AcDbEntity
  8
IMAGE
100
AcDbVertex
100
AcDb2dVertex
 10
3.796505721993229
 20
4.094755123383961
 30
0.0
 70
     8
  0
VERTEX
  5
627
330
621
100
AcDbEntity
  8
IMAGE
100
AcDbVertex
100
AcDb2dVertex
 10
3.768672025359279
 20
4.106530972893748
 30
0.0
 70
     8
  0
VERTEX
  5
628
330
621
100
AcDbEntity
  8
IMAGE
100
AcDbVertex
100
AcDb2dVertex
 10
3.743193942868621
 20
4.117016021936942
 30
0.0
 70
     8
  0
VERTEX
  5
629
330
621
100
AcDbEntity
  8
IMAGE
100
AcDbVertex
100
AcDb2dVertex
 10
3.719931628752745
 20
4.126496327582795
 30
0.0
 70
     8
  0
VERTEX
  5
62A
330
621
100
AcDbEntity
  8
IMAGE
100
AcDbVertex
100
AcDb2dVertex
 10
3.698745237243239
 20
4.135257946900542
 30
0.0
 70
     8
  0
VERTEX
  5
62B
330
621
100
AcDbEntity
  8
IMAGE
100
AcDbVertex
100
AcDb2dVertex
 10
3.679494922571692
 20
4.143586936959434
 30
0.0
 70
     8
  0
VERTEX
  5
62C
330
621
100
AcDbEntity
  8
IMAGE
100
AcDbVertex
100
AcDb2dVertex
 10
3.662014505857817
 20
4.15173541978041
 30
0.0
 70
     8
  0
VERTEX
  5
62D
330
621
100
AcDbEntity
  8
IMAGE
100
AcDbVertex
100
AcDb2dVertex
 10
3.646032475774465
 20
4.159819777191176
 30
0.0
 70
     8
  0
VERTEX
  5
62E
330
621
100
AcDbEntity
  8
IMAGE
100
AcDbVertex
100
AcDb2dVertex
 10
3.63125098788261
 20
4.167922455971143
 30
0.0
 70
     8
  0
VERTEX
  5
62F
330
621
100
AcDbEntity
  8
IMAGE
100
AcDbVertex
100
AcDb2dVertex
 10
3.617372197743261
 20
4.17612590289971
 30
0.0
 70
     8
  0
VERTEX
  5
630
330
621
100
AcDbEntity
  8
IMAGE
100
AcDbVertex
100
AcDb2dVertex
 10
3.604098260917464
 20
4.184512564756285
 30
0.0
 70
     8
  0
VERTEX
  5
631
330
621
100
AcDbEntity
  8
IMAGE
100
AcDbVertex
100
AcDb2dVertex
 10
3.591131332966253
 20
4.193164888320269
 30
0.0
 70
     8
  0
VERTEX
  5
632
330
621
100
AcDbEntity
  8
IMAGE
100
AcDbVertex
100
AcDb2dVertex
 10
3.578173569450607
 20
4.20216532037107
 30
0.0
 70
     8
  0
VERTEX
  5
633
330
621
100
AcDbEntity
  8
IMAGE
100
AcDbVertex
100
AcDb2dVertex
 10
3.564927125931566
 20
4.211596307688092
 30
0.0
 70
     8
  0
VERTEX
  5
634
330
621
100
AcDbEntity
  8
IMAGE
100
AcDbVertex
100
AcDb2dVertex
 10
3.551131579450757
 20
4.221509761203652
 30
0.0
 70
     8
  0
VERTEX
  5
635
330
621
100
AcDbEntity
  8
IMAGE
100
AcDbVertex
100
AcDb2dVertex
 10
3.536676192972249
 20
4.231835448461735
 30
0.0
 70
     8
  0
VERTEX
  5
636
330
621
100
AcDbEntity
  8
IMAGE
100
AcDbVertex
100
AcDb2dVertex
 10
3.521487650940789
 20
4.242472601159228
 30
0.0
 70
     8
  0
VERTEX
  5
637
330
621
100
AcDbEntity
  8
IMAGE
100
AcDbVertex
100
AcDb2dVertex
 10
3.505492637801063
 20
4.253320450993028
 30
0.0
 70
     8
  0
VERTEX
  5
638
330
621
100
AcDbEntity
  8
IMAGE
100
AcDbVertex
100
AcDb2dVertex
 10
3.488617837997728
 20
4.264278229660032
 30
0.0
 70
     8
  0
VERTEX
  5
639
330
621
100
AcDbEntity
  8
IMAGE
100
AcDbVertex
100
AcDb2dVertex
 10
3.47078993597556
 20
4.27524516885713
 30
0.0
 70
     8
  0
VERTEX
  5
63A
330
621
100
AcDbEntity
  8
IMAGE
100
AcDbVertex
100
AcDb2dVertex
 10
3.451935616179219
 20
4.286120500281212
 30
0.0
 70
     8
  0
VERTEX
  5
63B
330
621
100
AcDbEntity
  8
IMAGE
100
AcDbVertex
100
AcDb2dVertex
 10
3.431981563053418
 20
4.296803455629182
 30
0.0
 70
     8
  0
VERTEX
  5
63C
330
621
100
AcDbEntity
  8
IMAGE
100
AcDbVertex
100
AcDb2dVertex
 10
3.41088653660272
 20
4.307239070364265
 30
0.0
 70
     8
  0
VERTEX
  5
63D
330
621
100
AcDbEntity
  8
IMAGE
100
AcDbVertex
100
AcDb2dVertex
 10
3.388737599071086
 20
4.317555595015031
 30
0.0
 70
     8
  0
VERTEX
  5
63E
330
621
100
AcDbEntity
  8
IMAGE
100
AcDbVertex
100
AcDb2dVertex
 10
3.365653888262389
 20
4.327927083876399
 30
0.0
 70
     8
  0
VERTEX
  5
63F
330
621
100
AcDbEntity
  8
IMAGE
100
AcDbVertex
100
AcDb2dVertex
 10
3.341754541980498
 20
4.338527591243265
 30
0.0
 70
     8
  0
VERTEX
  5
640
330
621
100
AcDbEntity
  8
IMAGE
100
AcDbVertex
100
AcDb2dVertex
 10
3.317158698029219
 20
4.349531171410546
 30
0.0
 70
     8
  0
VERTEX
  5
641
330
621
100
AcDbEntity
  8
IMAGE
100
AcDbVertex
100
AcDb2dVertex
 10
3.291985494212453
 20
4.361111878673154
 30
0.0
 70
     8
  0
VERTEX
  5
642
330
621
100
AcDbEntity
  8
IMAGE
100
AcDbVertex
100
AcDb2dVertex
 10
3.266354068334008
 20
4.37344376732599
 30
0.0
 70
     8
  0
VERTEX
  5
643
330
621
100
AcDbEntity
  8
IMAGE
100
AcDbVertex
100
AcDb2dVertex
 10
3.240383558197753
 20
4.38670089166397
 30
0.0
 70
     8
  0
VERTEX
  5
644
330
621
100
AcDbEntity
  8
IMAGE
100
AcDbVertex
100
AcDb2dVertex
 10
3.214211430478656
 20
4.400993180726297
 30
0.0
 70
     8
  0
VERTEX
  5
645
330
621
100
AcDbEntity
  8
IMAGE
100
AcDbVertex
100
AcDb2dVertex
 10
3.18804846733646
 20
4.416174062529362
 30
0.0
 70
     8
  0
VERTEX
  5
646
330
621
100
AcDbEntity
  8
IMAGE
100
AcDbVertex
100
AcDb2dVertex
 10
3.162123779801973
 20
4.432032839833863
 30
0.0
 70
     8
  0
VERTEX
  5
647
330
621
100
AcDbEntity
  8
IMAGE
100
AcDbVertex
100
AcDb2dVertex
 10
3.136666478905969
 20
4.448358815400487
 30
0.0
 70
     8
  0
VERTEX
  5
648
330
621
100
AcDbEntity
  8
IMAGE
100
AcDbVertex
100
AcDb2dVertex
 10
3.111905675679385
 20
4.464941291989924
 30
0.0
 70
     8
  0
VERTEX
  5
649
330
621
100
AcDbEntity
  8
IMAGE
100
AcDbVertex
100
AcDb2dVertex
 10
3.088070481152966
 20
4.481569572362856
 30
0.0
 70
     8
  0
VERTEX
  5
64A
330
621
100
AcDbEntity
  8
IMAGE
100
AcDbVertex
100
AcDb2dVertex
 10
3.06539000635758
 20
4.49803295927999
 30
0.0
 70
     8
  0
VERTEX
  5
64B
330
621
100
AcDbEntity
  8
IMAGE
100
AcDbVertex
100
AcDb2dVertex
 10
3.044093362324074
 20
4.514120755502004
 30
0.0
 70
     8
  0
VERTEX
  5
64C
330
621
100
AcDbEntity
  8
IMAGE
100
AcDbVertex
100
AcDb2dVertex
 10
3.024353146040286
 20
4.529668067530176
 30
0.0
 70
     8
  0
VERTEX
  5
64D
330
621
100
AcDbEntity
  8
IMAGE
100
AcDbVertex
100
AcDb2dVertex
 10
3.006115898322212
 20
4.54469321682813
 30
0.0
 70
     8
  0
VERTEX
  5
64E
330
621
100
AcDbEntity
  8
IMAGE
100
AcDbVertex
100
AcDb2dVertex
 10
2.989271645942849
 20
4.559260328600053
 30
0.0
 70
     8
  0
VERTEX
  5
64F
330
621
100
AcDbEntity
  8
IMAGE
100
AcDbVertex
100
AcDb2dVertex
 10
2.973710415675262
 20
4.573433528050163
 30
0.0
 70
     8
  0
VERTEX
  5
650
330
621
100
AcDbEntity
  8
IMAGE
100
AcDbVertex
100
AcDb2dVertex
 10
2.959322234292447
 20
4.587276940382653
 30
0.0
 70
     8
  0
VERTEX
  5
651
330
621
100
AcDbEntity
  8
IMAGE
100
AcDbVertex
100
AcDb2dVertex
 10
2.945997128567371
 20
4.600854690801732
 30
0.0
 70
     8
  0
VERTEX
  5
652
330
621
100
AcDbEntity
  8
IMAGE
100
AcDbVertex
100
AcDb2dVertex
 10
2.933625125273096
 20
4.614230904511584
 30
0.0
 70
     8
  0
VERTEX
  5
653
330
621
100
AcDbEntity
  8
IMAGE
100
AcDbVertex
100
AcDb2dVertex
 10
2.922096251182653
 20
4.627469706716433
 30
0.0
 70
     8
  0
VERTEX
  5
654
330
621
100
AcDbEntity
  8
IMAGE
100
AcDbVertex
100
AcDb2dVertex
 10
2.911286786380326
 20
4.64061537435892
 30
0.0
 70
     8
  0
VERTEX
  5
655
330
621
100
AcDbEntity
  8
IMAGE
100
AcDbVertex
100
AcDb2dVertex
 10
2.901018024195677
 20
4.653632791335493
 30
0.0
 70
     8
  0
VERTEX
  5
656
330
621
100
AcDbEntity
  8
IMAGE
100
AcDbVertex
100
AcDb2dVertex
 10
2.89109751126955
 20
4.666466993281057
 30
0.0
 70
     8
  0
VERTEX
  5
657
330
621
100
AcDbEntity
  8
IMAGE
100
AcDbVertex
100
AcDb2dVertex
 10
2.881332794242799
 20
4.679063015830517
 30
0.0
 70
     8
  0
VERTEX
  5
658
330
621
100
AcDbEntity
  8
IMAGE
100
AcDbVertex
100
AcDb2dVertex
 10
2.871531419756297
 20
4.691365894618765
 30
0.0
 70
     8
  0
VERTEX
  5
659
330
621
100
AcDbEntity
  8
IMAGE
100
AcDbVertex
100
AcDb2dVertex
 10
2.861500934450894
 20
4.703320665280704
 30
0.0
 70
     8
  0
VERTEX
  5
65A
330
621
100
AcDbEntity
  8
IMAGE
100
AcDbVertex
100
AcDb2dVertex
 10
2.851048884967442
 20
4.714872363451242
 30
0.0
 70
     8
  0
VERTEX
  5
65B
330
621
100
AcDbEntity
  8
IMAGE
100
AcDbVertex
100
AcDb2dVertex
 10
2.83998281794678
 20
4.725966024765273
 30
0.0
 70
     8
  0
VERTEX
  5
65C
330
621
100
AcDbEntity
  8
IMAGE
100
AcDbVertex
100
AcDb2dVertex
 10
2.828165266690328
 20
4.736561952734037
 30
0.0
 70
     8
  0
VERTEX
  5
65D
330
621
100
AcDbEntity
  8
IMAGE
100
AcDbVertex
100
AcDb2dVertex
 10
2.815678711141914
 20
4.746681522374082
 30
0.0
 70
     8
  0
VERTEX
  5
65E
330
621
100
AcDbEntity
  8
IMAGE
100
AcDbVertex
100
AcDb2dVertex
 10
2.802660617905901
 20
4.75636137657833
 30
0.0
 70
     8
  0
VERTEX
  5
65F
330
621
100
AcDbEntity
  8
IMAGE
100
AcDbVertex
100
AcDb2dVertex
 10
2.789248453586655
 20
4.765638158239671
 30
0.0
 70
     8
  0
VERTEX
  5
660
330
621
100
AcDbEntity
  8
IMAGE
100
AcDbVertex
100
AcDb2dVertex
 10
2.77557968478854
 20
4.774548510251
 30
0.0
 70
     8
  0
VERTEX
  5
661
330
621
100
AcDbEntity
  8
IMAGE
100
AcDbVertex
100
AcDb2dVertex
 10
2.761791778115949
 20
4.78312907550522
 30
0.0
 70
     8
  0
VERTEX
  5
662
330
621
100
AcDbEntity
  8
IMAGE
100
AcDbVertex
100
AcDb2dVertex
 10
2.748022200173217
 20
4.791416496895231
 30
0.0
 70
     8
  0
VERTEX
  5
663
330
621
100
AcDbEntity
  8
IMAGE
100
AcDbVertex
100
AcDb2dVertex
 10
2.734408417564771
 20
4.799447417313931
 30
0.0
 70
     8
  0
VERTEX
  5
664
330
621
100
AcDbEntity
  8
IMAGE
100
AcDbVertex
100
AcDb2dVertex
 10
2.721038256155091
 20
4.807272984191667
 30
0.0
 70
     8
  0
VERTEX
  5
665
330
621
100
AcDbEntity
  8
IMAGE
100
AcDbVertex
100
AcDb2dVertex
 10
2.707800978849431
 20
4.815002363108599
 30
0.0
 70
     8
  0
VERTEX
  5
666
330
621
100
AcDbEntity
  8
IMAGE
100
AcDbVertex
100
AcDb2dVertex
 10
2.694536207813166
 20
4.822759224182335
 30
0.0
 70
     8
  0
VERTEX
  5
667
330
621
100
AcDbEntity
  8
IMAGE
100
AcDbVertex
100
AcDb2dVertex
 10
2.681083565211733
 20
4.83066723753047
 30
0.0
 70
     8
  0
VERTEX
  5
668
330
621
100
AcDbEntity
  8
IMAGE
100
AcDbVertex
100
AcDb2dVertex
 10
2.667282673210472
 20
4.838850073270612
 30
0.0
 70
     8
  0
VERTEX
  5
669
330
621
100
AcDbEntity
  8
IMAGE
100
AcDbVertex
100
AcDb2dVertex
 10
2.652973153974756
 20
4.847431401520371
 30
0.0
 70
     8
  0
VERTEX
  5
66A
330
621
100
AcDbEntity
  8
IMAGE
100
AcDbVertex
100
AcDb2dVertex
 10
2.637994629670051
 20
4.856534892397354
 30
0.0
 70
     8
  0
VERTEX
  5
66B
330
621
100
AcDbEntity
  8
IMAGE
100
AcDbVertex
100
AcDb2dVertex
 10
2.6221867224617
 20
4.866284216019165
 30
0.0
 70
     8
  0
VERTEX
  5
66C
330
621
100
AcDbEntity
  8
IMAGE
100
AcDbVertex
100
AcDb2dVertex
 10
2.605434074566955
 20
4.876761819113705
 30
0.0
 70
     8
  0
VERTEX
  5
66D
330
621
100
AcDbEntity
  8
IMAGE
100
AcDbVertex
100
AcDb2dVertex
 10
2.587801408410667
 20
4.887885254850068
 30
0.0
 70
     8
  0
VERTEX
  5
66E
330
621
100
AcDbEntity
  8
IMAGE
100
AcDbVertex
100
AcDb2dVertex
 10
2.569398466469471
 20
4.899530853007648
 30
0.0
 70
     8
  0
VERTEX
  5
66F
330
621
100
AcDbEntity
  8
IMAGE
100
AcDbVertex
100
AcDb2dVertex
 10
2.550334991220095
 20
4.911574943365836
 30
0.0
 70
     8
  0
VERTEX
  5
670
330
621
100
AcDbEntity
  8
IMAGE
100
AcDbVertex
100
AcDb2dVertex
 10
2.530720725139175
 20
4.923893855704026
 30
0.0
 70
     8
  0
VERTEX
  5
671
330
621
100
AcDbEntity
  8
IMAGE
100
AcDbVertex
100
AcDb2dVertex
 10
2.510665410703412
 20
4.936363919801607
 30
0.0
 70
     8
  0
VERTEX
  5
672
330
621
100
AcDbEntity
  8
IMAGE
100
AcDbVertex
100
AcDb2dVertex
 10
2.490278790389502
 20
4.948861465437969
 30
0.0
 70
     8
  0
VERTEX
  5
673
330
621
100
AcDbEntity
  8
IMAGE
100
AcDbVertex
100
AcDb2dVertex
 10
2.469670606674114
 20
4.961262822392511
 30
0.0
 70
     8
  0
VERTEX
  5
674
330
621
100
AcDbEntity
  8
IMAGE
100
AcDbVertex
100
AcDb2dVertex
 10
3.796408808692749
 20
4.09824735207889
 30
0.0
 70
    16
  0
VERTEX
  5
675
330
621
100
AcDbEntity
  8
IMAGE
100
AcDbVertex
100
AcDb2dVertex
 10
3.660335124497343
 20
4.145150373648623
 30
0.0
 70
    16
  0
VERTEX
  5
676
330
621
100
AcDbEntity
  8
IMAGE
100
AcDbVertex
100
AcDb2dVertex
 10
3.571183386650278
 20
4.20612428586809
 30
0.0
 70
    16
  0
VERTEX
  5
677
330
621
100
AcDbEntity
  8
IMAGE
100
AcDbVertex
100
AcDb2dVertex
 10
3.444494084490875
 20
4.299930329007558
 30
0.0
 70
    16
  0
VERTEX
  5
678
330
621
100
AcDbEntity
  8
IMAGE
100
AcDbVertex
100
AcDb2dVertex
 10
3.242729653706729
 20
4.37497513187676
 30
0.0
 70
    16
  0
VERTEX
  5
679
330
621
100
AcDbEntity
  8
IMAGE
100
AcDbVertex
100
AcDb2dVertex
 10
3.026888649868602
 20
4.520374493469212
 30
0.0
 70
    16
  0
VERTEX
  5
67A
330
621
100
AcDbEntity
  8
IMAGE
100
AcDbVertex
100
AcDb2dVertex
 10
2.914275920763211
 20
4.628251427258414
 30
0.0
 70
    16
  0
VERTEX
  5
67B
330
621
100
AcDbEntity
  8
IMAGE
100
AcDbVertex
100
AcDb2dVertex
 10
2.8485851741745
 20
4.731438037795723
 30
0.0
 70
    16
  0
VERTEX
  5
67C
330
621
100
AcDbEntity
  8
IMAGE
100
AcDbVertex
100
AcDb2dVertex
 10
2.731280290219438
 20
4.801792570150326
 30
0.0
 70
    16
  0
VERTEX
  5
67D
330
621
100
AcDbEntity
  8
IMAGE
100
AcDbVertex
100
AcDb2dVertex
 10
2.632744170336374
 20
4.858076185486554
 30
0.0
 70
    16
  0
VERTEX
  5
67E
330
621
100
AcDbEntity
  8
IMAGE
100
AcDbVertex
100
AcDb2dVertex
 10
2.524823632248966
 20
4.92843071784115
 30
0.0
 70
    16
  0
VERTEX
  5
67F
330
621
100
AcDbEntity
  8
IMAGE
100
AcDbVertex
100
AcDb2dVertex
 10
2.469670606674114
 20
4.961262822392511
 30
0.0
 70
    16
  0
SEQEND
  5
680
330
621
100
AcDbEntity
  8
IMAGE
  0
ARC
  5
681
330
1E
100
AcDbEntity
  8
IMAGE
100
AcDbCircle
 10
3.819335076934593
 20
3.937052921666264
 30
0.0
 40
0.015440035406301
100
AcDbArc
 50
180.0000000000011
 51
239.9999999999999
  0
ARC
  5
682
330
1E
100
AcDbEntity
  8
IMAGE
100
AcDbCircle
 10
4.281363903159006
 20
3.901046679435957
 30
0.0
 40
0.015440035406301
100
AcDbArc
 50
299.9999999999999
 51
0.0
  0
ARC
  5
683
330
1E
100
AcDbEntity
  8
IMAGE
100
AcDbCircle
 10
4.081531810513057
 20
3.785673566954095
 30
0.0
 40
0.015440035406301
100
AcDbArc
 50
240.0
 51
299.9999999999999
  0
ARC
  5
684
330
1E
100
AcDbEntity
  8
IMAGE
100
AcDbCircle
 10
4.321063421532272
 20
3.465821702844138
 30
0.0
 40
0.6525476385831868
100
AcDbArc
 50
119.1411569374359
 51
130.6037727355163
  0
LINE
  5
685
330
1E
100
AcDbEntity
  8
IMAGE
100
AcDbLine
 10
4.081531810513057
 20
3.789739269372724
 30
0.0
 11
4.081531810513057
 21
3.770233531547795
 31
0.0
  0
ARC
  5
686
330
1E
100
AcDbEntity
  8
IMAGE
100
AcDbCircle
 10
3.811453909339152
 20
3.646193113177034
 30
0.0
 40
0.307587875858772
100
AcDbArc
 50
74.60182520224271
 51
91.40816612404059
  0
ARC
  5
687
330
1E
100
AcDbEntity
  8
IMAGE
100
AcDbCircle
 10
3.811453909339152
 20
3.661909029989599
 30
0.0
 40
0.307587875858772
100
AcDbArc
 50
74.42661464287962
 51
91.40816612404059
  0
ARC
  5
688
330
1E
100
AcDbEntity
  8
IMAGE
100
AcDbCircle
 10
3.902414791090627
 20
3.954202354770153
 30
0.0
 40
0.0092884863386655
100
AcDbArc
 50
130.6037727355182
 51
180.0
  0
ARC
  5
689
330
1E
100
AcDbEntity
  8
IMAGE
100
AcDbCircle
 10
3.908821323206356
 20
3.952363014416
 30
0.0
 40
0.0092884863386655
100
AcDbArc
 50
130.6037727355177
 51
180.0
  0
LINE
  5
68A
330
1E
100
AcDbEntity
  8
IMAGE
100
AcDbLine
 10
3.893126304751938
 20
3.954202354770153
 30
0.0
 11
3.893126304751938
 21
3.942739772579637
 31
0.0
  0
LINE
  5
68B
330
1E
100
AcDbEntity
  8
IMAGE
100
AcDbLine
 10
3.8995328368677
 20
3.952363014416
 30
0.0
 11
3.8995328368677
 21
3.940900432225491
 31
0.0
  0
ARC
  5
68C
330
1E
100
AcDbEntity
  8
IMAGE
100
AcDbCircle
 10
4.351359340854533
 20
3.570959119700416
 30
0.0
 40
0.347378252083834
100
AcDbArc
 50
99.03565011351927
 51
140.9643498864807
  0
ARC
  5
68D
330
1E
100
AcDbEntity
  8
IMAGE
100
AcDbCircle
 10
3.811453909339152
 20
3.642537949158525
 30
0.0
 40
0.307587875858772
100
AcDbArc
 50
28.59183387595955
 51
91.40816612404059
  0
ARC
  5
68E
330
1E
100
AcDbEntity
  8
IMAGE
100
AcDbCircle
 10
3.811453909339152
 20
3.646193113177034
 30
0.0
 40
0.307587875858772
100
AcDbArc
 50
28.59183387595955
 51
73.36021702576727
  0
ARC
  5
68F
330
1E
100
AcDbEntity
  8
IMAGE
100
AcDbCircle
 10
4.351359340854533
 20
3.57461428371892
 30
0.0
 40
0.347378252083834
100
AcDbArc
 50
99.03565011351927
 51
140.9643498864807
  0
ARC
  5
690
330
1E
100
AcDbEntity
  8
IMAGE
100
AcDbCircle
 10
4.327469953648003
 20
3.463982362489995
 30
0.0
 40
0.6525476385831868
100
AcDbArc
 50
109.0200835011835
 51
130.6037727355165
  0
ARC
  5
691
330
1E
100
AcDbEntity
  8
IMAGE
100
AcDbCircle
 10
3.917467801092422
 20
3.896279051996912
 30
0.0
 40
0.1637828054676231
100
AcDbArc
 50
58.39620315196708
 51
90.38377854700625
  0
ARC
  5
692
330
1E
100
AcDbEntity
  8
IMAGE
100
AcDbCircle
 10
3.922353732505614
 20
3.898975802946067
 30
0.0
 40
0.1637828054676231
100
AcDbArc
 50
58.39620315196708
 51
90.38377854700625
  0
ARC
  5
693
330
1E
100
AcDbEntity
  8
IMAGE
100
AcDbCircle
 10
4.321063421532272
 20
3.465821702844138
 30
0.0
 40
0.6525476385831868
100
AcDbArc
 50
109.0200835011835
 51
118.6511474969971
  0
ARC
  5
694
330
1E
100
AcDbEntity
  8
IMAGE
100
AcDbCircle
 10
4.026726037391395
 20
3.786196451069589
 30
0.0
 40
0.307587875858772
100
AcDbArc
 50
28.59183387595955
 51
91.40816612404059
  0
ARC
  5
695
330
1E
100
AcDbEntity
  8
IMAGE
100
AcDbCircle
 10
4.073722571869772
 20
3.750623863841792
 30
0.0
 40
0.347378252083834
100
AcDbArc
 50
99.03565011351927
 51
140.9643498864807
  0
ARC
  5
696
330
1E
100
AcDbEntity
  8
IMAGE
100
AcDbCircle
 10
4.351359340854533
 20
3.590330200531492
 30
0.0
 40
0.347378252083834
100
AcDbArc
 50
99.03565011351927
 51
140.9643498864807
  0
ARC
  5
697
330
1E
100
AcDbEntity
  8
IMAGE
100
AcDbCircle
 10
3.811453909339152
 20
3.661909029989599
 30
0.0
 40
0.307587875858772
100
AcDbArc
 50
28.59183387595955
 51
73.18563059817916
  0
LINE
  5
698
330
1E
100
AcDbEntity
  8
IMAGE
100
AcDbLine
 10
3.803895041528297
 20
3.937052921666264
 30
0.0
 11
3.803895041528297
 21
3.969404013514099
 31
0.0
  0
LINE
  5
699
330
1E
100
AcDbEntity
  8
IMAGE
100
AcDbLine
 10
4.2968039385653
 20
3.901046679435957
 30
0.0
 11
4.2968039385653
 21
3.933397771283786
 31
0.0
  0
LINE
  5
69A
330
1E
100
AcDbEntity
  8
IMAGE
100
AcDbLine
 10
4.081531810513057
 20
3.809110350203806
 30
0.0
 11
4.081531810513057
 21
3.793394433391231
 31
0.0
  0
LINE
  5
69B
330
1E
100
AcDbEntity
  8
IMAGE
100
AcDbLine
 10
4.089251828216205
 20
3.772302104056907
 30
0.0
 11
4.289083920862154
 21
3.887675216538763
 31
0.0
  0
LINE
  5
69C
330
1E
100
AcDbEntity
  8
IMAGE
100
AcDbLine
 10
3.811615059231446
 20
3.923681458769076
 30
0.0
 11
4.07381179280991
 21
3.772302104056907
 31
0.0
  0
TEXT
  5
6BE
330
1E
100
AcDbEntity
  8
TEXT_BUBBLES
100
AcDbText
 10
0.213565006852
 20
6.046900749207
 30
0.0
 40
0.10000000149
  1

  7
ROMANS
100
AcDbText
  0
TEXT
  5
6BF
330
1E
100
AcDbEntity
  8
TEXT_BUBBLES
100
AcDbText
 10
0.213565006852
 20
5.561202049254999
 30
0.0
 40
0.10000000149
  1

  7
ROMANS
100
AcDbText
  0
TEXT
  5
6C0
330
1E
100
AcDbEntity
  8
TEXT_BUBBLES
100
AcDbText
 10
0.213565006852
 20
5.237402915955
 30
0.0
 40
0.10000000149
  1

  7
ROMANS
100
AcDbText
  0
TEXT
  5
6C1
330
1E
100
AcDbEntity
  8
TEXT_BUBBLES
100
AcDbText
 10
0.213565006852
 20
4.913603782654
 30
0.0
 40
0.10000000149
  1

  7
ROMANS
100
AcDbText
  0
TEXT
  5
6C2
330
1E
100
AcDbEntity
  8
TEXT_BUBBLES
100
AcDbText
 10
0.213565006852
 20
4.104105949402
 30
0.0
 40
0.10000000149
  1

  7
ROMANS
100
AcDbText
  0
LWPOLYLINE
  5
6C3
330
1E
100
AcDbEntity
  8
IMAGE
100
AcDbPolyline
 90
        6
 70
     0
 43
0.0
 10
1.740303258130343
 20
4.126544632703174
 42
0.0610029647248491
 10
1.831185639655554
 20
4.115415025982343
 42
0.0858044017624522
 10
1.957631057157269
 20
4.137275115412047
 42
0.0923004387585296
 10
2.060886671908848
 20
4.197284109896123
 42
0.1032683892974427
 10
2.132118429802556
 20
4.290124183045504
 42
0.0818453530695179
 10
2.154236177940139
 20
4.365528915382204
 42
0.1126337612452064
  0
LWPOLYLINE
  5
6CB
330
1E
100
AcDbEntity
  8
IMAGE
100
AcDbPolyline
 90
        6
 70
     0
 43
0.0
 10
1.671786411264414
 20
4.123553021805917
 42
0.102422664269965
 10
1.831185639655554
 20
4.090554668500457
 42
0.0858044017624828
 10
1.965977399279485
 20
4.113857687130826
 42
0.0923004387584916
 10
2.077101626217026
 20
4.178439677537706
 42
0.103268389297454
 10
2.154518506889777
 20
4.279341144484241
 42
0.0991243410254021
 10
2.180511895078313
 20
4.380699207745106
 42
0.0818453530695084
  0
POLYLINE
  5
755
330
1E
100
AcDbEntity
  8
IMAGE
100
AcDb2dPolyline
 66
     1
 10
0.0
 20
0.0
 30
0.0
 70
     4
 40
0.0234375
 41
0.0234375
 75
     6
  0
VERTEX
  5
756
330
755
100
AcDbEntity
  8
IMAGE
100
AcDbVertex
100
AcDb2dVertex
 10
-0.137538688179375
 20
3.629583834742215
 30
0.0
 70
    16
  0
VERTEX
  5
757
330
755
100
AcDbEntity
  8
IMAGE
100
AcDbVertex
100
AcDb2dVertex
 10
-0.137538688179375
 20
3.629583834742215
 30
0.0
 70
     8
  0
VERTEX
  5
758
330
755
100
AcDbEntity
  8
IMAGE
100
AcDbVertex
100
AcDb2dVertex
 10
-0.1407078371638164
 20
3.566974630016874
 30
0.0
 70
     8
  0
VERTEX
  5
759
330
755
100
AcDbEntity
  8
IMAGE
100
AcDbVertex
100
AcDb2dVertex
 10
-0.1435925474719788
 20
3.513505484610046
 30
0.0
 70
     8
  0
VERTEX
  5
75A
330
755
100
AcDbEntity
  8
IMAGE
100
AcDbVertex
100
AcDb2dVertex
 10
-0.1462452471146296
 20
3.468027864412515
 30
0.0
 70
     8
  0
VERTEX
  5
75B
330
755
100
AcDbEntity
  8
IMAGE
100
AcDbVertex
100
AcDb2dVertex
 10
-0.1487183641025318
 20
3.429393235315064
 30
0.0
 70
     8
  0
VERTEX
  5
75C
330
755
100
AcDbEntity
  8
IMAGE
100
AcDbVertex
100
AcDb2dVertex
 10
-0.1510643264464546
 20
3.396453063208476
 30
0.0
 70
     8
  0
VERTEX
  5
75D
330
755
100
AcDbEntity
  8
IMAGE
100
AcDbVertex
100
AcDb2dVertex
 10
-0.1533355621571619
 20
3.368058813983532
 30
0.0
 70
     8
  0
VERTEX
  5
75E
330
755
100
AcDbEntity
  8
IMAGE
100
AcDbVertex
100
AcDb2dVertex
 10
-0.1555844992454203
 20
3.343061953531015
 30
0.0
 70
     8
  0
VERTEX
  5
75F
330
755
100
AcDbEntity
  8
IMAGE
100
AcDbVertex
100
AcDb2dVertex
 10
-0.1578635657219962
 20
3.320313947741707
 30
0.0
 70
     8
  0
VERTEX
  5
760
330
755
100
AcDbEntity
  8
IMAGE
100
AcDbVertex
100
AcDb2dVertex
 10
-0.1602032653446175
 20
3.29880610733065
 30
0.0
 70
     8
  0
VERTEX
  5
761
330
755
100
AcDbEntity
  8
IMAGE
100
AcDbVertex
100
AcDb2dVertex
 10
-0.1625464048588681
 20
3.278089122309907
 30
0.0
 70
     8
  0
VERTEX
  5
762
330
755
100
AcDbEntity
  8
IMAGE
100
AcDbVertex
100
AcDb2dVertex
 10
-0.1648138667572923
 20
3.257853527515806
 30
0.0
 70
     8
  0
VERTEX
  5
763
330
755
100
AcDbEntity
  8
IMAGE
100
AcDbVertex
100
AcDb2dVertex
 10
-0.1669265335324361
 20
3.23778985778467
 30
0.0
 70
     8
  0
VERTEX
  5
764
330
755
100
AcDbEntity
  8
IMAGE
100
AcDbVertex
100
AcDb2dVertex
 10
-0.168805287676844
 20
3.217588647952825
 30
0.0
 70
     8
  0
VERTEX
  5
765
330
755
100
AcDbEntity
  8
IMAGE
100
AcDbVertex
100
AcDb2dVertex
 10
-0.1703710116830628
 20
3.196940432856594
 30
0.0
 70
     8
  0
VERTEX
  5
766
330
755
100
AcDbEntity
  8
IMAGE
100
AcDbVertex
100
AcDb2dVertex
 10
-0.1715445880436377
 20
3.175535747332304
 30
0.0
 70
     8
  0
VERTEX
  5
767
330
755
100
AcDbEntity
  8
IMAGE
100
AcDbVertex
100
AcDb2dVertex
 10
-0.1722468992511139
 20
3.153065126216277
 30
0.0
 70
     8
  0
VERTEX
  5
768
330
755
100
AcDbEntity
  8
IMAGE
100
AcDbVertex
100
AcDb2dVertex
 10
-0.1724234803547082
 20
3.129300482212589
 30
0.0
 70
     8
  0
VERTEX
  5
769
330
755
100
AcDbEntity
  8
IMAGE
100
AcDbVertex
100
AcDb2dVertex
 10
-0.1721184766303185
 20
3.104339239496324
 30
0.0
 70
     8
  0
VERTEX
  5
76A
330
755
100
AcDbEntity
  8
IMAGE
100
AcDbVertex
100
AcDb2dVertex
 10
-0.1714006859105144
 20
3.078360200110312
 30
0.0
 70
     8
  0
VERTEX
  5
76B
330
755
100
AcDbEntity
  8
IMAGE
100
AcDbVertex
100
AcDb2dVertex
 10
-0.1703389060278635
 20
3.051542166097386
 30
0.0
 70
     8
  0
VERTEX
  5
76C
330
755
100
AcDbEntity
  8
IMAGE
100
AcDbVertex
100
AcDb2dVertex
 10
-0.1690019348149381
 20
3.024063939500379
 30
0.0
 70
     8
  0
VERTEX
  5
76D
330
755
100
AcDbEntity
  8
IMAGE
100
AcDbVertex
100
AcDb2dVertex
 10
-0.1674585701043032
 20
2.996104322362122
 30
0.0
 70
     8
  0
VERTEX
  5
76E
330
755
100
AcDbEntity
  8
IMAGE
100
AcDbVertex
100
AcDb2dVertex
 10
-0.1657776097285311
 20
2.967842116725449
 30
0.0
 70
     8
  0
VERTEX
  5
76F
330
755
100
AcDbEntity
  8
IMAGE
100
AcDbVertex
100
AcDb2dVertex
 10
-0.1640278515201894
 20
2.939456124633194
 30
0.0
 70
     8
  0
VERTEX
  5
770
330
755
100
AcDbEntity
  8
IMAGE
100
AcDbVertex
100
AcDb2dVertex
 10
-0.1622746534202193
 20
2.911115978821697
 30
0.0
 70
     8
  0
VERTEX
  5
771
330
755
100
AcDbEntity
  8
IMAGE
100
AcDbVertex
100
AcDb2dVertex
 10
-0.1605696138030481
 20
2.882954634801347
 30
0.0
 70
     8
  0
VERTEX
  5
772
330
755
100
AcDbEntity
  8
IMAGE
100
AcDbVertex
100
AcDb2dVertex
 10
-0.158960891151473
 20
2.855095878776041
 30
0.0
 70
     8
  0
VERTEX
  5
773
330
755
100
AcDbEntity
  8
IMAGE
100
AcDbVertex
100
AcDb2dVertex
 10
-0.1574966439482939
 20
2.827663496949675
 30
0.0
 70
     8
  0
VERTEX
  5
774
330
755
100
AcDbEntity
  8
IMAGE
100
AcDbVertex
100
AcDb2dVertex
 10
-0.1562250306763087
 20
2.80078127552615
 30
0.0
 70
     8
  0
VERTEX
  5
775
330
755
100
AcDbEntity
  8
IMAGE
100
AcDbVertex
100
AcDb2dVertex
 10
-0.1551942098183137
 20
2.774573000709361
 30
0.0
 70
     8
  0
VERTEX
  5
776
330
755
100
AcDbEntity
  8
IMAGE
100
AcDbVertex
100
AcDb2dVertex
 10
-0.1544523398571105
 20
2.749162458703205
 30
0.0
 70
     8
  0
VERTEX
  5
777
330
755
100
AcDbEntity
  8
IMAGE
100
AcDbVertex
100
AcDb2dVertex
 10
-0.1540475792754954
 20
2.724673435711581
 30
0.0
 70
     8
  0
VERTEX
  5
778
330
755
100
AcDbEntity
  8
IMAGE
100
AcDbVertex
100
AcDb2dVertex
 10
-0.1540085938370392
 20
2.701180432701026
 30
0.0
 70
     8
  0
VERTEX
  5
779
330
755
100
AcDbEntity
  8
IMAGE
100
AcDbVertex
100
AcDb2dVertex
 10
-0.1542860784284015
 20
2.678560809688632
 30
0.0
 70
     8
  0
VERTEX
  5
77A
330
755
100
AcDbEntity
  8
IMAGE
100
AcDbVertex
100
AcDb2dVertex
 10
-0.1548112352170126
 20
2.656642641454126
 30
0.0
 70
     8
  0
VERTEX
  5
77B
330
755
100
AcDbEntity
  8
IMAGE
100
AcDbVertex
100
AcDb2dVertex
 10
-0.155515266370303
 20
2.635254002777241
 30
0.0
 70
     8
  0
VERTEX
  5
77C
330
755
100
AcDbEntity
  8
IMAGE
100
AcDbVertex
100
AcDb2dVertex
 10
-0.156329374055705
 20
2.614222968437708
 30
0.0
 70
     8
  0
VERTEX
  5
77D
330
755
100
AcDbEntity
  8
IMAGE
100
AcDbVertex
100
AcDb2dVertex
 10
-0.1571847604406473
 20
2.593377613215257
 30
0.0
 70
     8
  0
VERTEX
  5
77E
330
755
100
AcDbEntity
  8
IMAGE
100
AcDbVertex
100
AcDb2dVertex
 10
-0.1580126276925622
 20
2.572546011889619
 30
0.0
 70
     8
  0
VERTEX
  5
77F
330
755
100
AcDbEntity
  8
IMAGE
100
AcDbVertex
100
AcDb2dVertex
 10
-0.158744177978881
 20
2.551556239240521
 30
0.0
 70
     8
  0
VERTEX
  5
780
330
755
100
AcDbEntity
  8
IMAGE
100
AcDbVertex
100
AcDb2dVertex
 10
-0.1593335460778897
 20
2.530251270238907
 30
0.0
 70
     8
  0
VERTEX
  5
781
330
755
100
AcDbEntity
  8
IMAGE
100
AcDbVertex
100
AcDb2dVertex
 10
-0.1598265972113015
 20
2.508533680620558
 30
0.0
 70
     8
  0
VERTEX
  5
782
330
755
100
AcDbEntity
  8
IMAGE
100
AcDbVertex
100
AcDb2dVertex
 10
-0.1602921292116868
 20
2.486320946312459
 30
0.0
 70
     8
  0
VERTEX
  5
783
330
755
100
AcDbEntity
  8
IMAGE
100
AcDbVertex
100
AcDb2dVertex
 10
-0.1607989399116114
 20
2.463530543241604
 30
0.0
 70
     8
  0
VERTEX
  5
784
330
755
100
AcDbEntity
  8
IMAGE
100
AcDbVertex
100
AcDb2dVertex
 10
-0.1614158271436485
 20
2.440079947334981
 30
0.0
 70
     8
  0
VERTEX
  5
785
330
755
100
AcDbEntity
  8
IMAGE
100
AcDbVertex
100
AcDb2dVertex
 10
-0.162211588740365
 20
2.41588663451958
 30
0.0
 70
     8
  0
VERTEX
  5
786
330
755
100
AcDbEntity
  8
IMAGE
100
AcDbVertex
100
AcDb2dVertex
 10
-0.1632550225343303
 20
2.390868080722393
 30
0.0
 70
     8
  0
VERTEX
  5
787
330
755
100
AcDbEntity
  8
IMAGE
100
AcDbVertex
100
AcDb2dVertex
 10
-0.1646149263581123
 20
2.364941761870406
 30
0.0
 70
     8
  0
VERTEX
  5
788
330
755
100
AcDbEntity
  8
IMAGE
100
AcDbVertex
100
AcDb2dVertex
 10
-0.1663279923890837
 20
2.338100800973268
 30
0.0
 70
     8
  0
VERTEX
  5
789
330
755
100
AcDbEntity
  8
IMAGE
100
AcDbVertex
100
AcDb2dVertex
 10
-0.1683024901838177
 20
2.310640909371249
 30
0.0
 70
     8
  0
VERTEX
  5
78A
330
755
100
AcDbEntity
  8
IMAGE
100
AcDbVertex
100
AcDb2dVertex
 10
-0.1704145836436899
 20
2.28293344548728
 30
0.0
 70
     8
  0
VERTEX
  5
78B
330
755
100
AcDbEntity
  8
IMAGE
100
AcDbVertex
100
AcDb2dVertex
 10
-0.1725404366700758
 20
2.255349767744283
 30
0.0
 70
     8
  0
VERTEX
  5
78C
330
755
100
AcDbEntity
  8
IMAGE
100
AcDbVertex
100
AcDb2dVertex
 10
-0.174556213164351
 20
2.228261234565194
 30
0.0
 70
     8
  0
VERTEX
  5
78D
330
755
100
AcDbEntity
  8
IMAGE
100
AcDbVertex
100
AcDb2dVertex
 10
-0.1763380770278919
 20
2.202039204372937
 30
0.0
 70
     8
  0
VERTEX
  5
78E
330
755
100
AcDbEntity
  8
IMAGE
100
AcDbVertex
100
AcDb2dVertex
 10
-0.1777621921620724
 20
2.177055035590439
 30
0.0
 70
     8
  0
VERTEX
  5
78F
330
755
100
AcDbEntity
  8
IMAGE
100
AcDbVertex
100
AcDb2dVertex
 10
-0.1787047224682698
 20
2.153680086640628
 30
0.0
 70
     8
  0
VERTEX
  5
790
330
755
100
AcDbEntity
  8
IMAGE
100
AcDbVertex
100
AcDb2dVertex
 10
-0.1790750841335997
 20
2.132200899525829
 30
0.0
 70
     8
  0
VERTEX
  5
791
330
755
100
AcDbEntity
  8
IMAGE
100
AcDbVertex
100
AcDb2dVertex
 10
-0.1789157024881476
 20
2.112564750565937
 30
0.0
 70
     8
  0
VERTEX
  5
792
330
755
100
AcDbEntity
  8
IMAGE
100
AcDbVertex
100
AcDb2dVertex
 10
-0.1783022551477398
 20
2.094634099660241
 30
0.0
 70
     8
  0
VERTEX
  5
793
330
755
100
AcDbEntity
  8
IMAGE
100
AcDbVertex
100
AcDb2dVertex
 10
-0.1773104197282018
 20
2.078271406708032
 30
0.0
 70
     8
  0
VERTEX
  5
794
330
755
100
AcDbEntity
  8
IMAGE
100
AcDbVertex
100
AcDb2dVertex
 10
-0.1760158738453601
 20
2.063339131608602
 30
0.0
 70
     8
  0
VERTEX
  5
795
330
755
100
AcDbEntity
  8
IMAGE
100
AcDbVertex
100
AcDb2dVertex
 10
-0.1744942951150392
 20
2.049699734261237
 30
0.0
 70
     8
  0
VERTEX
  5
796
330
755
100
AcDbEntity
  8
IMAGE
100
AcDbVertex
100
AcDb2dVertex
 10
-0.1728213611530664
 20
2.037215674565231
 30
0.0
 70
     8
  0
VERTEX
  5
797
330
755
100
AcDbEntity
  8
IMAGE
100
AcDbVertex
100
AcDb2dVertex
 10
-0.1710727495752682
 20
2.025749412419873
 30
0.0
 70
     8
  0
VERTEX
  5
798
330
755
100
AcDbEntity
  8
IMAGE
100
AcDbVertex
100
AcDb2dVertex
 10
-0.1693012053722285
 20
2.015143922838051
 30
0.0
 70
     8
  0
VERTEX
  5
799
330
755
100
AcDbEntity
  8
IMAGE
100
AcDbVertex
100
AcDb2dVertex
 10
-0.1674677430335718
 20
2.005164241287046
 30
0.0
 70
     8
  0
VERTEX
  5
79A
330
755
100
AcDbEntity
  8
IMAGE
100
AcDbVertex
100
AcDb2dVertex
 10
-0.1655104444236777
 20
1.995555918347732
 30
0.0
 70
     8
  0
VERTEX
  5
79B
330
755
100
AcDbEntity
  8
IMAGE
100
AcDbVertex
100
AcDb2dVertex
 10
-0.16336739140693
 20
1.986064504600989
 30
0.0
 70
     8
  0
VERTEX
  5
79C
330
755
100
AcDbEntity
  8
IMAGE
100
AcDbVertex
100
AcDb2dVertex
 10
-0.160976665847711
 20
1.976435550627694
 30
0.0
 70
     8
  0
VERTEX
  5
79D
330
755
100
AcDbEntity
  8
IMAGE
100
AcDbVertex
100
AcDb2dVertex
 10
-0.1582763496104009
 20
1.96641460700872
 30
0.0
 70
     8
  0
VERTEX
  5
79E
330
755
100
AcDbEntity
  8
IMAGE
100
AcDbVertex
100
AcDb2dVertex
 10
-0.1552045245593829
 20
1.955747224324951
 30
0.0
 70
     8
  0
VERTEX
  5
79F
330
755
100
AcDbEntity
  8
IMAGE
100
AcDbVertex
100
AcDb2dVertex
 10
-0.1516992725590374
 20
1.944178953157258
 30
0.0
 70
     8
  0
VERTEX
  5
7A0
330
755
100
AcDbEntity
  8
IMAGE
100
AcDbVertex
100
AcDb2dVertex
 10
-0.1477204614972152
 20
1.931547037560405
 30
0.0
 70
     8
  0
VERTEX
  5
7A1
330
755
100
AcDbEntity
  8
IMAGE
100
AcDbVertex
100
AcDb2dVertex
 10
-0.1433151033556292
 20
1.918055495484674
 30
0.0
 70
     8
  0
VERTEX
  5
7A2
330
755
100
AcDbEntity
  8
IMAGE
100
AcDbVertex
100
AcDb2dVertex
 10
-0.1385519961394603
 20
1.904000038354232
 30
0.0
 70
     8
  0
VERTEX
  5
7A3
330
755
100
AcDbEntity
  8
IMAGE
100
AcDbVertex
100
AcDb2dVertex
 10
-0.1334999378538892
 20
1.889676377593249
 30
0.0
 70
     8
  0
VERTEX
  5
7A4
330
755
100
AcDbEntity
  8
IMAGE
100
AcDbVertex
100
AcDb2dVertex
 10
-0.1282277265040976
 20
1.87538022462589
 30
0.0
 70
     8
  0
VERTEX
  5
7A5
330
755
100
AcDbEntity
  8
IMAGE
100
AcDbVertex
100
AcDb2dVertex
 10
-0.1228041600952654
 20
1.861407290876321
 30
0.0
 70
     8
  0
VERTEX
  5
7A6
330
755
100
AcDbEntity
  8
IMAGE
100
AcDbVertex
100
AcDb2dVertex
 10
-0.1172980366325733
 20
1.848053287768712
 30
0.0
 70
     8
  0
VERTEX
  5
7A7
330
755
100
AcDbEntity
  8
IMAGE
100
AcDbVertex
100
AcDb2dVertex
 10
-0.1117781541212022
 20
1.835613926727229
 30
0.0
 70
     8
  0
VERTEX
  5
7A8
330
755
100
AcDbEntity
  8
IMAGE
100
AcDbVertex
100
AcDb2dVertex
 10
-0.10629267117341
 20
1.824319587589399
 30
0.0
 70
     8
  0
VERTEX
  5
7A9
330
755
100
AcDbEntity
  8
IMAGE
100
AcDbVertex
100
AcDb2dVertex
 10
-0.1008071888297586
 20
1.814139323846197
 30
0.0
 70
     8
  0
VERTEX
  5
7AA
330
755
100
AcDbEntity
  8
IMAGE
100
AcDbVertex
100
AcDb2dVertex
 10
-0.0952666687378869
 20
1.804976857401957
 30
0.0
 70
     8
  0
VERTEX
  5
7AB
330
755
100
AcDbEntity
  8
IMAGE
100
AcDbVertex
100
AcDb2dVertex
 10
-0.0896160725454323
 20
1.796735910161012
 30
0.0
 70
     8
  0
VERTEX
  5
7AC
330
755
100
AcDbEntity
  8
IMAGE
100
AcDbVertex
100
AcDb2dVertex
 10
-0.0838003619000372
 20
1.7893202040277
 30
0.0
 70
     8
  0
VERTEX
  5
7AD
330
755
100
AcDbEntity
  8
IMAGE
100
AcDbVertex
100
AcDb2dVertex
 10
-0.0777644984493371
 20
1.782633460906352
 30
0.0
 70
     8
  0
VERTEX
  5
7AE
330
755
100
AcDbEntity
  8
IMAGE
100
AcDbVertex
100
AcDb2dVertex
 10
-0.071453443840972
 20
1.776579402701305
 30
0.0
 70
     8
  0
VERTEX
  5
7AF
330
755
100
AcDbEntity
  8
IMAGE
100
AcDbVertex
100
AcDb2dVertex
 10
-0.0648121597225817
 20
1.771061751316891
 30
0.0
 70
     8
  0
VERTEX
  5
7B0
330
755
100
AcDbEntity
  8
IMAGE
100
AcDbVertex
100
AcDb2dVertex
 10
-0.057777581328005
 20
1.766000274996239
 30
0.0
 70
     8
  0
VERTEX
  5
7B1
330
755
100
AcDbEntity
  8
IMAGE
100
AcDbVertex
100
AcDb2dVertex
 10
-0.0502545382358806
 20
1.761378927337633
 30
0.0
 70
     8
  0
VERTEX
  5
7B2
330
755
100
AcDbEntity
  8
IMAGE
100
AcDbVertex
100
AcDb2dVertex
 10
-0.0421398336110501
 20
1.757197708278154
 30
0.0
 70
     8
  0
VERTEX
  5
7B3
330
755
100
AcDbEntity
  8
IMAGE
100
AcDbVertex
100
AcDb2dVertex
 10
-0.0333302706183547
 20
1.75345661775488
 30
0.0
 70
     8
  0
VERTEX
  5
7B4
330
755
100
AcDbEntity
  8
IMAGE
100
AcDbVertex
100
AcDb2dVertex
 10
-0.0237226524226344
 20
1.750155655704888
 30
0.0
 70
     8
  0
VERTEX
  5
7B5
330
755
100
AcDbEntity
  8
IMAGE
100
AcDbVertex
100
AcDb2dVertex
 10
-0.0132137821887284
 20
1.747294822065257
 30
0.0
 70
     8
  0
VERTEX
  5
7B6
330
755
100
AcDbEntity
  8
IMAGE
100
AcDbVertex
100
AcDb2dVertex
 10
-0.0017004630814785
 20
1.744874116773067
 30
0.0
 70
     8
  0
VERTEX
  5
7B7
330
755
100
AcDbEntity
  8
IMAGE
100
AcDbVertex
100
AcDb2dVertex
 10
0.010920501734276
 20
1.742893539765396
 30
0.0
 70
     8
  0
VERTEX
  5
7B8
330
755
100
AcDbEntity
  8
IMAGE
100
AcDbVertex
100
AcDb2dVertex
 10
0.0246995640599543
 20
1.741357675664025
 30
0.0
 70
     8
  0
VERTEX
  5
7B9
330
755
100
AcDbEntity
  8
IMAGE
100
AcDbVertex
100
AcDb2dVertex
 10
0.0394761955620258
 20
1.740289447829562
 30
0.0
 70
     8
  0
VERTEX
  5
7BA
330
755
100
AcDbEntity
  8
IMAGE
100
AcDbVertex
100
AcDb2dVertex
 10
0.0550371228732205
 20
1.739716364307317
 30
0.0
 70
     8
  0
VERTEX
  5
7BB
330
755
100
AcDbEntity
  8
IMAGE
100
AcDbVertex
100
AcDb2dVertex
 10
0.0711690726262679
 20
1.7396659331426
 30
0.0
 70
     8
  0
VERTEX
  5
7BC
330
755
100
AcDbEntity
  8
IMAGE
100
AcDbVertex
100
AcDb2dVertex
 10
0.0876587714538992
 20
1.740165662380723
 30
0.0
 70
     8
  0
VERTEX
  5
7BD
330
755
100
AcDbEntity
  8
IMAGE
100
AcDbVertex
100
AcDb2dVertex
 10
0.104292945988842
 20
1.741243060066996
 30
0.0
 70
     8
  0
VERTEX
  5
7BE
330
755
100
AcDbEntity
  8
IMAGE
100
AcDbVertex
100
AcDb2dVertex
 10
0.1208583228638274
 20
1.742925634246728
 30
0.0
 70
     8
  0
VERTEX
  5
7BF
330
755
100
AcDbEntity
  8
IMAGE
100
AcDbVertex
100
AcDb2dVertex
 10
0.1371416287115856
 20
1.74524089296523
 30
0.0
 70
     8
  0
VERTEX
  5
7C0
330
755
100
AcDbEntity
  8
IMAGE
100
AcDbVertex
100
AcDb2dVertex
 10
0.1529422031008174
 20
1.748201444087092
 30
0.0
 70
     8
  0
VERTEX
  5
7C1
330
755
100
AcDbEntity
  8
IMAGE
100
AcDbVertex
100
AcDb2dVertex
 10
0.1681098373441063
 20
1.751760294754008
 30
0.0
 70
     8
  0
VERTEX
  5
7C2
330
755
100
AcDbEntity
  8
IMAGE
100
AcDbVertex
100
AcDb2dVertex
 10
0.1825069356900109
 20
1.755855551926949
 30
0.0
 70
     8
  0
VERTEX
  5
7C3
330
755
100
AcDbEntity
  8
IMAGE
100
AcDbVertex
100
AcDb2dVertex
 10
0.1959959023870841
 20
1.760425322566891
 30
0.0
 70
     8
  0
VERTEX
  5
7C4
330
755
100
AcDbEntity
  8
IMAGE
100
AcDbVertex
100
AcDb2dVertex
 10
0.2084391416838844
 20
1.765407713634806
 30
0.0
 70
     8
  0
VERTEX
  5
7C5
330
755
100
AcDbEntity
  8
IMAGE
100
AcDbVertex
100
AcDb2dVertex
 10
0.2196990578289659
 20
1.770740832091666
 30
0.0
 70
     8
  0
VERTEX
  5
7C6
330
755
100
AcDbEntity
  8
IMAGE
100
AcDbVertex
100
AcDb2dVertex
 10
0.2296380550708852
 20
1.776362784898442
 30
0.0
 70
     8
  0
VERTEX
  5
7C7
330
755
100
AcDbEntity
  8
IMAGE
100
AcDbVertex
100
AcDb2dVertex
 10
0.238118537658198
 20
1.782211679016111
 30
0.0
 70
     8
  0
VERTEX
  5
7C8
330
755
100
AcDbEntity
  8
IMAGE
100
AcDbVertex
100
AcDb2dVertex
 10
0.2450522149815706
 20
1.788246252423895
 30
0.0
 70
     8
  0
VERTEX
  5
7C9
330
755
100
AcDbEntity
  8
IMAGE
100
AcDbVertex
100
AcDb2dVertex
 10
0.2505480170001082
 20
1.79450776717403
 30
0.0
 70
     8
  0
VERTEX
  5
7CA
330
755
100
AcDbEntity
  8
IMAGE
100
AcDbVertex
100
AcDb2dVertex
 10
0.2547641788150248
 20
1.801058116337006
 30
0.0
 70
     8
  0
VERTEX
  5
7CB
330
755
100
AcDbEntity
  8
IMAGE
100
AcDbVertex
100
AcDb2dVertex
 10
0.2578589355275351
 20
1.807959192983308
 30
0.0
 70
     8
  0
VERTEX
  5
7CC
330
755
100
AcDbEntity
  8
IMAGE
100
AcDbVertex
100
AcDb2dVertex
 10
0.2599905222388541
 20
1.815272890183426
 30
0.0
 70
     8
  0
VERTEX
  5
7CD
330
755
100
AcDbEntity
  8
IMAGE
100
AcDbVertex
100
AcDb2dVertex
 10
0.2613171740501974
 20
1.823061101007847
 30
0.0
 70
     8
  0
VERTEX
  5
7CE
330
755
100
AcDbEntity
  8
IMAGE
100
AcDbVertex
100
AcDb2dVertex
 10
0.2619971260627789
 20
1.83138571852706
 30
0.0
 70
     8
  0
VERTEX
  5
7CF
330
755
100
AcDbEntity
  8
IMAGE
100
AcDbVertex
100
AcDb2dVertex
 10
0.2621886133778144
 20
1.840308635811553
 30
0.0
 70
     8
  0
VERTEX
  5
7D0
330
755
100
AcDbEntity
  8
IMAGE
100
AcDbVertex
100
AcDb2dVertex
 10
0.2618853184514016
 20
1.849938690959249
 30
0.0
 70
     8
  0
VERTEX
  5
7D1
330
755
100
AcDbEntity
  8
IMAGE
100
AcDbVertex
100
AcDb2dVertex
 10
0.2604227131591781
 20
1.860572502177814
 30
0.0
 70
     8
  0
VERTEX
  5
7D2
330
755
100
AcDbEntity
  8
IMAGE
100
AcDbVertex
100
AcDb2dVertex
 10
0.2569717167316643
 20
1.872553632702352
 30
0.0
 70
     8
  0
VERTEX
  5
7D3
330
755
100
AcDbEntity
  8
IMAGE
100
AcDbVertex
100
AcDb2dVertex
 10
0.2507032483993798
 20
1.886225645767965
 30
0.0
 70
     8
  0
VERTEX
  5
7D4
330
755
100
AcDbEntity
  8
IMAGE
100
AcDbVertex
100
AcDb2dVertex
 10
0.2407882273928461
 20
1.901932104609755
 30
0.0
 70
     8
  0
VERTEX
  5
7D5
330
755
100
AcDbEntity
  8
IMAGE
100
AcDbVertex
100
AcDb2dVertex
 10
0.2263975729425844
 20
1.920016572462823
 30
0.0
 70
     8
  0
VERTEX
  5
7D6
330
755
100
AcDbEntity
  8
IMAGE
100
AcDbVertex
100
AcDb2dVertex
 10
0.2067022042791144
 20
1.940822612562273
 30
0.0
 70
     8
  0
VERTEX
  5
7D7
330
755
100
AcDbEntity
  8
IMAGE
100
AcDbVertex
100
AcDb2dVertex
 10
0.1808730406329584
 20
1.964693788143207
 30
0.0
 70
     8
  0
VERTEX
  5
7D8
330
755
100
AcDbEntity
  8
IMAGE
100
AcDbVertex
100
AcDb2dVertex
 10
-0.1464156063824937
 20
3.449418290508423
 30
0.0
 70
    16
  0
VERTEX
  5
7D9
330
755
100
AcDbEntity
  8
IMAGE
100
AcDbVertex
100
AcDb2dVertex
 10
-0.1569829534651115
 20
3.308577195165794
 30
0.0
 70
    16
  0
VERTEX
  5
7DA
330
755
100
AcDbEntity
  8
IMAGE
100
AcDbVertex
100
AcDb2dVertex
 10
-0.1781176476303461
 20
3.16773606760733
 30
0.0
 70
    16
  0
VERTEX
  5
7DB
330
755
100
AcDbEntity
  8
IMAGE
100
AcDbVertex
100
AcDb2dVertex
 10
-0.1640278515201894
 20
2.938869291702542
 30
0.0
 70
    16
  0
VERTEX
  5
7DC
330
755
100
AcDbEntity
  8
IMAGE
100
AcDbVertex
100
AcDb2dVertex
 10
-0.1499380554100327
 20
2.713523513381669
 30
0.0
 70
    16
  0
VERTEX
  5
7DD
330
755
100
AcDbEntity
  8
IMAGE
100
AcDbVertex
100
AcDb2dVertex
 10
-0.1605054024926504
 20
2.555077269040275
 30
0.0
 70
    16
  0
VERTEX
  5
7DE
330
755
100
AcDbEntity
  8
IMAGE
100
AcDbVertex
100
AcDb2dVertex
 10
-0.1605054024926504
 20
2.375504845900359
 30
0.0
 70
    16
  0
VERTEX
  5
7DF
330
755
100
AcDbEntity
  8
IMAGE
100
AcDbVertex
100
AcDb2dVertex
 10
-0.1851625456854249
 20
2.13255391858072
 30
0.0
 70
    16
  0
VERTEX
  5
7E0
330
755
100
AcDbEntity
  8
IMAGE
100
AcDbVertex
100
AcDb2dVertex
 10
-0.1710727495752682
 20
2.016359999620531
 30
0.0
 70
    16
  0
VERTEX
  5
7E1
330
755
100
AcDbEntity
  8
IMAGE
100
AcDbVertex
100
AcDb2dVertex
 10
-0.1569829534651115
 20
1.956502557456396
 30
0.0
 70
    16
  0
VERTEX
  5
7E2
330
755
100
AcDbEntity
  8
IMAGE
100
AcDbVertex
100
AcDb2dVertex
 10
-0.1111910719185145
 20
1.822703489497438
 30
0.0
 70
    16
  0
VERTEX
  5
7E3
330
755
100
AcDbEntity
  8
IMAGE
100
AcDbVertex
100
AcDb2dVertex
 10
-0.0689216835880444
 20
1.766367044917221
 30
0.0
 70
    16
  0
VERTEX
  5
7E4
330
755
100
AcDbEntity
  8
IMAGE
100
AcDbVertex
100
AcDb2dVertex
 10
-0.0019951520647989
 20
1.73819883873503
 30
0.0
 70
    16
  0
VERTEX
  5
7E5
330
755
100
AcDbEntity
  8
IMAGE
100
AcDbVertex
100
AcDb2dVertex
 10
0.1424253022528941
 20
1.73819883873503
 30
0.0
 70
    16
  0
VERTEX
  5
7E6
330
755
100
AcDbEntity
  8
IMAGE
100
AcDbVertex
100
AcDb2dVertex
 10
0.2551437153227356
 20
1.780451164116234
 30
0.0
 70
    16
  0
VERTEX
  5
7E7
330
755
100
AcDbEntity
  8
IMAGE
100
AcDbVertex
100
AcDb2dVertex
 10
0.2657110624053534
 20
1.8332665788967
 30
0.0
 70
    16
  0
VERTEX
  5
7E8
330
755
100
AcDbEntity
  8
IMAGE
100
AcDbVertex
100
AcDb2dVertex
 10
0.2586661643502754
 20
1.896645083076424
 30
0.0
 70
    16
  0
VERTEX
  5
7E9
330
755
100
AcDbEntity
  8
IMAGE
100
AcDbVertex
100
AcDb2dVertex
 10
0.1808730406329584
 20
1.964693788143207
 30
0.0
 70
    16
  0
SEQEND
  5
7EA
330
755
100
AcDbEntity
  8
IMAGE
  0
POLYLINE
  5
7EB
330
1E
100
AcDbEntity
  8
IMAGE
100
AcDb2dPolyline
 66
     1
 10
0.0
 20
0.0
 30
0.0
 70
     4
 40
0.0234375
 41
0.0234375
 75
     6
  0
VERTEX
  5
7EC
330
7EB
100
AcDbEntity
  8
IMAGE
100
AcDbVertex
100
AcDb2dVertex
 10
0.9646887492945142
 20
1.611794345351095
 30
0.0
 70
    16
  0
VERTEX
  5
7ED
330
7EB
100
AcDbEntity
  8
IMAGE
100
AcDbVertex
100
AcDb2dVertex
 10
0.9646887492945142
 20
1.611794345351096
 30
0.0
 70
     8
  0
VERTEX
  5
7EE
330
7EB
100
AcDbEntity
  8
IMAGE
100
AcDbVertex
100
AcDb2dVertex
 10
0.9403927024102785
 20
1.630900869551551
 30
0.0
 70
     8
  0
VERTEX
  5
7EF
330
7EB
100
AcDbEntity
  8
IMAGE
100
AcDbVertex
100
AcDb2dVertex
 10
0.9175757760805609
 20
1.646871654064479
 30
0.0
 70
     8
  0
VERTEX
  5
7F0
330
7EB
100
AcDbEntity
  8
IMAGE
100
AcDbVertex
100
AcDb2dVertex
 10
0.8960915064269379
 20
1.660177536779686
 30
0.0
 70
     8
  0
VERTEX
  5
7F1
330
7EB
100
AcDbEntity
  8
IMAGE
100
AcDbVertex
100
AcDb2dVertex
 10
0.8757934295709866
 20
1.671289355586976
 30
0.0
 70
     8
  0
VERTEX
  5
7F2
330
7EB
100
AcDbEntity
  8
IMAGE
100
AcDbVertex
100
AcDb2dVertex
 10
0.8565350816342842
 20
1.680677948376154
 30
0.0
 70
     8
  0
VERTEX
  5
7F3
330
7EB
100
AcDbEntity
  8
IMAGE
100
AcDbVertex
100
AcDb2dVertex
 10
0.8381699987384081
 20
1.688814153037023
 30
0.0
 70
     8
  0
VERTEX
  5
7F4
330
7EB
100
AcDbEntity
  8
IMAGE
100
AcDbVertex
100
AcDb2dVertex
 10
0.8205517170049354
 20
1.696168807459389
 30
0.0
 70
     8
  0
VERTEX
  5
7F5
330
7EB
100
AcDbEntity
  8
IMAGE
100
AcDbVertex
100
AcDb2dVertex
 10
0.8035337725554434
 20
1.703212749533054
 30
0.0
 70
     8
  0
VERTEX
  5
7F6
330
7EB
100
AcDbEntity
  8
IMAGE
100
AcDbVertex
100
AcDb2dVertex
 10
0.786976869417396
 20
1.710328336309385
 30
0.0
 70
     8
  0
VERTEX
  5
7F7
330
7EB
100
AcDbEntity
  8
IMAGE
100
AcDbVertex
100
AcDb2dVertex
 10
0.7707703832417981
 20
1.717544001485986
 30
0.0
 70
     8
  0
VERTEX
  5
7F8
330
7EB
100
AcDbEntity
  8
IMAGE
100
AcDbVertex
100
AcDb2dVertex
 10
0.7548108575855404
 20
1.724799697922019
 30
0.0
 70
     8
  0
VERTEX
  5
7F9
330
7EB
100
AcDbEntity
  8
IMAGE
100
AcDbVertex
100
AcDb2dVertex
 10
0.7389948360055154
 20
1.73203537847665
 30
0.0
 70
     8
  0
VERTEX
  5
7FA
330
7EB
100
AcDbEntity
  8
IMAGE
100
AcDbVertex
100
AcDb2dVertex
 10
0.7232188620586158
 20
1.739190996009043
 30
0.0
 70
     8
  0
VERTEX
  5
7FB
330
7EB
100
AcDbEntity
  8
IMAGE
100
AcDbVertex
100
AcDb2dVertex
 10
0.7073794793017312
 20
1.746206503378359
 30
0.0
 70
     8
  0
VERTEX
  5
7FC
330
7EB
100
AcDbEntity
  8
IMAGE
100
AcDbVertex
100
AcDb2dVertex
 10
0.6913732312917542
 20
1.753021853443766
 30
0.0
 70
     8
  0
VERTEX
  5
7FD
330
7EB
100
AcDbEntity
  8
IMAGE
100
AcDbVertex
100
AcDb2dVertex
 10
0.6750966615855756
 20
1.759576999064426
 30
0.0
 70
     8
  0
VERTEX
  5
7FE
330
7EB
100
AcDbEntity
  8
IMAGE
100
AcDbVertex
100
AcDb2dVertex
 10
0.6584769057060332
 20
1.765838580736878
 30
0.0
 70
     8
  0
VERTEX
  5
7FF
330
7EB
100
AcDbEntity
  8
IMAGE
100
AcDbVertex
100
AcDb2dVertex
 10
0.6415634670397355
 20
1.771879989507165
 30
0.0
 70
     8
  0
VERTEX
  5
800
330
7EB
100
AcDbEntity
  8
IMAGE
100
AcDbVertex
100
AcDb2dVertex
 10
0.6244364409392365
 20
1.7778013040587
 30
0.0
 70
     8
  0
VERTEX
  5
801
330
7EB
100
AcDbEntity
  8
IMAGE
100
AcDbVertex
100
AcDb2dVertex
 10
0.6071759227570928
 20
1.783702603074901
 30
0.0
 70
     8
  0
VERTEX
  5
802
330
7EB
100
AcDbEntity
  8
IMAGE
100
AcDbVertex
100
AcDb2dVertex
 10
0.5898620078458574
 20
1.789683965239184
 30
0.0
 70
     8
  0
VERTEX
  5
803
330
7EB
100
AcDbEntity
  8
IMAGE
100
AcDbVertex
100
AcDb2dVertex
 10
0.5725747915580853
 20
1.795845469234966
 30
0.0
 70
     8
  0
VERTEX
  5
804
330
7EB
100
AcDbEntity
  8
IMAGE
100
AcDbVertex
100
AcDb2dVertex
 10
0.555394369246331
 20
1.802287193745661
 30
0.0
 70
     8
  0
VERTEX
  5
805
330
7EB
100
AcDbEntity
  8
IMAGE
100
AcDbVertex
100
AcDb2dVertex
 10
0.5384008362631488
 20
1.809109217454687
 30
0.0
 70
     8
  0
VERTEX
  5
806
330
7EB
100
AcDbEntity
  8
IMAGE
100
AcDbVertex
100
AcDb2dVertex
 10
0.5216831873727888
 20
1.816412730984688
 30
0.0
 70
     8
  0
VERTEX
  5
807
330
7EB
100
AcDbEntity
  8
IMAGE
100
AcDbVertex
100
AcDb2dVertex
 10
0.5053660149862829
 20
1.824303372715224
 30
0.0
 70
     8
  0
VERTEX
  5
808
330
7EB
100
AcDbEntity
  8
IMAGE
100
AcDbVertex
100
AcDb2dVertex
 10
0.4895828109263612
 20
1.832887892965086
 30
0.0
 70
     8
  0
VERTEX
  5
809
330
7EB
100
AcDbEntity
  8
IMAGE
100
AcDbVertex
100
AcDb2dVertex
 10
0.4744670670157501
 20
1.842273042053061
 30
0.0
 70
     8
  0
VERTEX
  5
80A
330
7EB
100
AcDbEntity
  8
IMAGE
100
AcDbVertex
100
AcDb2dVertex
 10
0.4601522750771796
 20
1.852565570297938
 30
0.0
 70
     8
  0
VERTEX
  5
80B
330
7EB
100
AcDbEntity
  8
IMAGE
100
AcDbVertex
100
AcDb2dVertex
 10
0.4467719269333781
 20
1.863872228018507
 30
0.0
 70
     8
  0
VERTEX
  5
80C
330
7EB
100
AcDbEntity
  8
IMAGE
100
AcDbVertex
100
AcDb2dVertex
 10
0.434459514407072
 20
1.876299765533557
 30
0.0
 70
     8
  0
VERTEX
  5
80D
330
7EB
100
AcDbEntity
  8
IMAGE
100
AcDbVertex
100
AcDb2dVertex
 10
0.4233485293209905
 20
1.889954933161877
 30
0.0
 70
     8
  0
VERTEX
  5
80E
330
7EB
100
AcDbEntity
  8
IMAGE
100
AcDbVertex
100
AcDb2dVertex
 10
0.4135335283900919
 20
1.904874426261317
 30
0.0
 70
     8
  0
VERTEX
  5
80F
330
7EB
100
AcDbEntity
  8
IMAGE
100
AcDbVertex
100
AcDb2dVertex
 10
0.4049533278982534
 20
1.920814720345979
 30
0.0
 70
     8
  0
VERTEX
  5
810
330
7EB
100
AcDbEntity
  8
IMAGE
100
AcDbVertex
100
AcDb2dVertex
 10
0.3975078090215813
 20
1.937462235969027
 30
0.0
 70
     8
  0
VERTEX
  5
811
330
7EB
100
AcDbEntity
  8
IMAGE
100
AcDbVertex
100
AcDb2dVertex
 10
0.3910968529361822
 20
1.95450339368362
 30
0.0
 70
     8
  0
VERTEX
  5
812
330
7EB
100
AcDbEntity
  8
IMAGE
100
AcDbVertex
100
AcDb2dVertex
 10
0.3856203408181624
 20
1.971624614042923
 30
0.0
 70
     8
  0
VERTEX
  5
813
330
7EB
100
AcDbEntity
  8
IMAGE
100
AcDbVertex
100
AcDb2dVertex
 10
0.3809781538436301
 20
1.988512317600098
 30
0.0
 70
     8
  0
VERTEX
  5
814
330
7EB
100
AcDbEntity
  8
IMAGE
100
AcDbVertex
100
AcDb2dVertex
 10
0.3770701731886907
 20
2.004852924908308
 30
0.0
 70
     8
  0
VERTEX
  5
815
330
7EB
100
AcDbEntity
  8
IMAGE
100
AcDbVertex
100
AcDb2dVertex
 10
0.3737962800294508
 20
2.020332856520715
 30
0.0
 70
     8
  0
VERTEX
  5
816
330
7EB
100
AcDbEntity
  8
IMAGE
100
AcDbVertex
100
AcDb2dVertex
 10
0.3710608052262891
 20
2.034718595834443
 30
0.0
 70
     8
  0
VERTEX
  5
817
330
7EB
100
AcDbEntity
  8
IMAGE
100
AcDbVertex
100
AcDb2dVertex
 10
0.3687858783766691
 20
2.04809687762246
 30
0.0
 70
     8
  0
VERTEX
  5
818
330
7EB
100
AcDbEntity
  8
IMAGE
100
AcDbVertex
100
AcDb2dVertex
 10
0.3668980787623255
 20
2.060634499501695
 30
0.0
 70
     8
  0
VERTEX
  5
819
330
7EB
100
AcDbEntity
  8
IMAGE
100
AcDbVertex
100
AcDb2dVertex
 10
0.3653239856649915
 20
2.072498259089076
 30
0.0
 70
     8
  0
VERTEX
  5
81A
330
7EB
100
AcDbEntity
  8
IMAGE
100
AcDbVertex
100
AcDb2dVertex
 10
0.3639901783664055
 20
2.083854954001535
 30
0.0
 70
     8
  0
VERTEX
  5
81B
330
7EB
100
AcDbEntity
  8
IMAGE
100
AcDbVertex
100
AcDb2dVertex
 10
0.3628232361482988
 20
2.094871381855997
 30
0.0
 70
     8
  0
VERTEX
  5
81C
330
7EB
100
AcDbEntity
  8
IMAGE
100
AcDbVertex
100
AcDb2dVertex
 10
0.3617497382924082
 20
2.105714340269393
 30
0.0
 70
     8
  0
VERTEX
  5
81D
330
7EB
100
AcDbEntity
  8
IMAGE
100
AcDbVertex
100
AcDb2dVertex
 10
0.3606962640804685
 20
2.11655062685865
 30
0.0
 70
     8
  0
VERTEX
  5
81E
330
7EB
100
AcDbEntity
  8
IMAGE
100
AcDbVertex
100
AcDb2dVertex
 10
0.3595905052620312
 20
2.127505895832299
 30
0.0
 70
     8
  0
VERTEX
  5
81F
330
7EB
100
AcDbEntity
  8
IMAGE
100
AcDbVertex
100
AcDb2dVertex
 10
0.3583646034579146
 20
2.138541227765265
 30
0.0
 70
     8
  0
VERTEX
  5
820
330
7EB
100
AcDbEntity
  8
IMAGE
100
AcDbVertex
100
AcDb2dVertex
 10
0.3569518127567548
 20
2.149576559824075
 30
0.0
 70
     8
  0
VERTEX
  5
821
330
7EB
100
AcDbEntity
  8
IMAGE
100
AcDbVertex
100
AcDb2dVertex
 10
0.3552853872471875
 20
2.160531829175253
 30
0.0
 70
     8
  0
VERTEX
  5
822
330
7EB
100
AcDbEntity
  8
IMAGE
100
AcDbVertex
100
AcDb2dVertex
 10
0.3532985810178495
 20
2.171326972985327
 30
0.0
 70
     8
  0
VERTEX
  5
823
330
7EB
100
AcDbEntity
  8
IMAGE
100
AcDbVertex
100
AcDb2dVertex
 10
0.3509246481573758
 20
2.18188192842082
 30
0.0
 70
     8
  0
VERTEX
  5
824
330
7EB
100
AcDbEntity
  8
IMAGE
100
AcDbVertex
100
AcDb2dVertex
 10
0.3480968427544031
 20
2.192116632648261
 30
0.0
 70
     8
  0
VERTEX
  5
825
330
7EB
100
AcDbEntity
  8
IMAGE
100
AcDbVertex
100
AcDb2dVertex
 10
0.3447484188975665
 20
2.201951022834173
 30
0.0
 70
     8
  0
VERTEX
  5
826
330
7EB
100
AcDbEntity
  8
IMAGE
100
AcDbVertex
100
AcDb2dVertex
 10
0.3407970565719793
 20
2.211319491921354
 30
0.0
 70
     8
  0
VERTEX
  5
827
330
7EB
100
AcDbEntity
  8
IMAGE
100
AcDbVertex
100
AcDb2dVertex
 10
0.3360981393486675
 20
2.22021425595767
 30
0.0
 70
     8
  0
VERTEX
  5
828
330
7EB
100
AcDbEntity
  8
IMAGE
100
AcDbVertex
100
AcDb2dVertex
 10
0.3304914766951335
 20
2.228641986767258
 30
0.0
 70
     8
  0
VERTEX
  5
829
330
7EB
100
AcDbEntity
  8
IMAGE
100
AcDbVertex
100
AcDb2dVertex
 10
0.3238168780788788
 20
2.23660935617426
 30
0.0
 70
     8
  0
VERTEX
  5
82A
330
7EB
100
AcDbEntity
  8
IMAGE
100
AcDbVertex
100
AcDb2dVertex
 10
0.315914152967407
 20
2.244123036002807
 30
0.0
 70
     8
  0
VERTEX
  5
82B
330
7EB
100
AcDbEntity
  8
IMAGE
100
AcDbVertex
100
AcDb2dVertex
 10
0.3066231108282214
 20
2.251189698077044
 30
0.0
 70
     8
  0
VERTEX
  5
82C
330
7EB
100
AcDbEntity
  8
IMAGE
100
AcDbVertex
100
AcDb2dVertex
 10
0.2957835611288244
 20
2.257816014221103
 30
0.0
 70
     8
  0
VERTEX
  5
82D
330
7EB
100
AcDbEntity
  8
IMAGE
100
AcDbVertex
100
AcDb2dVertex
 10
0.2832353133367178
 20
2.264008656259123
 30
0.0
 70
     8
  0
VERTEX
  5
82E
330
7EB
100
AcDbEntity
  8
IMAGE
100
AcDbVertex
100
AcDb2dVertex
 10
0.2688982721568847
 20
2.269779855952586
 30
0.0
 70
     8
  0
VERTEX
  5
82F
330
7EB
100
AcDbEntity
  8
IMAGE
100
AcDbVertex
100
AcDb2dVertex
 10
0.253012723244229
 20
2.275164084812346
 30
0.0
 70
     8
  0
VERTEX
  5
830
330
7EB
100
AcDbEntity
  8
IMAGE
100
AcDbVertex
100
AcDb2dVertex
 10
0.2358990474911318
 20
2.2802013742866
 30
0.0
 70
     8
  0
VERTEX
  5
831
330
7EB
100
AcDbEntity
  8
IMAGE
100
AcDbVertex
100
AcDb2dVertex
 10
0.2178776257899777
 20
2.284931755823546
 30
0.0
 70
     8
  0
VERTEX
  5
832
330
7EB
100
AcDbEntity
  8
IMAGE
100
AcDbVertex
100
AcDb2dVertex
 10
0.1992688390331487
 20
2.289395260871383
 30
0.0
 70
     8
  0
VERTEX
  5
833
330
7EB
100
AcDbEntity
  8
IMAGE
100
AcDbVertex
100
AcDb2dVertex
 10
0.1803930681130286
 20
2.293631920878308
 30
0.0
 70
     8
  0
VERTEX
  5
834
330
7EB
100
AcDbEntity
  8
IMAGE
100
AcDbVertex
100
AcDb2dVertex
 10
0.1615706939220001
 20
2.29768176729252
 30
0.0
 70
     8
  0
VERTEX
  5
835
330
7EB
100
AcDbEntity
  8
IMAGE
100
AcDbVertex
100
AcDb2dVertex
 10
0.1431220973524443
 20
2.301584831562214
 30
0.0
 70
     8
  0
VERTEX
  5
836
330
7EB
100
AcDbEntity
  8
IMAGE
100
AcDbVertex
100
AcDb2dVertex
 10
0.1253087003148776
 20
2.305382257127254
 30
0.0
 70
     8
  0
VERTEX
  5
837
330
7EB
100
AcDbEntity
  8
IMAGE
100
AcDbVertex
100
AcDb2dVertex
 10
0.1081560887923327
 20
2.309119635394154
 30
0.0
 70
     8
  0
VERTEX
  5
838
330
7EB
100
AcDbEntity
  8
IMAGE
100
AcDbVertex
100
AcDb2dVertex
 10
0.091630889785975
 20
2.312843669761092
 30
0.0
 70
     8
  0
VERTEX
  5
839
330
7EB
100
AcDbEntity
  8
IMAGE
100
AcDbVertex
100
AcDb2dVertex
 10
0.0756997302969698
 20
2.316601063626248
 30
0.0
 70
     8
  0
VERTEX
  5
83A
330
7EB
100
AcDbEntity
  8
IMAGE
100
AcDbVertex
100
AcDb2dVertex
 10
0.0603292373264814
 20
2.3204385203878
 30
0.0
 70
     8
  0
VERTEX
  5
83B
330
7EB
100
AcDbEntity
  8
IMAGE
100
AcDbVertex
100
AcDb2dVertex
 10
0.0454860378756754
 20
2.324402743443926
 30
0.0
 70
     8
  0
VERTEX
  5
83C
330
7EB
100
AcDbEntity
  8
IMAGE
100
AcDbVertex
100
AcDb2dVertex
 10
0.031136758945717
 20
2.328540436192803
 30
0.0
 70
     8
  0
VERTEX
  5
83D
330
7EB
100
AcDbEntity
  8
IMAGE
100
AcDbVertex
100
AcDb2dVertex
 10
0.0172480275377698
 20
2.332898302032614
 30
0.0
 70
     8
  0
VERTEX
  5
83E
330
7EB
100
AcDbEntity
  8
IMAGE
100
AcDbVertex
100
AcDb2dVertex
 10
0.0038165063490752
 20
2.337526380294576
 30
0.0
 70
     8
  0
VERTEX
  5
83F
330
7EB
100
AcDbEntity
  8
IMAGE
100
AcDbVertex
100
AcDb2dVertex
 10
-0.0090409991388292
 20
2.342488054042081
 30
0.0
 70
     8
  0
VERTEX
  5
840
330
7EB
100
AcDbEntity
  8
IMAGE
100
AcDbVertex
100
AcDb2dVertex
 10
-0.0211776477483312
 20
2.347850042271566
 30
0.0
 70
     8
  0
VERTEX
  5
841
330
7EB
100
AcDbEntity
  8
IMAGE
100
AcDbVertex
100
AcDb2dVertex
 10
-0.0324465983018172
 20
2.353679063979463
 30
0.0
 70
     8
  0
VERTEX
  5
842
330
7EB
100
AcDbEntity
  8
IMAGE
100
AcDbVertex
100
AcDb2dVertex
 10
-0.0427010096216751
 20
2.360041838162207
 30
0.0
 70
     8
  0
VERTEX
  5
843
330
7EB
100
AcDbEntity
  8
IMAGE
100
AcDbVertex
100
AcDb2dVertex
 10
-0.0517940405302913
 20
2.367005083816233
 30
0.0
 70
     8
  0
VERTEX
  5
844
330
7EB
100
AcDbEntity
  8
IMAGE
100
AcDbVertex
100
AcDb2dVertex
 10
-0.0595788498500536
 20
2.374635519937974
 30
0.0
 70
     8
  0
VERTEX
  5
845
330
7EB
100
AcDbEntity
  8
IMAGE
100
AcDbVertex
100
AcDb2dVertex
 10
-0.0659085964033484
 20
2.382999865523864
 30
0.0
 70
     8
  0
VERTEX
  5
846
330
7EB
100
AcDbEntity
  8
IMAGE
100
AcDbVertex
100
AcDb2dVertex
 10
-0.0706887233745288
 20
2.392141487913199
 30
0.0
 70
     8
  0
VERTEX
  5
847
330
7EB
100
AcDbEntity
  8
IMAGE
100
AcDbVertex
100
AcDb2dVertex
 10
-0.0740338113958048
 20
2.402010347816702
 30
0.0
 70
     8
  0
VERTEX
  5
848
330
7EB
100
AcDbEntity
  8
IMAGE
100
AcDbVertex
100
AcDb2dVertex
 10
-0.0761107254613505
 20
2.412533054287959
 30
0.0
 70
     8
  0
VERTEX
  5
849
330
7EB
100
AcDbEntity
  8
IMAGE
100
AcDbVertex
100
AcDb2dVertex
 10
-0.0770863305653418
 20
2.423636216380556
 30
0.0
 70
     8
  0
VERTEX
  5
84A
330
7EB
100
AcDbEntity
  8
IMAGE
100
AcDbVertex
100
AcDb2dVertex
 10
-0.0771274917019529
 20
2.435246443148077
 30
0.0
 70
     8
  0
VERTEX
  5
84B
330
7EB
100
AcDbEntity
  8
IMAGE
100
AcDbVertex
100
AcDb2dVertex
 10
-0.0764010738653589
 20
2.447290343644108
 30
0.0
 70
     8
  0
VERTEX
  5
84C
330
7EB
100
AcDbEntity
  8
IMAGE
100
AcDbVertex
100
AcDb2dVertex
 10
-0.0750739420497348
 20
2.459694526922231
 30
0.0
 70
     8
  0
VERTEX
  5
84D
330
7EB
100
AcDbEntity
  8
IMAGE
100
AcDbVertex
100
AcDb2dVertex
 10
-0.0733129612492567
 20
2.472385602036035
 30
0.0
 70
     8
  0
VERTEX
  5
84E
330
7EB
100
AcDbEntity
  8
IMAGE
100
AcDbVertex
100
AcDb2dVertex
 10
-0.0712660850949689
 20
2.485319089644076
 30
0.0
 70
     8
  0
VERTEX
  5
84F
330
7EB
100
AcDbEntity
  8
IMAGE
100
AcDbVertex
100
AcDb2dVertex
 10
-0.0690056217653981
 20
2.498566156824796
 30
0.0
 70
     8
  0
VERTEX
  5
850
330
7EB
100
AcDbEntity
  8
IMAGE
100
AcDbVertex
100
AcDb2dVertex
 10
-0.0665849680759418
 20
2.512226882261614
 30
0.0
 70
     8
  0
VERTEX
  5
851
330
7EB
100
AcDbEntity
  8
IMAGE
100
AcDbVertex
100
AcDb2dVertex
 10
-0.0640575208419971
 20
2.526401344637943
 30
0.0
 70
     8
  0
VERTEX
  5
852
330
7EB
100
AcDbEntity
  8
IMAGE
100
AcDbVertex
100
AcDb2dVertex
 10
-0.0614766768789599
 20
2.541189622637204
 30
0.0
 70
     8
  0
VERTEX
  5
853
330
7EB
100
AcDbEntity
  8
IMAGE
100
AcDbVertex
100
AcDb2dVertex
 10
-0.0588958330022296
 20
2.556691794942807
 30
0.0
 70
     8
  0
VERTEX
  5
854
330
7EB
100
AcDbEntity
  8
IMAGE
100
AcDbVertex
100
AcDb2dVertex
 10
-0.0563683860272022
 20
2.573007940238173
 30
0.0
 70
     8
  0
VERTEX
  5
855
330
7EB
100
AcDbEntity
  8
IMAGE
100
AcDbVertex
100
AcDb2dVertex
 10
-0.0539477327692746
 20
2.590238137206714
 30
0.0
 70
     8
  0
VERTEX
  5
856
330
7EB
100
AcDbEntity
  8
IMAGE
100
AcDbVertex
100
AcDb2dVertex
 10
-0.051686157590412
 20
2.608447992968561
 30
0.0
 70
     8
  0
VERTEX
  5
857
330
7EB
100
AcDbEntity
  8
IMAGE
100
AcDbVertex
100
AcDb2dVertex
 10
-0.0496314950388488
 20
2.627565228390684
 30
0.0
 70
     8
  0
VERTEX
  5
858
330
7EB
100
AcDbEntity
  8
IMAGE
100
AcDbVertex
100
AcDb2dVertex
 10
-0.047830467209387
 20
2.647483092776762
 30
0.0
 70
     8
  0
VERTEX
  5
859
330
7EB
100
AcDbEntity
  8
IMAGE
100
AcDbVertex
100
AcDb2dVertex
 10
-0.0463297961968277
 20
2.66809483543048
 30
0.0
 70
     8
  0
VERTEX
  5
85A
330
7EB
100
AcDbEntity
  8
IMAGE
100
AcDbVertex
100
AcDb2dVertex
 10
-0.0451762040959753
 20
2.689293705655517
 30
0.0
 70
     8
  0
VERTEX
  5
85B
330
7EB
100
AcDbEntity
  8
IMAGE
100
AcDbVertex
100
AcDb2dVertex
 10
-0.0444164130016285
 20
2.710972952755555
 30
0.0
 70
     8
  0
VERTEX
  5
85C
330
7EB
100
AcDbEntity
  8
IMAGE
100
AcDbVertex
100
AcDb2dVertex
 10
-0.0440971450085916
 20
2.733025826034278
 30
0.0
 70
     8
  0
VERTEX
  5
85D
330
7EB
100
AcDbEntity
  8
IMAGE
100
AcDbVertex
100
AcDb2dVertex
 10
-0.0442651222116659
 20
2.755345574795364
 30
0.0
 70
     8
  0
VERTEX
  5
85E
330
7EB
100
AcDbEntity
  8
IMAGE
100
AcDbVertex
100
AcDb2dVertex
 10
-0.0449425932192043
 20
2.777821000470226
 30
0.0
 70
     8
  0
VERTEX
  5
85F
330
7EB
100
AcDbEntity
  8
IMAGE
100
AcDbVertex
100
AcDb2dVertex
 10
-0.046053912693762
 20
2.800323113001188
 30
0.0
 70
     8
  0
VERTEX
  5
860
330
7EB
100
AcDbEntity
  8
IMAGE
100
AcDbVertex
100
AcDb2dVertex
 10
-0.0474989618114474
 20
2.822718474458302
 30
0.0
 70
     8
  0
VERTEX
  5
861
330
7EB
100
AcDbEntity
  8
IMAGE
100
AcDbVertex
100
AcDb2dVertex
 10
-0.0491776217483651
 20
2.84487364691162
 30
0.0
 70
     8
  0
VERTEX
  5
862
330
7EB
100
AcDbEntity
  8
IMAGE
100
AcDbVertex
100
AcDb2dVertex
 10
-0.0509897736806231
 20
2.866655192431197
 30
0.0
 70
     8
  0
VERTEX
  5
863
330
7EB
100
AcDbEntity
  8
IMAGE
100
AcDbVertex
100
AcDb2dVertex
 10
-0.0528352987843279
 20
2.887929673087084
 30
0.0
 70
     8
  0
VERTEX
  5
864
330
7EB
100
AcDbEntity
  8
IMAGE
100
AcDbVertex
100
AcDb2dVertex
 10
-0.0546140782355869
 20
2.908563650949336
 30
0.0
 70
     8
  0
VERTEX
  5
865
330
7EB
100
AcDbEntity
  8
IMAGE
100
AcDbVertex
100
AcDb2dVertex
 10
-0.0562259932105045
 20
2.928423688088005
 30
0.0
 70
     8
  0
VERTEX
  5
866
330
7EB
100
AcDbEntity
  8
IMAGE
100
AcDbVertex
100
AcDb2dVertex
 10
-0.0575887237661181
 20
2.947418601941746
 30
0.0
 70
     8
  0
VERTEX
  5
867
330
7EB
100
AcDbEntity
  8
IMAGE
100
AcDbVertex
100
AcDb2dVertex
 10
-0.0586911454831753
 20
2.96562623142363
 30
0.0
 70
     8
  0
VERTEX
  5
868
330
7EB
100
AcDbEntity
  8
IMAGE
100
AcDbVertex
100
AcDb2dVertex
 10
-0.0595399328233555
 20
2.983166670815327
 30
0.0
 70
     8
  0
VERTEX
  5
869
330
7EB
100
AcDbEntity
  8
IMAGE
100
AcDbVertex
100
AcDb2dVertex
 10
-0.0601417602483352
 20
3.00016001439851
 30
0.0
 70
     8
  0
VERTEX
  5
86A
330
7EB
100
AcDbEntity
  8
IMAGE
100
AcDbVertex
100
AcDb2dVertex
 10
-0.0605033022197912
 20
3.016726356454849
 30
0.0
 70
     8
  0
VERTEX
  5
86B
330
7EB
100
AcDbEntity
  8
IMAGE
100
AcDbVertex
100
AcDb2dVertex
 10
-0.0606312331994037
 20
3.032985791266019
 30
0.0
 70
     8
  0
VERTEX
  5
86C
330
7EB
100
AcDbEntity
  8
IMAGE
100
AcDbVertex
100
AcDb2dVertex
 10
-0.0605322276488476
 20
3.04905841311369
 30
0.0
 70
     8
  0
VERTEX
  5
86D
330
7EB
100
AcDbEntity
  8
IMAGE
100
AcDbVertex
100
AcDb2dVertex
 10
-0.0602129600298032
 20
3.065064316279535
 30
0.0
 70
     8
  0
VERTEX
  5
86E
330
7EB
100
AcDbEntity
  8
IMAGE
100
AcDbVertex
100
AcDb2dVertex
 10
-0.0596890043019478
 20
3.081108027245832
 30
0.0
 70
     8
  0
VERTEX
  5
86F
330
7EB
100
AcDbEntity
  8
IMAGE
100
AcDbVertex
100
AcDb2dVertex
 10
-0.0590115324169673
 20
3.09723180129729
 30
0.0
 70
     8
  0
VERTEX
  5
870
330
7EB
100
AcDbEntity
  8
IMAGE
100
AcDbVertex
100
AcDb2dVertex
 10
-0.0582406158245465
 20
3.113462325919223
 30
0.0
 70
     8
  0
VERTEX
  5
871
330
7EB
100
AcDbEntity
  8
IMAGE
100
AcDbVertex
100
AcDb2dVertex
 10
-0.0574363259743747
 20
3.129826288596946
 30
0.0
 70
     8
  0
VERTEX
  5
872
330
7EB
100
AcDbEntity
  8
IMAGE
100
AcDbVertex
100
AcDb2dVertex
 10
-0.0566587343161365
 20
3.146350376815775
 30
0.0
 70
     8
  0
VERTEX
  5
873
330
7EB
100
AcDbEntity
  8
IMAGE
100
AcDbVertex
100
AcDb2dVertex
 10
-0.0559679122995185
 20
3.163061278061022
 30
0.0
 70
     8
  0
VERTEX
  5
874
330
7EB
100
AcDbEntity
  8
IMAGE
100
AcDbVertex
100
AcDb2dVertex
 10
-0.0554239313742073
 20
3.179985679818006
 30
0.0
 70
     8
  0
VERTEX
  5
875
330
7EB
100
AcDbEntity
  8
IMAGE
100
AcDbVertex
100
AcDb2dVertex
 10
-0.0550868629898895
 20
3.197150269572039
 30
0.0
 70
     8
  0
VERTEX
  5
876
330
7EB
100
AcDbEntity
  8
IMAGE
100
AcDbVertex
100
AcDb2dVertex
 10
-0.0549923050666497
 20
3.214580622869209
 30
0.0
 70
     8
  0
VERTEX
  5
877
330
7EB
100
AcDbEntity
  8
IMAGE
100
AcDbVertex
100
AcDb2dVertex
 10
-0.0550779614061643
 20
3.232297867498685
 30
0.0
 70
     8
  0
VERTEX
  5
878
330
7EB
100
AcDbEntity
  8
IMAGE
100
AcDbVertex
100
AcDb2dVertex
 10
-0.0552570622805053
 20
3.25032201931041
 30
0.0
 70
     8
  0
VERTEX
  5
879
330
7EB
100
AcDbEntity
  8
IMAGE
100
AcDbVertex
100
AcDb2dVertex
 10
-0.0554428379617473
 20
3.268673094154325
 30
0.0
 70
     8
  0
VERTEX
  5
87A
330
7EB
100
AcDbEntity
  8
IMAGE
100
AcDbVertex
100
AcDb2dVertex
 10
-0.055548518721964
 20
3.287371107880374
 30
0.0
 70
     8
  0
VERTEX
  5
87B
330
7EB
100
AcDbEntity
  8
IMAGE
100
AcDbVertex
100
AcDb2dVertex
 10
-0.055487334833229
 20
3.306436076338497
 30
0.0
 70
     8
  0
VERTEX
  5
87C
330
7EB
100
AcDbEntity
  8
IMAGE
100
AcDbVertex
100
AcDb2dVertex
 10
-0.0551725165676169
 20
3.325888015378639
 30
0.0
 70
     8
  0
VERTEX
  5
87D
330
7EB
100
AcDbEntity
  8
IMAGE
100
AcDbVertex
100
AcDb2dVertex
 10
-0.0545172941971997
 20
3.345746940850739
 30
0.0
 70
     8
  0
VERTEX
  5
87E
330
7EB
100
AcDbEntity
  8
IMAGE
100
AcDbVertex
100
AcDb2dVertex
 10
-0.0534720373401214
 20
3.3661399878919
 30
0.0
 70
     8
  0
VERTEX
  5
87F
330
7EB
100
AcDbEntity
  8
IMAGE
100
AcDbVertex
100
AcDb2dVertex
 10
-0.0521356729988032
 20
3.387622768787859
 30
0.0
 70
     8
  0
VERTEX
  5
880
330
7EB
100
AcDbEntity
  8
IMAGE
100
AcDbVertex
100
AcDb2dVertex
 10
-0.0506442675217347
 20
3.410858015111519
 30
0.0
 70
     8
  0
VERTEX
  5
881
330
7EB
100
AcDbEntity
  8
IMAGE
100
AcDbVertex
100
AcDb2dVertex
 10
-0.0491338872574048
 20
3.436508458435774
 30
0.0
 70
     8
  0
VERTEX
  5
882
330
7EB
100
AcDbEntity
  8
IMAGE
100
AcDbVertex
100
AcDb2dVertex
 10
-0.0477405985543049
 20
3.465236830333526
 30
0.0
 70
     8
  0
VERTEX
  5
883
330
7EB
100
AcDbEntity
  8
IMAGE
100
AcDbVertex
100
AcDb2dVertex
 10
-0.046600467760924
 20
3.497705862377673
 30
0.0
 70
     8
  0
VERTEX
  5
884
330
7EB
100
AcDbEntity
  8
IMAGE
100
AcDbVertex
100
AcDb2dVertex
 10
-0.0458495612257535
 20
3.534578286141113
 30
0.0
 70
     8
  0
VERTEX
  5
885
330
7EB
100
AcDbEntity
  8
IMAGE
100
AcDbVertex
100
AcDb2dVertex
 10
-0.0456239452972831
 20
3.576516833196744
 30
0.0
 70
     8
  0
VERTEX
  5
886
330
7EB
100
AcDbEntity
  8
IMAGE
100
AcDbVertex
100
AcDb2dVertex
 10
0.897796940083043
 20
1.667344585371057
 30
0.0
 70
    16
  0
VERTEX
  5
887
330
7EB
100
AcDbEntity
  8
IMAGE
100
AcDbVertex
100
AcDb2dVertex
 10
0.7986924562294924
 20
1.701504743761266
 30
0.0
 70
    16
  0
VERTEX
  5
888
330
7EB
100
AcDbEntity
  8
IMAGE
100
AcDbVertex
100
AcDb2dVertex
 10
0.6790836284048752
 20
1.762993015977308
 30
0.0
 70
    16
  0
VERTEX
  5
889
330
7EB
100
AcDbEntity
  8
IMAGE
100
AcDbVertex
100
AcDb2dVertex
 10
0.5355529996644642
 20
1.803985186716057
 30
0.0
 70
    16
  0
VERTEX
  5
88A
330
7EB
100
AcDbEntity
  8
IMAGE
100
AcDbVertex
100
AcDb2dVertex
 10
0.4091093905161581
 20
1.875721541886582
 30
0.0
 70
    16
  0
VERTEX
  5
88B
330
7EB
100
AcDbEntity
  8
IMAGE
100
AcDbVertex
100
AcDb2dVertex
 10
0.3681006141968481
 20
2.032858244708875
 30
0.0
 70
    16
  0
VERTEX
  5
88C
330
7EB
100
AcDbEntity
  8
IMAGE
100
AcDbVertex
100
AcDb2dVertex
 10
0.3612658328731584
 20
2.11484261840221
 30
0.0
 70
    16
  0
VERTEX
  5
88D
330
7EB
100
AcDbEntity
  8
IMAGE
100
AcDbVertex
100
AcDb2dVertex
 10
0.3510136387933311
 20
2.20707504283419
 30
0.0
 70
    16
  0
VERTEX
  5
88E
330
7EB
100
AcDbEntity
  8
IMAGE
100
AcDbVertex
100
AcDb2dVertex
 10
0.3031701253389185
 20
2.268563347266068
 30
0.0
 70
    16
  0
VERTEX
  5
88F
330
7EB
100
AcDbEntity
  8
IMAGE
100
AcDbVertex
100
AcDb2dVertex
 10
0.1357177398713016
 20
2.302723505656277
 30
0.0
 70
    16
  0
VERTEX
  5
890
330
7EB
100
AcDbEntity
  8
IMAGE
100
AcDbVertex
100
AcDb2dVertex
 10
0.0126914992905452
 20
2.330051619482109
 30
0.0
 70
    16
  0
VERTEX
  5
891
330
7EB
100
AcDbEntity
  8
IMAGE
100
AcDbVertex
100
AcDb2dVertex
 10
-0.0829955718068654
 20
2.374459828610965
 30
0.0
 70
    16
  0
VERTEX
  5
892
330
7EB
100
AcDbEntity
  8
IMAGE
100
AcDbVertex
100
AcDb2dVertex
 10
-0.0761607904831765
 20
2.470108259217217
 30
0.0
 70
    16
  0
VERTEX
  5
893
330
7EB
100
AcDbEntity
  8
IMAGE
100
AcDbVertex
100
AcDb2dVertex
 10
-0.0522390337559697
 20
2.579420746736384
 30
0.0
 70
    16
  0
VERTEX
  5
894
330
7EB
100
AcDbEntity
  8
IMAGE
100
AcDbVertex
100
AcDb2dVertex
 10
-0.038569471108592
 20
2.753637577077536
 30
0.0
 70
    16
  0
VERTEX
  5
895
330
7EB
100
AcDbEntity
  8
IMAGE
100
AcDbVertex
100
AcDb2dVertex
 10
-0.0590738150796595
 20
2.93810239372566
 30
0.0
 70
    16
  0
VERTEX
  5
896
330
7EB
100
AcDbEntity
  8
IMAGE
100
AcDbVertex
100
AcDb2dVertex
 10
-0.0624912278357979
 20
3.064494976547852
 30
0.0
 70
    16
  0
VERTEX
  5
897
330
7EB
100
AcDbEntity
  8
IMAGE
100
AcDbVertex
100
AcDb2dVertex
 10
-0.0522390337559697
 20
3.194303597760148
 30
0.0
 70
    16
  0
VERTEX
  5
898
330
7EB
100
AcDbEntity
  8
IMAGE
100
AcDbVertex
100
AcDb2dVertex
 10
-0.0590738150796595
 20
3.341192249843794
 30
0.0
 70
    16
  0
VERTEX
  5
899
330
7EB
100
AcDbEntity
  8
IMAGE
100
AcDbVertex
100
AcDb2dVertex
 10
-0.0454042524322809
 20
3.457336781927337
 30
0.0
 70
    16
  0
VERTEX
  5
89A
330
7EB
100
AcDbEntity
  8
IMAGE
100
AcDbVertex
100
AcDb2dVertex
 10
-0.0456239452972831
 20
3.576516833196744
 30
0.0
 70
    16
  0
SEQEND
  5
89B
330
7EB
100
AcDbEntity
  8
IMAGE
  0
POLYLINE
  5
89C
330
1E
100
AcDbEntity
  8
IMAGE
100
AcDb2dPolyline
 66
     1
 10
0.0
 20
0.0
 30
0.0
 70
     4
 40
0.0234375
 41
0.0234375
 75
     6
  0
VERTEX
  5
89D
330
89C
100
AcDbEntity
  8
IMAGE
100
AcDbVertex
100
AcDb2dVertex
 10
0.796777200778096
 20
2.323701263699784
 30
0.0
 70
    16
  0
VERTEX
  5
89E
330
89C
100
AcDbEntity
  8
IMAGE
100
AcDbVertex
100
AcDb2dVertex
 10
0.796777200778096
 20
2.323701263699784
 30
0.0
 70
     8
  0
VERTEX
  5
89F
330
89C
100
AcDbEntity
  8
IMAGE
100
AcDbVertex
100
AcDb2dVertex
 10
0.8148228426077679
 20
2.302871057998975
 30
0.0
 70
     8
  0
VERTEX
  5
8A0
330
89C
100
AcDbEntity
  8
IMAGE
100
AcDbVertex
100
AcDb2dVertex
 10
0.8317940835078783
 20
2.28454199975745
 30
0.0
 70
     8
  0
VERTEX
  5
8A1
330
89C
100
AcDbEntity
  8
IMAGE
100
AcDbVertex
100
AcDb2dVertex
 10
0.8478364878273136
 20
2.268443880311354
 30
0.0
 70
     8
  0
VERTEX
  5
8A2
330
89C
100
AcDbEntity
  8
IMAGE
100
AcDbVertex
100
AcDb2dVertex
 10
0.863095619914965
 20
2.254306490996841
 30
0.0
 70
     8
  0
VERTEX
  5
8A3
330
89C
100
AcDbEntity
  8
IMAGE
100
AcDbVertex
100
AcDb2dVertex
 10
0.8777170441197235
 20
2.241859623150057
 30
0.0
 70
     8
  0
VERTEX
  5
8A4
330
89C
100
AcDbEntity
  8
IMAGE
100
AcDbVertex
100
AcDb2dVertex
 10
0.8918463247904782
 20
2.230833068107151
 30
0.0
 70
     8
  0
VERTEX
  5
8A5
330
89C
100
AcDbEntity
  8
IMAGE
100
AcDbVertex
100
AcDb2dVertex
 10
0.9056290262761201
 20
2.220956617204274
 30
0.0
 70
     8
  0
VERTEX
  5
8A6
330
89C
100
AcDbEntity
  8
IMAGE
100
AcDbVertex
100
AcDb2dVertex
 10
0.9192107129255377
 20
2.211960061777573
 30
0.0
 70
     8
  0
VERTEX
  5
8A7
330
89C
100
AcDbEntity
  8
IMAGE
100
AcDbVertex
100
AcDb2dVertex
 10
0.9327315567419782
 20
2.203608605797676
 30
0.0
 70
     8
  0
VERTEX
  5
8A8
330
89C
100
AcDbEntity
  8
IMAGE
100
AcDbVertex
100
AcDb2dVertex
 10
0.9463101603461208
 20
2.195809103773116
 30
0.0
 70
     8
  0
VERTEX
  5
8A9
330
89C
100
AcDbEntity
  8
IMAGE
100
AcDbVertex
100
AcDb2dVertex
 10
0.9600597340129919
 20
2.188503822846907
 30
0.0
 70
     8
  0
VERTEX
  5
8AA
330
89C
100
AcDbEntity
  8
IMAGE
100
AcDbVertex
100
AcDb2dVertex
 10
0.9740934880176297
 20
2.181635030162062
 30
0.0
 70
     8
  0
VERTEX
  5
8AB
330
89C
100
AcDbEntity
  8
IMAGE
100
AcDbVertex
100
AcDb2dVertex
 10
0.988524632635066
 20
2.175144992861587
 30
0.0
 70
     8
  0
VERTEX
  5
8AC
330
89C
100
AcDbEntity
  8
IMAGE
100
AcDbVertex
100
AcDb2dVertex
 10
1.003466378140331
 20
2.168975978088498
 30
0.0
 70
     8
  0
VERTEX
  5
8AD
330
89C
100
AcDbEntity
  8
IMAGE
100
AcDbVertex
100
AcDb2dVertex
 10
1.019031934808461
 20
2.163070252985808
 30
0.0
 70
     8
  0
VERTEX
  5
8AE
330
89C
100
AcDbEntity
  8
IMAGE
100
AcDbVertex
100
AcDb2dVertex
 10
1.035334512914486
 20
2.157370084696527
 30
0.0
 70
     8
  0
VERTEX
  5
8AF
330
89C
100
AcDbEntity
  8
IMAGE
100
AcDbVertex
100
AcDb2dVertex
 10
1.052426096721982
 20
2.151845067787931
 30
0.0
 70
     8
  0
VERTEX
  5
8B0
330
89C
100
AcDbEntity
  8
IMAGE
100
AcDbVertex
100
AcDb2dVertex
 10
1.070113766448671
 20
2.146574106524334
 30
0.0
 70
     8
  0
VERTEX
  5
8B1
330
89C
100
AcDbEntity
  8
IMAGE
100
AcDbVertex
100
AcDb2dVertex
 10
1.088143376300828
 20
2.14166343259432
 30
0.0
 70
     8
  0
VERTEX
  5
8B2
330
89C
100
AcDbEntity
  8
IMAGE
100
AcDbVertex
100
AcDb2dVertex
 10
1.106260780484713
 20
2.137219277686469
 30
0.0
 70
     8
  0
VERTEX
  5
8B3
330
89C
100
AcDbEntity
  8
IMAGE
100
AcDbVertex
100
AcDb2dVertex
 10
1.124211833206599
 20
2.133347873489363
 30
0.0
 70
     8
  0
VERTEX
  5
8B4
330
89C
100
AcDbEntity
  8
IMAGE
100
AcDbVertex
100
AcDb2dVertex
 10
1.141742388672753
 20
2.13015545169158
 30
0.0
 70
     8
  0
VERTEX
  5
8B5
330
89C
100
AcDbEntity
  8
IMAGE
100
AcDbVertex
100
AcDb2dVertex
 10
1.158598301089439
 20
2.127748243981701
 30
0.0
 70
     8
  0
VERTEX
  5
8B6
330
89C
100
AcDbEntity
  8
IMAGE
100
AcDbVertex
100
AcDb2dVertex
 10
1.174525424662928
 20
2.126232482048308
 30
0.0
 70
     8
  0
VERTEX
  5
8B7
330
89C
100
AcDbEntity
  8
IMAGE
100
AcDbVertex
100
AcDb2dVertex
 10
1.189344317349387
 20
2.125702081402886
 30
0.0
 70
     8
  0
VERTEX
  5
8B8
330
89C
100
AcDbEntity
  8
IMAGE
100
AcDbVertex
100
AcDb2dVertex
 10
1.203174352104583
 20
2.126201692848541
 30
0.0
 70
     8
  0
VERTEX
  5
8B9
330
89C
100
AcDbEntity
  8
IMAGE
100
AcDbVertex
100
AcDb2dVertex
 10
1.216209605634182
 20
2.127763651011286
 30
0.0
 70
     8
  0
VERTEX
  5
8BA
330
89C
100
AcDbEntity
  8
IMAGE
100
AcDbVertex
100
AcDb2dVertex
 10
1.228644154643854
 20
2.130420290517133
 30
0.0
 70
     8
  0
VERTEX
  5
8BB
330
89C
100
AcDbEntity
  8
IMAGE
100
AcDbVertex
100
AcDb2dVertex
 10
1.240672075839263
 20
2.134203945992092
 30
0.0
 70
     8
  0
VERTEX
  5
8BC
330
89C
100
AcDbEntity
  8
IMAGE
100
AcDbVertex
100
AcDb2dVertex
 10
1.252487445926083
 20
2.139146952062178
 30
0.0
 70
     8
  0
VERTEX
  5
8BD
330
89C
100
AcDbEntity
  8
IMAGE
100
AcDbVertex
100
AcDb2dVertex
 10
1.264284341609975
 20
2.145281643353401
 30
0.0
 70
     8
  0
VERTEX
  5
8BE
330
89C
100
AcDbEntity
  8
IMAGE
100
AcDbVertex
100
AcDb2dVertex
 10
1.27625683959661
 20
2.152640354491772
 30
0.0
 70
     8
  0
VERTEX
  5
8BF
330
89C
100
AcDbEntity
  8
IMAGE
100
AcDbVertex
100
AcDb2dVertex
 10
1.288548186694113
 20
2.161225396780325
 30
0.0
 70
     8
  0
VERTEX
  5
8C0
330
89C
100
AcDbEntity
  8
IMAGE
100
AcDbVertex
100
AcDb2dVertex
 10
1.301098310120449
 20
2.170918988230169
 30
0.0
 70
     8
  0
VERTEX
  5
8C1
330
89C
100
AcDbEntity
  8
IMAGE
100
AcDbVertex
100
AcDb2dVertex
 10
1.313796307196041
 20
2.181573323529438
 30
0.0
 70
     8
  0
VERTEX
  5
8C2
330
89C
100
AcDbEntity
  8
IMAGE
100
AcDbVertex
100
AcDb2dVertex
 10
1.326531275241313
 20
2.193040597366261
 30
0.0
 70
     8
  0
VERTEX
  5
8C3
330
89C
100
AcDbEntity
  8
IMAGE
100
AcDbVertex
100
AcDb2dVertex
 10
1.339192311576685
 20
2.205173004428769
 30
0.0
 70
     8
  0
VERTEX
  5
8C4
330
89C
100
AcDbEntity
  8
IMAGE
100
AcDbVertex
100
AcDb2dVertex
 10
1.351668513522581
 20
2.217822739405095
 30
0.0
 70
     8
  0
VERTEX
  5
8C5
330
89C
100
AcDbEntity
  8
IMAGE
100
AcDbVertex
100
AcDb2dVertex
 10
1.363848978399426
 20
2.230841996983369
 30
0.0
 70
     8
  0
VERTEX
  5
8C6
330
89C
100
AcDbEntity
  8
IMAGE
100
AcDbVertex
100
AcDb2dVertex
 10
1.375622803527641
 20
2.244082971851724
 30
0.0
 70
     8
  0
VERTEX
  5
8C7
330
89C
100
AcDbEntity
  8
IMAGE
100
AcDbVertex
100
AcDb2dVertex
 10
1.386950709631713
 20
2.257450206283431
 30
0.0
 70
     8
  0
VERTEX
  5
8C8
330
89C
100
AcDbEntity
  8
IMAGE
100
AcDbVertex
100
AcDb2dVertex
 10
1.398079911052382
 20
2.271057632892348
 30
0.0
 70
     8
  0
VERTEX
  5
8C9
330
89C
100
AcDbEntity
  8
IMAGE
100
AcDbVertex
100
AcDb2dVertex
 10
1.409329245534452
 20
2.285071531877465
 30
0.0
 70
     8
  0
VERTEX
  5
8CA
330
89C
100
AcDbEntity
  8
IMAGE
100
AcDbVertex
100
AcDb2dVertex
 10
1.421017550822726
 20
2.299658183437782
 30
0.0
 70
     8
  0
VERTEX
  5
8CB
330
89C
100
AcDbEntity
  8
IMAGE
100
AcDbVertex
100
AcDb2dVertex
 10
1.433463664662006
 20
2.314983867772293
 30
0.0
 70
     8
  0
VERTEX
  5
8CC
330
89C
100
AcDbEntity
  8
IMAGE
100
AcDbVertex
100
AcDb2dVertex
 10
1.446986424797097
 20
2.331214865079996
 30
0.0
 70
     8
  0
VERTEX
  5
8CD
330
89C
100
AcDbEntity
  8
IMAGE
100
AcDbVertex
100
AcDb2dVertex
 10
1.461904668972802
 20
2.348517455559886
 30
0.0
 70
     8
  0
VERTEX
  5
8CE
330
89C
100
AcDbEntity
  8
IMAGE
100
AcDbVertex
100
AcDb2dVertex
 10
1.478537234933924
 20
2.367057919410958
 30
0.0
 70
     8
  0
VERTEX
  5
8CF
330
89C
100
AcDbEntity
  8
IMAGE
100
AcDbVertex
100
AcDb2dVertex
 10
1.497144590257032
 20
2.387001274955237
 30
0.0
 70
     8
  0
VERTEX
  5
8D0
330
89C
100
AcDbEntity
  8
IMAGE
100
AcDbVertex
100
AcDb2dVertex
 10
1.517753721845762
 20
2.408507493006865
 30
0.0
 70
     8
  0
VERTEX
  5
8D1
330
89C
100
AcDbEntity
  8
IMAGE
100
AcDbVertex
100
AcDb2dVertex
 10
1.540333246435507
 20
2.431735282503008
 30
0.0
 70
     8
  0
VERTEX
  5
8D2
330
89C
100
AcDbEntity
  8
IMAGE
100
AcDbVertex
100
AcDb2dVertex
 10
1.564851780761671
 20
2.456843352380835
 30
0.0
 70
     8
  0
VERTEX
  5
8D3
330
89C
100
AcDbEntity
  8
IMAGE
100
AcDbVertex
100
AcDb2dVertex
 10
1.591277941559649
 20
2.483990411577516
 30
0.0
 70
     8
  0
VERTEX
  5
8D4
330
89C
100
AcDbEntity
  8
IMAGE
100
AcDbVertex
100
AcDb2dVertex
 10
1.619580345564843
 20
2.513335169030217
 30
0.0
 70
     8
  0
VERTEX
  5
8D5
330
89C
100
AcDbEntity
  8
IMAGE
100
AcDbVertex
100
AcDb2dVertex
 10
1.649727609512651
 20
2.545036333676107
 30
0.0
 70
     8
  0
VERTEX
  5
8D6
330
89C
100
AcDbEntity
  8
IMAGE
100
AcDbVertex
100
AcDb2dVertex
 10
1.681688350138471
 20
2.579252614452355
 30
0.0
 70
     8
  0
VERTEX
  5
8D7
330
89C
100
AcDbEntity
  8
IMAGE
100
AcDbVertex
100
AcDb2dVertex
 10
0.8464608374289879
 20
2.264578999739605
 30
0.0
 70
    16
  0
VERTEX
  5
8D8
330
89C
100
AcDbEntity
  8
IMAGE
100
AcDbVertex
100
AcDb2dVertex
 10
0.9198021847904289
 20
2.205456735779428
 30
0.0
 70
    16
  0
VERTEX
  5
8D9
330
89C
100
AcDbEntity
  8
IMAGE
100
AcDbVertex
100
AcDb2dVertex
 10
1.026265374643243
 20
2.155793295828033
 30
0.0
 70
    16
  0
VERTEX
  5
8DA
330
89C
100
AcDbEntity
  8
IMAGE
100
AcDbVertex
100
AcDb2dVertex
 10
1.187143394123522
 20
2.115590589087607
 30
0.0
 70
    16
  0
VERTEX
  5
8DB
330
89C
100
AcDbEntity
  8
IMAGE
100
AcDbVertex
100
AcDb2dVertex
 10
1.272313596840241
 20
2.139239240111387
 30
0.0
 70
    16
  0
VERTEX
  5
8DC
330
89C
100
AcDbEntity
  8
IMAGE
100
AcDbVertex
100
AcDb2dVertex
 10
1.381143256095175
 20
2.243294577417476
 30
0.0
 70
    16
  0
VERTEX
  5
8DD
330
89C
100
AcDbEntity
  8
IMAGE
100
AcDbVertex
100
AcDb2dVertex
 10
1.456850199944905
 20
2.352080281329048
 30
0.0
 70
    16
  0
VERTEX
  5
8DE
330
89C
100
AcDbEntity
  8
IMAGE
100
AcDbVertex
100
AcDb2dVertex
 10
1.594069635800801
 20
2.484514636264401
 30
0.0
 70
    16
  0
VERTEX
  5
8DF
330
89C
100
AcDbEntity
  8
IMAGE
100
AcDbVertex
100
AcDb2dVertex
 10
1.681688350138471
 20
2.579252614452356
 30
0.0
 70
    16
  0
SEQEND
  5
8E0
330
89C
100
AcDbEntity
  8
IMAGE
  0
LINE
  5
8E1
330
1E
100
AcDbEntity
  8
IMAGE
100
AcDbLine
 10
0.8851517040928822
 20
0.9759973163832098
 30
0.0
 11
1.812065098721026
 21
0.4408436184791813
 31
0.0
  0
LINE
  5
8E2
330
1E
100
AcDbEntity
  8
IMAGE
100
AcDbLine
 10
0.8851517040928822
 20
1.565873610893386
 30
0.0
 11
1.812065098721026
 21
1.030719912989358
 31
0.0
  0
LINE
  5
8E3
330
1E
100
AcDbEntity
  8
IMAGE
100
AcDbLine
 10
1.28240517159473
 20
1.79522800729209
 30
0.0
 11
2.209318566222875
 21
1.260074309388062
 31
0.0
  0
CIRCLE
  5
8EB
330
1E
100
AcDbEntity
  8
TEXT_BUBBLES
100
AcDbCircle
 10
0.6720166951592086
 20
0.2684722446952938
 30
0.0
 40
0.125
  0
CIRCLE
  5
8ED
330
1E
100
AcDbEntity
  8
TEXT_BUBBLES
100
AcDbCircle
 10
1.234934216888688
 20
0.2684722446952938
 30
0.0
 40
0.125
  0
TEXT
  5
8EE
330
1E
100
AcDbEntity
  8
TEXT_BUBBLES
100
AcDbText
 10
1.187315169269641
 20
0.2184722446952938
 30
0.0
 40
0.1
  1
5
  7
ROMANS
 72
     4
 11
1.234934216888688
 21
0.2684722446952938
 31
0.0
100
AcDbText
  0
TEXT
  5
8EF
330
1E
100
AcDbEntity
  8
TEXT_BUBBLES
100
AcDbText
 10
0.6220166951592086
 20
0.2184722446952938
 30
0.0
 40
0.1
  1
6
  7
ROMANS
 72
     4
 11
0.6720166951592086
 21
0.2684722446952938
 31
0.0
100
AcDbText
  0
LINE
  5
8F1
330
1E
100
AcDbEntity
  8
IMAGE
100
AcDbLine
 10
-0.0586563062434671
 20
1.942125642046207
 30
0.0
 11
0.0379574034618111
 21
1.886345690740458
 31
0.0
  0
LINE
  5
8F2
330
1E
100
AcDbEntity
  8
IMAGE
100
AcDbLine
 10
-0.0586563062434671
 20
2.120621486224607
 30
0.0
 11
0.0379574034618111
 21
2.064841534918857
 31
0.0
  0
LINE
  5
8F3
330
1E
100
AcDbEntity
  8
IMAGE
100
AcDbLine
 10
-0.0586563062434671
 20
1.942125642046207
 30
0.0
 11
-0.0586563062434671
 21
2.120621486224607
 31
0.0
  0
LINE
  5
8F4
330
1E
100
AcDbEntity
  8
IMAGE
100
AcDbLine
 10
-0.0586563062434671
 20
2.120621486224607
 30
0.0
 11
1.004094501151575
 21
2.734200950587853
 31
0.0
  0
LINE
  5
8F5
330
1E
100
AcDbEntity
  8
IMAGE
100
AcDbLine
 10
0.0379574034618111
 20
1.886345690740458
 30
0.0
 11
0.0379574034618111
 21
2.064841534918857
 31
0.0
  0
LINE
  5
8F6
330
1E
100
AcDbEntity
  8
IMAGE
100
AcDbLine
 10
0.0379574034618111
 20
2.064841534918857
 30
0.0
 11
1.100708210856854
 21
2.678420999282102
 31
0.0
  0
LINE
  5
8F7
330
1E
100
AcDbEntity
  8
IMAGE
100
AcDbLine
 10
-0.2223174111936306
 20
1.892239467160421
 30
0.0
 11
-0.0586563062434671
 21
1.986729250159269
 31
0.0
  0
LWPOLYLINE
  5
8F8
330
1E
100
AcDbEntity
  8
IMAGE
100
AcDbPolyline
 90
       13
 70
     1
 43
0.0
 10
0.3084757903180431
 20
2.098309505702306
 10
0.3084757903180431
 20
2.165245447269207
 42
0.1604757256896696
 10
0.2953417953048962
 20
2.171561443332495
 42
0.121946455370167
 10
0.2787379805594921
 20
2.169431764406761
 42
0.0807104688999249
 10
0.2609226323123968
 20
2.159146068300606
 42
0.0602395935416768
 10
0.2443188175669939
 20
2.142103313400669
 42
0.0537597547242333
 10
0.2311848225538458
 20
2.120621486224607
 10
0.2311848225538458
 20
2.053685544657705
 42
0.1604757256896791
 10
0.2443188175669939
 20
2.04736954859442
 42
0.1219464553701619
 10
0.2609226323123968
 20
2.049499227520152
 42
0.0807104688999241
 10
0.2787379805594921
 20
2.059784923626306
 42
0.0602395935416808
 10
0.2953417953048962
 20
2.076827678526242
 42
0.0537597547242337
 10
0.3084757903180431
 20
2.098309505702306
  0
LWPOLYLINE
  5
907
330
1E
100
AcDbEntity
  8
IMAGE
100
AcDbPolyline
 90
       19
 70
     1
 43
0.0
 10
0.2988144193475348
 20
2.126199481355181
 42
0.0916206593036125
 10
0.2982317673846868
 20
2.129678660475645
 42
0.1338272256830868
 10
0.2965540879218801
 20
2.132065410711779
 42
0.1492998140792082
 10
0.2939837338622634
 20
2.133071854760421
 42
0.1119210550517681
 10
0.2908307278398001
 20
2.132576600615775
 42
0.0759118367899279
 10
0.287475368914188
 20
2.130639383236856
 42
0.0573757824643921
 10
0.2843223628917233
 20
2.127493859629845
 42
0.0507700122154809
 10
0.2817520088321079
 20
2.123519426364735
 42
0.052885093614998
 10
0.2800743293693317
 20
2.119195458749684
 42
0.0647821012387657
 10
0.2794916774064852
 20
2.11504349109403
 42
0.0916206593036147
 10
0.2800743293693317
 20
2.111564311973566
 42
0.1338272256830863
 10
0.2817520088321079
 20
2.109177561737433
 42
0.1492998140792593
 10
0.2843223628917233
 20
2.108171117688791
 42
0.1119210550517721
 10
0.287475368914188
 20
2.108666371833438
 42
0.0759118367899111
 10
0.2908307278398001
 20
2.110603589212356
 42
0.0573757824643873
 10
0.2939837338622634
 20
2.113749112819367
 42
0.0507700122154694
 10
0.2965540879218801
 20
2.117723546084476
 42
0.0528850936150002
 10
0.2982317673846868
 20
2.122047513699529
 42
0.064782101238765
 10
0.2988144193475348
 20
2.126199481355181
  0
LINE
  5
91C
330
1E
100
AcDbEntity
  8
IMAGE
100
AcDbLine
 10
0.2698303064359448
 20
2.087153515441157
 30
0.0
 11
0.2698303064359448
 21
2.098309505702306
 31
0.0
  0
LINE
  5
91D
330
1E
100
AcDbEntity
  8
IMAGE
100
AcDbLine
 10
0.2698303064359448
 20
2.098309505702306
 30
0.0
 11
0.2408461935243551
 21
2.081575520310582
 31
0.0
  0
LINE
  5
91E
330
1E
100
AcDbEntity
  8
IMAGE
100
AcDbLine
 10
0.2408461935243551
 20
2.103887500832882
 30
0.0
 11
0.2408461935243551
 21
2.11504349109403
 31
0.0
  0
LINE
  5
91F
330
1E
100
AcDbEntity
  8
IMAGE
100
AcDbLine
 10
0.2698303064359448
 20
2.120621486224607
 30
0.0
 11
0.2408461935243551
 21
2.103887500832882
 31
0.0
  0
LINE
  5
920
330
1E
100
AcDbEntity
  8
IMAGE
100
AcDbLine
 10
0.2698303064359448
 20
2.131777476485756
 30
0.0
 11
0.2698303064359448
 21
2.120621486224607
 31
0.0
  0
LINE
  5
921
330
1E
100
AcDbEntity
  8
IMAGE
100
AcDbLine
 10
0.2408461935243551
 20
2.11504349109403
 30
0.0
 11
0.2698303064359448
 21
2.131777476485756
 31
0.0
  0
LINE
  5
922
330
1E
100
AcDbEntity
  8
IMAGE
100
AcDbLine
 10
0.2408461935243551
 20
2.081575520310582
 30
0.0
 11
0.2408461935243551
 21
2.07041953004943
 31
0.0
  0
LINE
  5
923
330
1E
100
AcDbEntity
  8
IMAGE
100
AcDbLine
 10
0.2408461935243551
 20
2.07041953004943
 30
0.0
 11
0.2698303064359448
 21
2.087153515441157
 31
0.0
  0
LINE
  5
924
330
1E
100
AcDbEntity
  8
IMAGE
100
AcDbLine
 10
0.1154711406600644
 20
1.954005451159186
 30
0.0
 11
0.1289539428638831
 21
1.961789750640996
 31
0.0
  0
LINE
  5
925
330
1E
100
AcDbEntity
  8
IMAGE
100
AcDbLine
 10
0.1628158319000601
 20
2.017546778353142
 30
0.0
 11
0.1628158319000601
 21
2.009801424624732
 31
0.0
  0
ARC
  5
926
330
1E
100
AcDbEntity
  8
IMAGE
100
AcDbCircle
 10
0.1389291126196017
 20
2.017546778353142
 30
0.0
 40
0.0238867192804552
100
AcDbArc
 50
359.9999999999998
 51
54.18247435555643
  0
LINE
  5
927
330
1E
100
AcDbEntity
  8
IMAGE
100
AcDbLine
 10
0.1214428204801639
 20
2.059624019739306
 30
0.0
 11
0.1529077577562958
 21
2.036916157231309
 31
0.0
  0
ARC
  5
928
330
1E
100
AcDbEntity
  8
IMAGE
100
AcDbCircle
 10
0.0975561011997366
 20
1.993660059072688
 30
0.0
 40
0.0238867192804552
100
AcDbArc
 50
359.9999999999998
 51
54.18247435555643
  0
ARC
  5
929
330
1E
100
AcDbEntity
  8
IMAGE
100
AcDbCircle
 10
0.1094994608399347
 20
1.964348704014159
 30
0.0
 40
0.0119433596402276
100
AcDbArc
 50
246.5867755536302
 51
359.9999999999999
  0
LINE
  5
92A
330
1E
100
AcDbEntity
  8
IMAGE
100
AcDbLine
 10
0.0800698090602987
 20
1.964077142617484
 30
0.0
 11
0.1047536509512748
 21
1.953388725547186
 31
0.0
  0
LINE
  5
92B
330
1E
100
AcDbEntity
  8
IMAGE
100
AcDbLine
 10
0.0800698090602987
 20
2.035737300458849
 30
0.0
 11
0.1115347463364005
 21
2.013029437950854
 31
0.0
  0
LINE
  5
92C
330
1E
100
AcDbEntity
  8
IMAGE
100
AcDbLine
 10
0.1214428204801639
 20
1.993660059072688
 30
0.0
 11
0.1214428204801639
 21
1.964348704014159
 31
0.0
  0
LWPOLYLINE
  5
92D
330
1E
100
AcDbEntity
  8
IMAGE
100
AcDbPolyline
 90
        9
 70
     0
 43
0.0
 10
0.1567568946566806
 20
2.013299553673205
 42
0.1568512196707746
 10
0.1506979574132708
 20
2.014606380715973
 42
0.1066170543910077
 10
0.1421293261901272
 20
2.011850581178395
 42
0.0723410840576587
 10
0.1345746347995935
 20
2.005889539802477
 42
0.0587518675353754
 10
0.1275017577235737
 20
1.996409092489695
 42
0.0587518675353755
 10
0.122827888049468
 20
1.985543577607622
 42
0.0723410840576597
 10
0.1214428204801641
 20
1.976020502257711
 42
0.1066170543910072
 10
0.1233405436844779
 20
1.967221950174001
 42
0.1568512196707774
 10
0.1275017577235737
 20
1.962628170122675
 42
0.1568512196707807
  0
LINE
  5
938
330
1E
100
AcDbEntity
  8
IMAGE
100
AcDbLine
 10
0.1275017577235733
 20
1.962628170122675
 30
0.0
 11
0.1688747691434376
 21
1.938741450842222
 31
0.0
  0
LINE
  5
939
330
1E
100
AcDbEntity
  8
IMAGE
100
AcDbLine
 10
0.1567568946566809
 20
2.013299553673205
 30
0.0
 11
0.1981299060765451
 21
1.989412834392748
 31
0.0
  0
LWPOLYLINE
  5
93A
330
1E
100
AcDbEntity
  8
IMAGE
100
AcDbPolyline
 90
       16
 70
     1
 43
0.0
 10
0.1679086320443893
 20
1.970848974670067
 42
0.0701113369527909
 10
0.1642008994693651
 20
1.961656858327168
 42
0.0723410840576597
 10
0.1628158319000598
 20
1.952133782977258
 42
0.1066170543910072
 10
0.1647135551043736
 20
1.943335230893547
 42
0.1568512196707782
 10
0.1688747691434376
 20
1.938741450842222
 42
0.1568512196707807
 10
0.1749337063868472
 20
1.937434623799452
 42
0.1066170543910086
 10
0.1835023376099923
 20
1.940190423337031
 42
0.0723410840576592
 10
0.1910570290005246
 20
1.946151464712945
 42
0.0587518675353762
 10
0.1981299060765458
 20
1.95563191202573
 42
0.0587518675353772
 10
0.2028037757506502
 20
1.966497426907804
 42
0.072341084057659
 10
0.2041888433199555
 20
1.976020502257711
 42
0.1066170543910099
 10
0.2022911201156416
 20
1.984819054341424
 42
0.1568512196707723
 10
0.1981299060765458
 20
1.989412834392748
 42
0.1568512196707746
 10
0.1920709688331665
 20
1.990719661435517
 42
0.1066170543910077
 10
0.1835023376099923
 20
1.987963861897942
 42
0.0723410840576587
 10
0.1759476462194587
 20
1.982002820522023
 42
0.0505437524207227
  0
LINE
  5
94C
330
1E
100
AcDbEntity
  8
IMAGE
100
AcDbLine
 10
0.1214428204801639
 20
2.059624019739306
 30
0.0
 11
0.0800698090602987
 21
2.035737300458849
 31
0.0
  0
LINE
  5
94D
330
1E
100
AcDbEntity
  8
IMAGE
100
AcDbLine
 10
0.0800698090602987
 20
2.035737300458849
 30
0.0
 11
0.0800698090602987
 21
1.964077142617484
 31
0.0
  0
LWPOLYLINE
  5
94E
330
1E
100
AcDbEntity
  8
IMAGE
100
AcDbPolyline
 90
       13
 70
     1
 43
0.0
 10
0.6176396620119711
 20
2.276805349880704
 10
0.6176396620119711
 20
2.343741291447604
 42
0.1604757256896696
 10
0.6045056669988243
 20
2.350057287510894
 42
0.121946455370167
 10
0.5879018522534199
 20
2.347927608585159
 42
0.0807104688999249
 10
0.5700865040063248
 20
2.337641912479003
 42
0.0602395935416768
 10
0.553482689260922
 20
2.320599157579065
 42
0.0537597547242333
 10
0.5403486942477738
 20
2.299117330403003
 10
0.5403486942477738
 20
2.232181388836104
 42
0.1604757256896791
 10
0.553482689260922
 20
2.225865392772817
 42
0.1219464553701619
 10
0.5700865040063248
 20
2.227995071698549
 42
0.0807104688999241
 10
0.5879018522534199
 20
2.238280767804705
 42
0.0602395935416808
 10
0.6045056669988243
 20
2.255323522704641
 42
0.0537597547242337
 10
0.6176396620119711
 20
2.276805349880704
  0
LWPOLYLINE
  5
95D
330
1E
100
AcDbEntity
  8
IMAGE
100
AcDbPolyline
 90
       13
 70
     1
 43
0.0
 10
0.4630577261650229
 20
2.187557427791506
 10
0.4630577261650229
 20
2.254493369358407
 42
0.1604757256896696
 10
0.4499237311518762
 20
2.260809365421695
 42
0.121946455370167
 10
0.4333199164064721
 20
2.25867968649596
 42
0.0807104688999249
 10
0.4155045681593768
 20
2.248393990389805
 42
0.0602395935416768
 10
0.3989007534139739
 20
2.231351235489868
 42
0.0537597547242333
 10
0.3857667584008257
 20
2.209869408313806
 10
0.3857667584008257
 20
2.142933466746906
 42
0.1604757256896791
 10
0.3989007534139739
 20
2.13661747068362
 42
0.1219464553701619
 10
0.4155045681593768
 20
2.138747149609351
 42
0.0807104688999241
 10
0.4333199164064721
 20
2.149032845715506
 42
0.0602395935416808
 10
0.4499237311518762
 20
2.166075600615442
 42
0.0537597547242337
 10
0.4630577261650229
 20
2.187557427791506
  0
LWPOLYLINE
  5
96C
330
1E
100
AcDbEntity
  8
IMAGE
100
AcDbPolyline
 90
       19
 70
     1
 43
0.0
 10
0.4533963551945149
 20
2.215447403444381
 42
0.0916206593036125
 10
0.4528137032316668
 20
2.218926582564845
 42
0.1338272256830868
 10
0.45113602376886
 20
2.221313332800979
 42
0.1492998140792082
 10
0.4485656697092433
 20
2.222319776849621
 42
0.1119210550517681
 10
0.4454126636867802
 20
2.221824522704975
 42
0.0759118367899279
 10
0.442057304761168
 20
2.219887305326057
 42
0.0573757824643921
 10
0.4389042987387033
 20
2.216741781719046
 42
0.0507700122154809
 10
0.436333944679088
 20
2.212767348453935
 42
0.052885093614998
 10
0.4346562652163117
 20
2.208443380838884
 42
0.0647821012387657
 10
0.4340736132534651
 20
2.204291413183231
 42
0.0916206593036147
 10
0.4346562652163117
 20
2.200812234062767
 42
0.1338272256830863
 10
0.436333944679088
 20
2.198425483826634
 42
0.1492998140792593
 10
0.4389042987387033
 20
2.19741903977799
 42
0.1119210550517721
 10
0.442057304761168
 20
2.197914293922639
 42
0.0759118367899111
 10
0.4454126636867802
 20
2.199851511301556
 42
0.0573757824643873
 10
0.4485656697092433
 20
2.202997034908567
 42
0.0507700122154694
 10
0.45113602376886
 20
2.206971468173676
 42
0.0528850936150002
 10
0.4528137032316668
 20
2.211295435788729
 42
0.064782101238765
 10
0.4533963551945149
 20
2.215447403444381
  0
LINE
  5
981
330
1E
100
AcDbEntity
  8
IMAGE
100
AcDbLine
 10
0.4244122422829247
 20
2.176401437530357
 30
0.0
 11
0.4244122422829247
 21
2.187557427791506
 31
0.0
  0
LINE
  5
982
330
1E
100
AcDbEntity
  8
IMAGE
100
AcDbLine
 10
0.4244122422829247
 20
2.187557427791506
 30
0.0
 11
0.3954281293713358
 21
2.170823442399781
 31
0.0
  0
LINE
  5
983
330
1E
100
AcDbEntity
  8
IMAGE
100
AcDbLine
 10
0.3954281293713358
 20
2.193135422922082
 30
0.0
 11
0.3954281293713358
 21
2.204291413183231
 31
0.0
  0
LINE
  5
984
330
1E
100
AcDbEntity
  8
IMAGE
100
AcDbLine
 10
0.4244122422829247
 20
2.209869408313806
 30
0.0
 11
0.3954281293713358
 21
2.193135422922082
 31
0.0
  0
LINE
  5
985
330
1E
100
AcDbEntity
  8
IMAGE
100
AcDbLine
 10
0.4244122422829247
 20
2.221025398574957
 30
0.0
 11
0.4244122422829247
 21
2.209869408313806
 31
0.0
  0
LINE
  5
986
330
1E
100
AcDbEntity
  8
IMAGE
100
AcDbLine
 10
0.3954281293713358
 20
2.204291413183231
 30
0.0
 11
0.4244122422829247
 21
2.221025398574957
 31
0.0
  0
LINE
  5
987
330
1E
100
AcDbEntity
  8
IMAGE
100
AcDbLine
 10
0.3954281293713358
 20
2.170823442399781
 30
0.0
 11
0.3954281293713358
 21
2.15966745213863
 31
0.0
  0
LINE
  5
988
330
1E
100
AcDbEntity
  8
IMAGE
100
AcDbLine
 10
0.3954281293713358
 20
2.15966745213863
 30
0.0
 11
0.4244122422829247
 21
2.176401437530357
 31
0.0
  0
ARC
  5
989
330
1E
100
AcDbEntity
  8
IMAGE
100
AcDbCircle
 10
0.1377407603738963
 20
2.059221414335987
 30
0.0
 40
0.0232886316589077
100
AcDbArc
 50
46.0838990695835
 51
82.55130569789532
  0
ARC
  5
98A
330
1E
100
AcDbEntity
  8
IMAGE
100
AcDbCircle
 10
0.1367590383834765
 20
2.04771572586858
 30
0.0
 40
0.0348283507958353
100
AcDbArc
 50
83.40372561197749
 51
111.2144796234392
  0
ARC
  5
98B
330
1E
100
AcDbEntity
  8
IMAGE
100
AcDbCircle
 10
0.1469006877462204
 20
2.02021757387429
 30
0.0
 40
0.0641347963960499
100
AcDbArc
 50
110.7712660576283
 51
129.228733942406
  0
ARC
  5
98C
330
1E
100
AcDbEntity
  8
IMAGE
100
AcDbCircle
 10
0.1685111692957442
 20
1.99271942187982
 30
0.0
 40
0.0991046068665985
100
AcDbArc
 50
128.8527989703402
 51
142.6420334605668
  0
ARC
  5
98D
330
1E
100
AcDbEntity
  8
IMAGE
100
AcDbCircle
 10
0.1827785159538964
 20
1.981213733412623
 30
0.0
 40
0.1174277340702094
100
AcDbArc
 50
142.4038834799889
 51
154.7128627122494
  0
LINE
  5
98E
330
1E
100
AcDbEntity
  8
IMAGE
100
AcDbLine
 10
0.0766028873439106
 20
2.031373564135406
 30
0.0
 11
0.0766028873439106
 21
1.964437622568508
 31
0.0
  0
ARC
  5
98F
330
1E
100
AcDbEntity
  8
IMAGE
100
AcDbCircle
 10
0.0927559820781365
 20
1.981213733412476
 30
0.0
 40
0.0232886316588581
100
AcDbArc
 50
226.0838990695254
 51
262.5513056978397
  0
ARC
  5
990
330
1E
100
AcDbEntity
  8
IMAGE
100
AcDbCircle
 10
0.0937377040685572
 20
1.992719421880001
 30
0.0
 40
0.0348283507959027
100
AcDbArc
 50
263.4037256119618
 51
270.9970524510551
  0
LINE
  5
991
330
1E
100
AcDbEntity
  8
IMAGE
100
AcDbLine
 10
0.153893855108139
 20
2.036164829814962
 30
0.0
 11
0.153893855108139
 21
2.075997525180006
 31
0.0
  0
LINE
  5
992
330
1E
100
AcDbEntity
  8
IMAGE
100
AcDbLine
 10
0.1487921456013508
 20
1.950336158950285
 30
0.0
 11
0.0379574034618111
 21
1.886345690740458
 31
0.0
  0
LINE
  5
993
330
1E
100
AcDbEntity
  8
IMAGE
100
AcDbLine
 10
0.7671198880286481
 20
2.307327847488101
 30
0.0
 11
0.2033771615559008
 21
1.981850832605364
 31
0.0
  0
LINE
  5
994
330
1E
100
AcDbEntity
  8
IMAGE
100
AcDbLine
 10
0.8851517040928822
 20
0.9759973163832098
 30
0.0
 11
0.8851517040928822
 21
1.565873610893386
 31
0.0
  0
LINE
  5
995
330
1E
100
AcDbEntity
  8
IMAGE
100
AcDbLine
 10
0.8851517040928822
 20
1.565873610893386
 30
0.0
 11
1.28240517159473
 21
1.79522800729209
 31
0.0
  0
POLYLINE
  5
996
330
1E
100
AcDbEntity
  8
IMAGE
100
AcDb2dPolyline
 66
     1
 10
0.0
 20
0.0
 30
0.0
 70
     4
 40
0.0234375
 41
0.0234375
 75
     6
  0
VERTEX
  5
997
330
996
100
AcDbEntity
  8
IMAGE
100
AcDbVertex
100
AcDb2dVertex
 10
1.169158907274407
 20
1.729845246102032
 30
0.0
 70
    16
  0
VERTEX
  5
998
330
996
100
AcDbEntity
  8
IMAGE
100
AcDbVertex
100
AcDb2dVertex
 10
1.169158907274407
 20
1.729845246102032
 30
0.0
 70
     8
  0
VERTEX
  5
999
330
996
100
AcDbEntity
  8
IMAGE
100
AcDbVertex
100
AcDb2dVertex
 10
1.132268109736883
 20
1.75260754909679
 30
0.0
 70
     8
  0
VERTEX
  5
99A
330
996
100
AcDbEntity
  8
IMAGE
100
AcDbVertex
100
AcDb2dVertex
 10
1.101481599423129
 20
1.770879307920205
 30
0.0
 70
     8
  0
VERTEX
  5
99B
330
996
100
AcDbEntity
  8
IMAGE
100
AcDbVertex
100
AcDb2dVertex
 10
1.075885380703661
 20
1.785359216629649
 30
0.0
 70
     8
  0
VERTEX
  5
99C
330
996
100
AcDbEntity
  8
IMAGE
100
AcDbVertex
100
AcDb2dVertex
 10
1.054565457948998
 20
1.7967459692825
 30
0.0
 70
     8
  0
VERTEX
  5
99D
330
996
100
AcDbEntity
  8
IMAGE
100
AcDbVertex
100
AcDb2dVertex
 10
1.036607835529656
 20
1.805738259936139
 30
0.0
 70
     8
  0
VERTEX
  5
99E
330
996
100
AcDbEntity
  8
IMAGE
100
AcDbVertex
100
AcDb2dVertex
 10
1.021098517816148
 20
1.813034782647939
 30
0.0
 70
     8
  0
VERTEX
  5
99F
330
996
100
AcDbEntity
  8
IMAGE
100
AcDbVertex
100
AcDb2dVertex
 10
1.007123509178994
 20
1.819334231475276
 30
0.0
 70
     8
  0
VERTEX
  5
9A0
330
996
100
AcDbEntity
  8
IMAGE
100
AcDbVertex
100
AcDb2dVertex
 10
0.9937688139887104
 20
1.82533530047553
 30
0.0
 70
     8
  0
VERTEX
  5
9A1
330
996
100
AcDbEntity
  8
IMAGE
100
AcDbVertex
100
AcDb2dVertex
 10
0.9802822249022904
 20
1.831611894827202
 30
0.0
 70
     8
  0
VERTEX
  5
9A2
330
996
100
AcDbEntity
  8
IMAGE
100
AcDbVertex
100
AcDb2dVertex
 10
0.9665586877226459
 20
1.8382387641933
 30
0.0
 70
     8
  0
VERTEX
  5
9A3
330
996
100
AcDbEntity
  8
IMAGE
100
AcDbVertex
100
AcDb2dVertex
 10
0.9526549365391652
 20
1.845165869357962
 30
0.0
 70
     8
  0
VERTEX
  5
9A4
330
996
100
AcDbEntity
  8
IMAGE
100
AcDbVertex
100
AcDb2dVertex
 10
0.9386277054412364
 20
1.852343171105321
 30
0.0
 70
     8
  0
VERTEX
  5
9A5
330
996
100
AcDbEntity
  8
IMAGE
100
AcDbVertex
100
AcDb2dVertex
 10
0.9245337285182504
 20
1.859720630219511
 30
0.0
 70
     8
  0
VERTEX
  5
9A6
330
996
100
AcDbEntity
  8
IMAGE
100
AcDbVertex
100
AcDb2dVertex
 10
0.9104297398595946
 20
1.86724820748467
 30
0.0
 70
     8
  0
VERTEX
  5
9A7
330
996
100
AcDbEntity
  8
IMAGE
100
AcDbVertex
100
AcDb2dVertex
 10
0.8963724735546581
 20
1.87487586368493
 30
0.0
 70
     8
  0
VERTEX
  5
9A8
330
996
100
AcDbEntity
  8
IMAGE
100
AcDbVertex
100
AcDb2dVertex
 10
0.8824186636928299
 20
1.882553559604429
 30
0.0
 70
     8
  0
VERTEX
  5
9A9
330
996
100
AcDbEntity
  8
IMAGE
100
AcDbVertex
100
AcDb2dVertex
 10
0.8686333876204006
 20
1.890226252059569
 30
0.0
 70
     8
  0
VERTEX
  5
9AA
330
996
100
AcDbEntity
  8
IMAGE
100
AcDbVertex
100
AcDb2dVertex
 10
0.8551150957112625
 20
1.897818881995844
 30
0.0
 70
     8
  0
VERTEX
  5
9AB
330
996
100
AcDbEntity
  8
IMAGE
100
AcDbVertex
100
AcDb2dVertex
 10
0.8419705815962101
 20
1.905251386391014
 30
0.0
 70
     8
  0
VERTEX
  5
9AC
330
996
100
AcDbEntity
  8
IMAGE
100
AcDbVertex
100
AcDb2dVertex
 10
0.8293066389060381
 20
1.91244370222284
 30
0.0
 70
     8
  0
VERTEX
  5
9AD
330
996
100
AcDbEntity
  8
IMAGE
100
AcDbVertex
100
AcDb2dVertex
 10
0.817230061271541
 20
1.919315766469084
 30
0.0
 70
     8
  0
VERTEX
  5
9AE
330
996
100
AcDbEntity
  8
IMAGE
100
AcDbVertex
100
AcDb2dVertex
 10
0.8058476423235125
 20
1.925787516107506
 30
0.0
 70
     8
  0
VERTEX
  5
9AF
330
996
100
AcDbEntity
  8
IMAGE
100
AcDbVertex
100
AcDb2dVertex
 10
0.7952661756927473
 20
1.931778888115867
 30
0.0
 70
     8
  0
VERTEX
  5
9B0
330
996
100
AcDbEntity
  8
IMAGE
100
AcDbVertex
100
AcDb2dVertex
 10
0.7855924550100398
 20
1.93720981947193
 30
0.0
 70
     8
  0
VERTEX
  5
9B1
330
996
100
AcDbEntity
  8
IMAGE
100
AcDbVertex
100
AcDb2dVertex
 10
0.7768843268182107
 20
1.94204583855997
 30
0.0
 70
     8
  0
VERTEX
  5
9B2
330
996
100
AcDbEntity
  8
IMAGE
100
AcDbVertex
100
AcDb2dVertex
 10
0.7690038493081906
 20
1.946434839390323
 30
0.0
 70
     8
  0
VERTEX
  5
9B3
330
996
100
AcDbEntity
  8
IMAGE
100
AcDbVertex
100
AcDb2dVertex
 10
0.7617641335829362
 20
1.950570307379842
 30
0.0
 70
     8
  0
VERTEX
  5
9B4
330
996
100
AcDbEntity
  8
IMAGE
100
AcDbVertex
100
AcDb2dVertex
 10
0.7549782907454051
 20
1.954645727945378
 30
0.0
 70
     8
  0
VERTEX
  5
9B5
330
996
100
AcDbEntity
  8
IMAGE
100
AcDbVertex
100
AcDb2dVertex
 10
0.7484594318985547
 20
1.958854586503783
 30
0.0
 70
     8
  0
VERTEX
  5
9B6
330
996
100
AcDbEntity
  8
IMAGE
100
AcDbVertex
100
AcDb2dVertex
 10
0.7420206681453401
 20
1.963390368471908
 30
0.0
 70
     8
  0
VERTEX
  5
9B7
330
996
100
AcDbEntity
  8
IMAGE
100
AcDbVertex
100
AcDb2dVertex
 10
0.7354751105887197
 20
1.968446559266604
 30
0.0
 70
     8
  0
VERTEX
  5
9B8
330
996
100
AcDbEntity
  8
IMAGE
100
AcDbVertex
100
AcDb2dVertex
 10
0.72863587033165
 20
1.974216644304724
 30
0.0
 70
     8
  0
VERTEX
  5
9B9
330
996
100
AcDbEntity
  8
IMAGE
100
AcDbVertex
100
AcDb2dVertex
 10
0.7213805796398152
 20
1.980850741579931
 30
0.0
 70
     8
  0
VERTEX
  5
9BA
330
996
100
AcDbEntity
  8
IMAGE
100
AcDbVertex
100
AcDb2dVertex
 10
0.7138449554298046
 20
1.988325499393137
 30
0.0
 70
     8
  0
VERTEX
  5
9BB
330
996
100
AcDbEntity
  8
IMAGE
100
AcDbVertex
100
AcDb2dVertex
 10
0.7062292357809339
 20
1.996574198622062
 30
0.0
 70
     8
  0
VERTEX
  5
9BC
330
996
100
AcDbEntity
  8
IMAGE
100
AcDbVertex
100
AcDb2dVertex
 10
0.6987336587725182
 20
2.00553012014443
 30
0.0
 70
     8
  0
VERTEX
  5
9BD
330
996
100
AcDbEntity
  8
IMAGE
100
AcDbVertex
100
AcDb2dVertex
 10
0.691558462483874
 20
2.015126544837964
 30
0.0
 70
     8
  0
VERTEX
  5
9BE
330
996
100
AcDbEntity
  8
IMAGE
100
AcDbVertex
100
AcDb2dVertex
 10
0.6849038849943164
 20
2.025296753580383
 30
0.0
 70
     8
  0
VERTEX
  5
9BF
330
996
100
AcDbEntity
  8
IMAGE
100
AcDbVertex
100
AcDb2dVertex
 10
0.678970164383161
 20
2.035974027249417
 30
0.0
 70
     8
  0
VERTEX
  5
9C0
330
996
100
AcDbEntity
  8
IMAGE
100
AcDbVertex
100
AcDb2dVertex
 10
0.6739575387297263
 20
2.047091646722781
 30
0.0
 70
     8
  0
VERTEX
  5
9C1
330
996
100
AcDbEntity
  8
IMAGE
100
AcDbVertex
100
AcDb2dVertex
 10
0.6700128492979279
 20
2.058571773045462
 30
0.0
 70
     8
  0
VERTEX
  5
9C2
330
996
100
AcDbEntity
  8
IMAGE
100
AcDbVertex
100
AcDb2dVertex
 10
0.6670693500900971
 20
2.070292087931488
 30
0.0
 70
     8
  0
VERTEX
  5
9C3
330
996
100
AcDbEntity
  8
IMAGE
100
AcDbVertex
100
AcDb2dVertex
 10
0.6650068982931652
 20
2.082119153262146
 30
0.0
 70
     8
  0
VERTEX
  5
9C4
330
996
100
AcDbEntity
  8
IMAGE
100
AcDbVertex
100
AcDb2dVertex
 10
0.6637053510940678
 20
2.093919530918725
 30
0.0
 70
     8
  0
VERTEX
  5
9C5
330
996
100
AcDbEntity
  8
IMAGE
100
AcDbVertex
100
AcDb2dVertex
 10
0.6630445656797353
 20
2.105559782782512
 30
0.0
 70
     8
  0
VERTEX
  5
9C6
330
996
100
AcDbEntity
  8
IMAGE
100
AcDbVertex
100
AcDb2dVertex
 10
0.6629043992371022
 20
2.116906470734795
 30
0.0
 70
     8
  0
VERTEX
  5
9C7
330
996
100
AcDbEntity
  8
IMAGE
100
AcDbVertex
100
AcDb2dVertex
 10
0.6631647089531008
 20
2.127826156656864
 30
0.0
 70
     8
  0
VERTEX
  5
9C8
330
996
100
AcDbEntity
  8
IMAGE
100
AcDbVertex
100
AcDb2dVertex
 10
0.663705352014663
 20
2.138185402430005
 30
0.0
 70
     8
  0
VERTEX
  5
9C9
330
996
100
AcDbEntity
  8
IMAGE
100
AcDbVertex
100
AcDb2dVertex
 10
0.6644184223663317
 20
2.147911929078496
 30
0.0
 70
     8
  0
VERTEX
  5
9CA
330
996
100
AcDbEntity
  8
IMAGE
100
AcDbVertex
100
AcDb2dVertex
 10
0.6652449609830846
 20
2.157178094198554
 30
0.0
 70
     8
  0
VERTEX
  5
9CB
330
996
100
AcDbEntity
  8
IMAGE
100
AcDbVertex
100
AcDb2dVertex
 10
0.6661382455975069
 20
2.166217414529386
 30
0.0
 70
     8
  0
VERTEX
  5
9CC
330
996
100
AcDbEntity
  8
IMAGE
100
AcDbVertex
100
AcDb2dVertex
 10
0.6670515539421862
 20
2.175263406810199
 30
0.0
 70
     8
  0
VERTEX
  5
9CD
330
996
100
AcDbEntity
  8
IMAGE
100
AcDbVertex
100
AcDb2dVertex
 10
0.6679381637497075
 20
2.184549587780201
 30
0.0
 70
     8
  0
VERTEX
  5
9CE
330
996
100
AcDbEntity
  8
IMAGE
100
AcDbVertex
100
AcDb2dVertex
 10
0.6687513527526577
 20
2.194309474178593
 30
0.0
 70
     8
  0
VERTEX
  5
9CF
330
996
100
AcDbEntity
  8
IMAGE
100
AcDbVertex
100
AcDb2dVertex
 10
0.6694443986836243
 20
2.204776582744587
 30
0.0
 70
     8
  0
VERTEX
  5
9D0
330
996
100
AcDbEntity
  8
IMAGE
100
AcDbVertex
100
AcDb2dVertex
 10
0.6699705792751916
 20
2.216184430217385
 30
0.0
 70
     8
  0
VERTEX
  5
9D1
330
996
100
AcDbEntity
  8
IMAGE
100
AcDbVertex
100
AcDb2dVertex
 10
0.6702831722887162
 20
2.228686470450289
 30
0.0
 70
     8
  0
VERTEX
  5
9D2
330
996
100
AcDbEntity
  8
IMAGE
100
AcDbVertex
100
AcDb2dVertex
 10
0.6703354556006263
 20
2.242115905752958
 30
0.0
 70
     8
  0
VERTEX
  5
9D3
330
996
100
AcDbEntity
  8
IMAGE
100
AcDbVertex
100
AcDb2dVertex
 10
0.6700807071161208
 20
2.256225875549147
 30
0.0
 70
     8
  0
VERTEX
  5
9D4
330
996
100
AcDbEntity
  8
IMAGE
100
AcDbVertex
100
AcDb2dVertex
 10
0.669472204740397
 20
2.270769519262611
 30
0.0
 70
     8
  0
VERTEX
  5
9D5
330
996
100
AcDbEntity
  8
IMAGE
100
AcDbVertex
100
AcDb2dVertex
 10
0.6684632263786537
 20
2.285499976317103
 30
0.0
 70
     8
  0
VERTEX
  5
9D6
330
996
100
AcDbEntity
  8
IMAGE
100
AcDbVertex
100
AcDb2dVertex
 10
0.667007049936089
 20
2.300170386136375
 30
0.0
 70
     8
  0
VERTEX
  5
9D7
330
996
100
AcDbEntity
  8
IMAGE
100
AcDbVertex
100
AcDb2dVertex
 10
0.6650569533178992
 20
2.314533888144183
 30
0.0
 70
     8
  0
VERTEX
  5
9D8
330
996
100
AcDbEntity
  8
IMAGE
100
AcDbVertex
100
AcDb2dVertex
 10
0.6625662144292832
 20
2.328343621764281
 30
0.0
 70
     8
  0
VERTEX
  5
9D9
330
996
100
AcDbEntity
  8
IMAGE
100
AcDbVertex
100
AcDb2dVertex
 10
0.6595070225098017
 20
2.341396093822637
 30
0.0
 70
     8
  0
VERTEX
  5
9DA
330
996
100
AcDbEntity
  8
IMAGE
100
AcDbVertex
100
AcDb2dVertex
 10
0.6559272121364553
 20
2.353661280754075
 30
0.0
 70
     8
  0
VERTEX
  5
9DB
330
996
100
AcDbEntity
  8
IMAGE
100
AcDbVertex
100
AcDb2dVertex
 10
0.6518935292206099
 20
2.365152526395636
 30
0.0
 70
     8
  0
VERTEX
  5
9DC
330
996
100
AcDbEntity
  8
IMAGE
100
AcDbVertex
100
AcDb2dVertex
 10
0.6474727196736297
 20
2.37588317458436
 30
0.0
 70
     8
  0
VERTEX
  5
9DD
330
996
100
AcDbEntity
  8
IMAGE
100
AcDbVertex
100
AcDb2dVertex
 10
0.642731529406877
 20
2.385866569157287
 30
0.0
 70
     8
  0
VERTEX
  5
9DE
330
996
100
AcDbEntity
  8
IMAGE
100
AcDbVertex
100
AcDb2dVertex
 10
0.6377367043317186
 20
2.395116053951455
 30
0.0
 70
     8
  0
VERTEX
  5
9DF
330
996
100
AcDbEntity
  8
IMAGE
100
AcDbVertex
100
AcDb2dVertex
 10
0.6325549903595161
 20
2.403644972803906
 30
0.0
 70
     8
  0
VERTEX
  5
9E0
330
996
100
AcDbEntity
  8
IMAGE
100
AcDbVertex
100
AcDb2dVertex
 10
0.6272531334016352
 20
2.411466669551678
 30
0.0
 70
     8
  0
VERTEX
  5
9E1
330
996
100
AcDbEntity
  8
IMAGE
100
AcDbVertex
100
AcDb2dVertex
 10
0.6218934296563994
 20
2.418617839699441
 30
0.0
 70
     8
  0
VERTEX
  5
9E2
330
996
100
AcDbEntity
  8
IMAGE
100
AcDbVertex
100
AcDb2dVertex
 10
0.616520376469973
 20
2.425228585422376
 30
0.0
 70
     8
  0
VERTEX
  5
9E3
330
996
100
AcDbEntity
  8
IMAGE
100
AcDbVertex
100
AcDb2dVertex
 10
0.6111740214754811
 20
2.431452360563294
 30
0.0
 70
     8
  0
VERTEX
  5
9E4
330
996
100
AcDbEntity
  8
IMAGE
100
AcDbVertex
100
AcDb2dVertex
 10
0.6058944123060482
 20
2.437442618965005
 30
0.0
 70
     8
  0
VERTEX
  5
9E5
330
996
100
AcDbEntity
  8
IMAGE
100
AcDbVertex
100
AcDb2dVertex
 10
0.6007215965947968
 20
2.443352814470321
 30
0.0
 70
     8
  0
VERTEX
  5
9E6
330
996
100
AcDbEntity
  8
IMAGE
100
AcDbVertex
100
AcDb2dVertex
 10
0.5956956219748531
 20
2.449336400922051
 30
0.0
 70
     8
  0
VERTEX
  5
9E7
330
996
100
AcDbEntity
  8
IMAGE
100
AcDbVertex
100
AcDb2dVertex
 10
0.5908565360793406
 20
2.455546832163009
 30
0.0
 70
     8
  0
VERTEX
  5
9E8
330
996
100
AcDbEntity
  8
IMAGE
100
AcDbVertex
100
AcDb2dVertex
 10
0.5862443865413827
 20
2.462137562036001
 30
0.0
 70
     8
  0
VERTEX
  5
9E9
330
996
100
AcDbEntity
  8
IMAGE
100
AcDbVertex
100
AcDb2dVertex
 10
0.5818936588276334
 20
2.46922201294613
 30
0.0
 70
     8
  0
VERTEX
  5
9EA
330
996
100
AcDbEntity
  8
IMAGE
100
AcDbVertex
100
AcDb2dVertex
 10
0.5778165897388528
 20
2.476753481547651
 30
0.0
 70
     8
  0
VERTEX
  5
9EB
330
996
100
AcDbEntity
  8
IMAGE
100
AcDbVertex
100
AcDb2dVertex
 10
0.5740198539093316
 20
2.48464523305711
 30
0.0
 70
     8
  0
VERTEX
  5
9EC
330
996
100
AcDbEntity
  8
IMAGE
100
AcDbVertex
100
AcDb2dVertex
 10
0.5705101259733576
 20
2.492810532691051
 30
0.0
 70
     8
  0
VERTEX
  5
9ED
330
996
100
AcDbEntity
  8
IMAGE
100
AcDbVertex
100
AcDb2dVertex
 10
0.5672940805652207
 20
2.50116264566602
 30
0.0
 70
     8
  0
VERTEX
  5
9EE
330
996
100
AcDbEntity
  8
IMAGE
100
AcDbVertex
100
AcDb2dVertex
 10
0.5643783923192114
 20
2.509614837198563
 30
0.0
 70
     8
  0
VERTEX
  5
9EF
330
996
100
AcDbEntity
  8
IMAGE
100
AcDbVertex
100
AcDb2dVertex
 10
0.5617697358696168
 20
2.518080372505224
 30
0.0
 70
     8
  0
VERTEX
  5
9F0
330
996
100
AcDbEntity
  8
IMAGE
100
AcDbVertex
100
AcDb2dVertex
 10
0.5594747858507283
 20
2.526472516802547
 30
0.0
 70
     8
  0
VERTEX
  5
9F1
330
996
100
AcDbEntity
  8
IMAGE
100
AcDbVertex
100
AcDb2dVertex
 10
0.5575013293071143
 20
2.53471676714197
 30
0.0
 70
     8
  0
VERTEX
  5
9F2
330
996
100
AcDbEntity
  8
IMAGE
100
AcDbVertex
100
AcDb2dVertex
 10
0.5558616029244617
 20
2.542787547914482
 30
0.0
 70
     8
  0
VERTEX
  5
9F3
330
996
100
AcDbEntity
  8
IMAGE
100
AcDbVertex
100
AcDb2dVertex
 10
0.5545689557987377
 20
2.550671515345966
 30
0.0
 70
     8
  0
VERTEX
  5
9F4
330
996
100
AcDbEntity
  8
IMAGE
100
AcDbVertex
100
AcDb2dVertex
 10
0.5536367370259088
 20
2.558355325662305
 30
0.0
 70
     8
  0
VERTEX
  5
9F5
330
996
100
AcDbEntity
  8
IMAGE
100
AcDbVertex
100
AcDb2dVertex
 10
0.5530782957019423
 20
2.565825635089378
 30
0.0
 70
     8
  0
VERTEX
  5
9F6
330
996
100
AcDbEntity
  8
IMAGE
100
AcDbVertex
100
AcDb2dVertex
 10
0.5529069809228063
 20
2.57306909985307
 30
0.0
 70
     8
  0
VERTEX
  5
9F7
330
996
100
AcDbEntity
  8
IMAGE
100
AcDbVertex
100
AcDb2dVertex
 10
0.5531361417844663
 20
2.580072376179261
 30
0.0
 70
     8
  0
VERTEX
  5
9F8
330
996
100
AcDbEntity
  8
IMAGE
100
AcDbVertex
100
AcDb2dVertex
 10
0.5537791273828896
 20
2.586822120293833
 30
0.0
 70
     8
  0
VERTEX
  5
9F9
330
996
100
AcDbEntity
  8
IMAGE
100
AcDbVertex
100
AcDb2dVertex
 10
0.5548437246907243
 20
2.593321668171776
 30
0.0
 70
     8
  0
VERTEX
  5
9FA
330
996
100
AcDbEntity
  8
IMAGE
100
AcDbVertex
100
AcDb2dVertex
 10
0.5563154721873396
 20
2.599641074784514
 30
0.0
 70
     8
  0
VERTEX
  5
9FB
330
996
100
AcDbEntity
  8
IMAGE
100
AcDbVertex
100
AcDb2dVertex
 10
0.5581743462287836
 20
2.605867074852583
 30
0.0
 70
     8
  0
VERTEX
  5
9FC
330
996
100
AcDbEntity
  8
IMAGE
100
AcDbVertex
100
AcDb2dVertex
 10
0.5604003231711073
 20
2.612086403096514
 30
0.0
 70
     8
  0
VERTEX
  5
9FD
330
996
100
AcDbEntity
  8
IMAGE
100
AcDbVertex
100
AcDb2dVertex
 10
0.5629733793703587
 20
2.618385794236839
 30
0.0
 70
     8
  0
VERTEX
  5
9FE
330
996
100
AcDbEntity
  8
IMAGE
100
AcDbVertex
100
AcDb2dVertex
 10
0.5658734911825896
 20
2.624851982994094
 30
0.0
 70
     8
  0
VERTEX
  5
9FF
330
996
100
AcDbEntity
  8
IMAGE
100
AcDbVertex
100
AcDb2dVertex
 10
0.5690806349638465
 20
2.631571704088812
 30
0.0
 70
     8
  0
VERTEX
  5
A00
330
996
100
AcDbEntity
  8
IMAGE
100
AcDbVertex
100
AcDb2dVertex
 10
0.5725747870701828
 20
2.638631692241524
 30
0.0
 70
     8
  0
VERTEX
  5
A01
330
996
100
AcDbEntity
  8
IMAGE
100
AcDbVertex
100
AcDb2dVertex
 10
0.5763348113754426
 20
2.646098666469641
 30
0.0
 70
     8
  0
VERTEX
  5
A02
330
996
100
AcDbEntity
  8
IMAGE
100
AcDbVertex
100
AcDb2dVertex
 10
0.580335121824672
 20
2.653959282978068
 30
0.0
 70
     8
  0
VERTEX
  5
A03
330
996
100
AcDbEntity
  8
IMAGE
100
AcDbVertex
100
AcDb2dVertex
 10
0.584549019880714
 20
2.66218018226859
 30
0.0
 70
     8
  0
VERTEX
  5
A04
330
996
100
AcDbEntity
  8
IMAGE
100
AcDbVertex
100
AcDb2dVertex
 10
0.5889498070064097
 20
2.670728004842989
 30
0.0
 70
     8
  0
VERTEX
  5
A05
330
996
100
AcDbEntity
  8
IMAGE
100
AcDbVertex
100
AcDb2dVertex
 10
0.5935107846646038
 20
2.67956939120305
 30
0.0
 70
     8
  0
VERTEX
  5
A06
330
996
100
AcDbEntity
  8
IMAGE
100
AcDbVertex
100
AcDb2dVertex
 10
0.5982052543181374
 20
2.688670981850552
 30
0.0
 70
     8
  0
VERTEX
  5
A07
330
996
100
AcDbEntity
  8
IMAGE
100
AcDbVertex
100
AcDb2dVertex
 10
0.6030065174298534
 20
2.697999417287279
 30
0.0
 70
     8
  0
VERTEX
  5
A08
330
996
100
AcDbEntity
  8
IMAGE
100
AcDbVertex
100
AcDb2dVertex
 10
0.6078878754625947
 20
2.707521338015014
 30
0.0
 70
     8
  0
VERTEX
  5
A09
330
996
100
AcDbEntity
  8
IMAGE
100
AcDbVertex
100
AcDb2dVertex
 10
0.6128081682866524
 20
2.717198936600349
 30
0.0
 70
     8
  0
VERTEX
  5
A0A
330
996
100
AcDbEntity
  8
IMAGE
100
AcDbVertex
100
AcDb2dVertex
 10
0.6176683894021054
 20
2.7269766138691
 30
0.0
 70
     8
  0
VERTEX
  5
A0B
330
996
100
AcDbEntity
  8
IMAGE
100
AcDbVertex
100
AcDb2dVertex
 10
0.6223550707164823
 20
2.736794322711892
 30
0.0
 70
     8
  0
VERTEX
  5
A0C
330
996
100
AcDbEntity
  8
IMAGE
100
AcDbVertex
100
AcDb2dVertex
 10
0.6267547441373118
 20
2.74659201601935
 30
0.0
 70
     8
  0
VERTEX
  5
A0D
330
996
100
AcDbEntity
  8
IMAGE
100
AcDbVertex
100
AcDb2dVertex
 10
0.6307539415721211
 20
2.756309646682097
 30
0.0
 70
     8
  0
VERTEX
  5
A0E
330
996
100
AcDbEntity
  8
IMAGE
100
AcDbVertex
100
AcDb2dVertex
 10
0.6342391949284379
 20
2.765887167590761
 30
0.0
 70
     8
  0
VERTEX
  5
A0F
330
996
100
AcDbEntity
  8
IMAGE
100
AcDbVertex
100
AcDb2dVertex
 10
0.6370970361137918
 20
2.775264531635964
 30
0.0
 70
     8
  0
VERTEX
  5
A10
330
996
100
AcDbEntity
  8
IMAGE
100
AcDbVertex
100
AcDb2dVertex
 10
0.639213997035709
 20
2.784381691708332
 30
0.0
 70
     8
  0
VERTEX
  5
A11
330
996
100
AcDbEntity
  8
IMAGE
100
AcDbVertex
100
AcDb2dVertex
 10
0.6404999706635044
 20
2.793188608529079
 30
0.0
 70
     8
  0
VERTEX
  5
A12
330
996
100
AcDbEntity
  8
IMAGE
100
AcDbVertex
100
AcDb2dVertex
 10
0.6409582942136316
 20
2.801675274141772
 30
0.0
 70
     8
  0
VERTEX
  5
A13
330
996
100
AcDbEntity
  8
IMAGE
100
AcDbVertex
100
AcDb2dVertex
 10
0.6406156659643303
 20
2.809841688420569
 30
0.0
 70
     8
  0
VERTEX
  5
A14
330
996
100
AcDbEntity
  8
IMAGE
100
AcDbVertex
100
AcDb2dVertex
 10
0.6394987841938402
 20
2.817687851239627
 30
0.0
 70
     8
  0
VERTEX
  5
A15
330
996
100
AcDbEntity
  8
IMAGE
100
AcDbVertex
100
AcDb2dVertex
 10
0.6376343471804029
 20
2.825213762473101
 30
0.0
 70
     8
  0
VERTEX
  5
A16
330
996
100
AcDbEntity
  8
IMAGE
100
AcDbVertex
100
AcDb2dVertex
 10
0.6350490532022555
 20
2.832419421995151
 30
0.0
 70
     8
  0
VERTEX
  5
A17
330
996
100
AcDbEntity
  8
IMAGE
100
AcDbVertex
100
AcDb2dVertex
 10
0.6317696005376412
 20
2.839304829679931
 30
0.0
 70
     8
  0
VERTEX
  5
A18
330
996
100
AcDbEntity
  8
IMAGE
100
AcDbVertex
100
AcDb2dVertex
 10
0.6278226874647963
 20
2.845869985401598
 30
0.0
 70
     8
  0
VERTEX
  5
A19
330
996
100
AcDbEntity
  8
IMAGE
100
AcDbVertex
100
AcDb2dVertex
 10
0.623243911759964
 20
2.852110441141066
 30
0.0
 70
     8
  0
VERTEX
  5
A1A
330
996
100
AcDbEntity
  8
IMAGE
100
AcDbVertex
100
AcDb2dVertex
 10
0.6181044691913904
 20
2.858003957306262
 30
0.0
 70
     8
  0
VERTEX
  5
A1B
330
996
100
AcDbEntity
  8
IMAGE
100
AcDbVertex
100
AcDb2dVertex
 10
0.6124844550253253
 20
2.863523846411875
 30
0.0
 70
     8
  0
VERTEX
  5
A1C
330
996
100
AcDbEntity
  8
IMAGE
100
AcDbVertex
100
AcDb2dVertex
 10
0.6064639645280181
 20
2.868643420972588
 30
0.0
 70
     8
  0
VERTEX
  5
A1D
330
996
100
AcDbEntity
  8
IMAGE
100
AcDbVertex
100
AcDb2dVertex
 10
0.6001230929657151
 20
2.873335993503085
 30
0.0
 70
     8
  0
VERTEX
  5
A1E
330
996
100
AcDbEntity
  8
IMAGE
100
AcDbVertex
100
AcDb2dVertex
 10
0.5935419356046659
 20
2.877574876518053
 30
0.0
 70
     8
  0
VERTEX
  5
A1F
330
996
100
AcDbEntity
  8
IMAGE
100
AcDbVertex
100
AcDb2dVertex
 10
0.58680058771112
 20
2.881333382532177
 30
0.0
 70
     8
  0
VERTEX
  5
A20
330
996
100
AcDbEntity
  8
IMAGE
100
AcDbVertex
100
AcDb2dVertex
 10
0.5799791445513254
 20
2.88458482406014
 30
0.0
 70
     8
  0
VERTEX
  5
A21
330
996
100
AcDbEntity
  8
IMAGE
100
AcDbVertex
100
AcDb2dVertex
 10
0.5731354527256407
 20
2.887316969371924
 30
0.0
 70
     8
  0
VERTEX
  5
A22
330
996
100
AcDbEntity
  8
IMAGE
100
AcDbVertex
100
AcDb2dVertex
 10
0.5662383641708644
 20
2.889575409758686
 30
0.0
 70
     8
  0
VERTEX
  5
A23
330
996
100
AcDbEntity
  8
IMAGE
100
AcDbVertex
100
AcDb2dVertex
 10
0.5592344821579065
 20
2.891420192266882
 30
0.0
 70
     8
  0
VERTEX
  5
A24
330
996
100
AcDbEntity
  8
IMAGE
100
AcDbVertex
100
AcDb2dVertex
 10
0.5520704099576737
 20
2.892911363942964
 30
0.0
 70
     8
  0
VERTEX
  5
A25
330
996
100
AcDbEntity
  8
IMAGE
100
AcDbVertex
100
AcDb2dVertex
 10
0.544692750841076
 20
2.894108971833385
 30
0.0
 70
     8
  0
VERTEX
  5
A26
330
996
100
AcDbEntity
  8
IMAGE
100
AcDbVertex
100
AcDb2dVertex
 10
0.5370481080790217
 20
2.895073062984601
 30
0.0
 70
     8
  0
VERTEX
  5
A27
330
996
100
AcDbEntity
  8
IMAGE
100
AcDbVertex
100
AcDb2dVertex
 10
0.5290830849424193
 20
2.895863684443064
 30
0.0
 70
     8
  0
VERTEX
  5
A28
330
996
100
AcDbEntity
  8
IMAGE
100
AcDbVertex
100
AcDb2dVertex
 10
0.5207442847021771
 20
2.896540883255227
 30
0.0
 70
     8
  0
VERTEX
  5
A29
330
996
100
AcDbEntity
  8
IMAGE
100
AcDbVertex
100
AcDb2dVertex
 10
0.5120044527742263
 20
2.897156366624452
 30
0.0
 70
     8
  0
VERTEX
  5
A2A
330
996
100
AcDbEntity
  8
IMAGE
100
AcDbVertex
100
AcDb2dVertex
 10
0.5029409031545838
 20
2.897728482381724
 30
0.0
 70
     8
  0
VERTEX
  5
A2B
330
996
100
AcDbEntity
  8
IMAGE
100
AcDbVertex
100
AcDb2dVertex
 10
0.4936570919842858
 20
2.898267238514937
 30
0.0
 70
     8
  0
VERTEX
  5
A2C
330
996
100
AcDbEntity
  8
IMAGE
100
AcDbVertex
100
AcDb2dVertex
 10
0.4842564754043713
 20
2.89878264301198
 30
0.0
 70
     8
  0
VERTEX
  5
A2D
330
996
100
AcDbEntity
  8
IMAGE
100
AcDbVertex
100
AcDb2dVertex
 10
0.4748425095558773
 20
2.899284703860749
 30
0.0
 70
     8
  0
VERTEX
  5
A2E
330
996
100
AcDbEntity
  8
IMAGE
100
AcDbVertex
100
AcDb2dVertex
 10
0.4655186505798437
 20
2.899783429049135
 30
0.0
 70
     8
  0
VERTEX
  5
A2F
330
996
100
AcDbEntity
  8
IMAGE
100
AcDbVertex
100
AcDb2dVertex
 10
0.4563883546173076
 20
2.900288826565032
 30
0.0
 70
     8
  0
VERTEX
  5
A30
330
996
100
AcDbEntity
  8
IMAGE
100
AcDbVertex
100
AcDb2dVertex
 10
0.4475550778093061
 20
2.900810904396331
 30
0.0
 70
     8
  0
VERTEX
  5
A31
330
996
100
AcDbEntity
  8
IMAGE
100
AcDbVertex
100
AcDb2dVertex
 10
0.4390599800554007
 20
2.901380798162792
 30
0.0
 70
     8
  0
VERTEX
  5
A32
330
996
100
AcDbEntity
  8
IMAGE
100
AcDbVertex
100
AcDb2dVertex
 10
0.4306950362892437
 20
2.902114154011642
 30
0.0
 70
     8
  0
VERTEX
  5
A33
330
996
100
AcDbEntity
  8
IMAGE
100
AcDbVertex
100
AcDb2dVertex
 10
0.4221899252030115
 20
2.903147745721976
 30
0.0
 70
     8
  0
VERTEX
  5
A34
330
996
100
AcDbEntity
  8
IMAGE
100
AcDbVertex
100
AcDb2dVertex
 10
0.413274325488878
 20
2.904618347072888
 30
0.0
 70
     8
  0
VERTEX
  5
A35
330
996
100
AcDbEntity
  8
IMAGE
100
AcDbVertex
100
AcDb2dVertex
 10
0.4036779158390198
 20
2.906662731843473
 30
0.0
 70
     8
  0
VERTEX
  5
A36
330
996
100
AcDbEntity
  8
IMAGE
100
AcDbVertex
100
AcDb2dVertex
 10
0.3931303749456116
 20
2.909417673812823
 30
0.0
 70
     8
  0
VERTEX
  5
A37
330
996
100
AcDbEntity
  8
IMAGE
100
AcDbVertex
100
AcDb2dVertex
 10
0.3813613815008292
 20
2.913019946760037
 30
0.0
 70
     8
  0
VERTEX
  5
A38
330
996
100
AcDbEntity
  8
IMAGE
100
AcDbVertex
100
AcDb2dVertex
 10
0.3681006141968481
 20
2.917606324464204
 30
0.0
 70
     8
  0
VERTEX
  5
A39
330
996
100
AcDbEntity
  8
IMAGE
100
AcDbVertex
100
AcDb2dVertex
 10
1.061831956983108
 20
1.797153174367517
 30
0.0
 70
    16
  0
VERTEX
  5
A3A
330
996
100
AcDbEntity
  8
IMAGE
100
AcDbVertex
100
AcDb2dVertex
 10
0.9969014239365918
 20
1.82106528201908
 30
0.0
 70
    16
  0
VERTEX
  5
A3B
330
996
100
AcDbEntity
  8
IMAGE
100
AcDbVertex
100
AcDb2dVertex
 10
0.880709964679526
 20
1.882553554235122
 30
0.0
 70
    16
  0
VERTEX
  5
A3C
330
996
100
AcDbEntity
  8
IMAGE
100
AcDbVertex
100
AcDb2dVertex
 10
0.7747706995022865
 20
1.944041858667
 30
0.0
 70
    16
  0
VERTEX
  5
A3D
330
996
100
AcDbEntity
  8
IMAGE
100
AcDbVertex
100
AcDb2dVertex
 10
0.7337619673715637
 20
1.964537927928457
 30
0.0
 70
    16
  0
VERTEX
  5
A3E
330
996
100
AcDbEntity
  8
IMAGE
100
AcDbVertex
100
AcDb2dVertex
 10
0.6619966530013582
 20
2.04310629544752
 30
0.0
 70
    16
  0
VERTEX
  5
A3F
330
996
100
AcDbEntity
  8
IMAGE
100
AcDbVertex
100
AcDb2dVertex
 10
0.6619966530013582
 20
2.145586770618149
 30
0.0
 70
    16
  0
VERTEX
  5
A40
330
996
100
AcDbEntity
  8
IMAGE
100
AcDbVertex
100
AcDb2dVertex
 10
0.6722488470811863
 20
2.20365903665992
 30
0.0
 70
    16
  0
VERTEX
  5
A41
330
996
100
AcDbEntity
  8
IMAGE
100
AcDbVertex
100
AcDb2dVertex
 10
0.6688314343250479
 20
2.336883664046486
 30
0.0
 70
    16
  0
VERTEX
  5
A42
330
996
100
AcDbEntity
  8
IMAGE
100
AcDbVertex
100
AcDb2dVertex
 10
0.627822702194325
 20
2.418868037739821
 30
0.0
 70
    16
  0
VERTEX
  5
A43
330
996
100
AcDbEntity
  8
IMAGE
100
AcDbVertex
100
AcDb2dVertex
 10
0.5833965573074638
 20
2.4564442023043
 30
0.0
 70
    16
  0
VERTEX
  5
A44
330
996
100
AcDbEntity
  8
IMAGE
100
AcDbVertex
100
AcDb2dVertex
 10
0.5560573878241195
 20
2.528180525258988
 30
0.0
 70
    16
  0
VERTEX
  5
A45
330
996
100
AcDbEntity
  8
IMAGE
100
AcDbVertex
100
AcDb2dVertex
 10
0.5492226065004298
 20
2.58966879747503
 30
0.0
 70
    16
  0
VERTEX
  5
A46
330
996
100
AcDbEntity
  8
IMAGE
100
AcDbVertex
100
AcDb2dVertex
 10
0.5697269504714982
 20
2.634077006603885
 30
0.0
 70
    16
  0
VERTEX
  5
A47
330
996
100
AcDbEntity
  8
IMAGE
100
AcDbVertex
100
AcDb2dVertex
 10
0.6073183140346697
 20
2.705813329558574
 30
0.0
 70
    16
  0
VERTEX
  5
A48
330
996
100
AcDbEntity
  8
IMAGE
100
AcDbVertex
100
AcDb2dVertex
 10
0.6483270461653925
 20
2.787797703251908
 30
0.0
 70
    16
  0
VERTEX
  5
A49
330
996
100
AcDbEntity
  8
IMAGE
100
AcDbVertex
100
AcDb2dVertex
 10
0.6346574835180139
 20
2.849286007683786
 30
0.0
 70
    16
  0
VERTEX
  5
A4A
330
996
100
AcDbEntity
  8
IMAGE
100
AcDbVertex
100
AcDb2dVertex
 10
0.5799791445513254
 20
2.890278178422535
 30
0.0
 70
    16
  0
VERTEX
  5
A4B
330
996
100
AcDbEntity
  8
IMAGE
100
AcDbVertex
100
AcDb2dVertex
 10
0.5253008055846369
 20
2.897110222986912
 30
0.0
 70
    16
  0
VERTEX
  5
A4C
330
996
100
AcDbEntity
  8
IMAGE
100
AcDbVertex
100
AcDb2dVertex
 10
0.4432833413231912
 20
2.900526229161182
 30
0.0
 70
    16
  0
VERTEX
  5
A4D
330
996
100
AcDbEntity
  8
IMAGE
100
AcDbVertex
100
AcDb2dVertex
 10
0.4056919777600197
 20
2.903942267551288
 30
0.0
 70
    16
  0
VERTEX
  5
A4E
330
996
100
AcDbEntity
  8
IMAGE
100
AcDbVertex
100
AcDb2dVertex
 10
0.3681006141968481
 20
2.917606324464204
 30
0.0
 70
    16
  0
SEQEND
  5
A4F
330
996
100
AcDbEntity
  8
IMAGE
  0
LINE
  5
A57
330
1E
100
AcDbEntity
  8
IMAGE
100
AcDbLine
 10
1.812065098721026
 20
0.4408436184791813
 30
0.0
 11
1.812065098721026
 21
1.030719912989358
 31
0.0
  0
LINE
  5
A58
330
1E
100
AcDbEntity
  8
IMAGE
100
AcDbLine
 10
1.812065098721026
 20
0.4408436184791813
 30
0.0
 11
2.209318566222875
 21
0.6701980148778859
 31
0.0
  0
LINE
  5
A59
330
1E
100
AcDbEntity
  8
IMAGE
100
AcDbLine
 10
1.720874008413256
 20
0.4934928190160674
 30
0.0
 11
1.720874008413256
 21
1.083369113526244
 31
0.0
  0
LINE
  5
A5A
330
1E
100
AcDbEntity
  8
IMAGE
100
AcDbLine
 10
2.108531204442016
 20
0.857781318383501
 30
0.0
 11
2.108531204442016
 21
1.047837554003341
 31
0.0
  0
LINE
  5
A5B
330
1E
100
AcDbEntity
  8
IMAGE
100
AcDbLine
 10
2.153861782902327
 20
0.8316096967069185
 30
0.0
 11
2.108531204442016
 21
0.857781318383501
 31
0.0
  0
LINE
  5
A5C
330
1E
100
AcDbEntity
  8
IMAGE
100
AcDbLine
 10
2.153861782902328
 20
0.8316096967069196
 30
0.0
 11
2.153861782902328
 21
1.074009175679924
 31
0.0
  0
LINE
  5
A5D
330
1E
100
AcDbEntity
  8
IMAGE
100
AcDbLine
 10
2.209318566222875
 20
0.6701980148778859
 30
0.0
 11
2.209318566222875
 21
1.260074309388062
 31
0.0
  0
LINE
  5
A5E
330
1E
100
AcDbEntity
  8
IMAGE
100
AcDbLine
 10
1.884951615254656
 20
0.8706942767480281
 30
0.0
 11
1.933042820351307
 21
0.8984597469562334
 31
0.0
  0
LINE
  5
A5F
330
1E
100
AcDbEntity
  8
IMAGE
100
AcDbLine
 10
1.884951615254655
 20
0.769863583139215
 30
0.0
 11
1.933042820351308
 21
0.7976290533474218
 31
0.0
  0
LINE
  5
A60
330
1E
100
AcDbEntity
  8
IMAGE
100
AcDbLine
 10
1.884951615254656
 20
0.8706942767480281
 30
0.0
 11
1.884951615254655
 21
0.769863583139215
 31
0.0
  0
LINE
  5
A61
330
1E
100
AcDbEntity
  8
IMAGE
100
AcDbLine
 10
1.933042820351307
 20
0.8984597469562334
 30
0.0
 11
1.933042820351305
 21
0.7976290533474204
 31
0.0
  0
LINE
  5
A62
330
1E
100
AcDbEntity
  8
IMAGE
100
AcDbLine
 10
1.902511773930871
 20
0.855182379521376
 30
0.0
 11
1.930757307236114
 21
0.8714899457785616
 31
0.0
  0
LINE
  5
A63
330
1E
100
AcDbEntity
  8
IMAGE
100
AcDbLine
 10
1.893667868263039
 20
0.8621974600747391
 30
0.0
 11
1.921913401568278
 21
0.8785050263319241
 31
0.0
  0
LINE
  5
A64
330
1E
100
AcDbEntity
  8
IMAGE
100
AcDbLine
 10
1.893667868263037
 20
0.8258984103755658
 30
0.0
 11
1.921913401568279
 21
0.8422059766327535
 31
0.0
  0
LINE
  5
A65
330
1E
100
AcDbEntity
  8
IMAGE
100
AcDbLine
 10
1.902511773930871
 20
0.855182379521376
 30
0.0
 11
1.893667868263037
 21
0.825898410375567
 31
0.0
  0
LINE
  5
A66
330
1E
100
AcDbEntity
  8
IMAGE
100
AcDbLine
 10
1.902511773930871
 20
0.855182379521376
 30
0.0
 11
1.893667868263039
 21
0.8621974600747391
 31
0.0
  0
LINE
  5
A67
330
1E
100
AcDbEntity
  8
IMAGE
100
AcDbLine
 10
1.930757307236113
 20
0.8714899457785612
 30
0.0
 11
1.921913401568279
 21
0.842205976632751
 31
0.0
  0
LINE
  5
A68
330
1E
100
AcDbEntity
  8
IMAGE
100
AcDbLine
 10
1.930757307236114
 20
0.8714899457785616
 30
0.0
 11
1.921913401568278
 21
0.8785050263319241
 31
0.0
  0
LINE
  5
A69
330
1E
100
AcDbEntity
  8
IMAGE
100
AcDbLine
 10
1.893667868263039
 20
0.8621974600747391
 30
0.0
 11
1.893667868263037
 21
0.7895993606763938
 31
0.0
  0
LINE
  5
A6A
330
1E
100
AcDbEntity
  8
IMAGE
100
AcDbLine
 10
1.90251177393087
 20
0.7825842801230307
 30
0.0
 11
1.930757307236111
 21
0.7988918463802164
 31
0.0
  0
LINE
  5
A6B
330
1E
100
AcDbEntity
  8
IMAGE
100
AcDbLine
 10
1.893667868263037
 20
0.825898410375567
 30
0.0
 11
1.90251177393087
 21
0.7825842801230307
 31
0.0
  0
LINE
  5
A6C
330
1E
100
AcDbEntity
  8
IMAGE
100
AcDbLine
 10
1.90251177393087
 20
0.7825842801230307
 30
0.0
 11
1.893667868263037
 21
0.7895993606763938
 31
0.0
  0
LINE
  5
A6D
330
1E
100
AcDbEntity
  8
IMAGE
100
AcDbLine
 10
1.930757307236111
 20
0.7988918463802164
 30
0.0
 11
1.921913401568279
 21
0.842205976632751
 31
0.0
  0
LINE
  5
A6E
330
1E
100
AcDbEntity
  8
IMAGE
100
AcDbLine
 10
2.075595993193718
 20
0.9639279820715028
 30
0.0
 11
2.063312790877279
 21
0.9736711495067279
 31
0.0
  0
LINE
  5
A6F
330
1E
100
AcDbEntity
  8
IMAGE
100
AcDbLine
 10
2.063312790877279
 20
0.9232558027023243
 30
0.0
 11
2.063312790877279
 21
0.8728404558979168
 31
0.0
  0
LINE
  5
A70
330
1E
100
AcDbEntity
  8
IMAGE
100
AcDbLine
 10
2.075595993193717
 20
0.9639279820715014
 30
0.0
 11
2.063312790877279
 21
0.9232558027023207
 31
0.0
  0
LINE
  5
A71
330
1E
100
AcDbEntity
  8
IMAGE
100
AcDbLine
 10
2.07950207507124
 20
1.003369655264344
 30
0.0
 11
2.07950207507124
 21
0.8618357253150408
 31
0.0
  0
LINE
  5
A72
330
1E
100
AcDbEntity
  8
IMAGE
100
AcDbLine
 10
2.036366085825326
 20
0.9412785844920783
 30
0.0
 11
2.02408288350889
 21
0.9510217519273048
 31
0.0
  0
LINE
  5
A73
330
1E
100
AcDbEntity
  8
IMAGE
100
AcDbLine
 10
2.036366085825326
 20
0.9412785844920783
 30
0.0
 11
2.024082883508889
 21
0.9006064051228989
 31
0.0
  0
LINE
  5
A74
330
1E
100
AcDbEntity
  8
IMAGE
100
AcDbLine
 10
2.02408288350889
 20
0.9510217519273048
 30
0.0
 11
2.024082883508889
 21
0.8501910583184917
 31
0.0
  0
LINE
  5
A75
330
1E
100
AcDbEntity
  8
IMAGE
100
AcDbLine
 10
2.007893599314929
 20
0.96202648251018
 30
0.0
 11
2.007893599314929
 21
0.8204925525608764
 31
0.0
  0
LINE
  5
A76
330
1E
100
AcDbEntity
  8
IMAGE
100
AcDbLine
 10
2.024082883508889
 20
0.9006064051228976
 30
0.0
 11
2.063312790877279
 21
0.9232558027023243
 31
0.0
  0
LINE
  5
A77
330
1E
100
AcDbEntity
  8
IMAGE
100
AcDbLine
 10
2.02408288350889
 20
0.9510217519273048
 30
0.0
 11
2.063312790877279
 21
0.9736711495067279
 31
0.0
  0
LINE
  5
A78
330
1E
100
AcDbEntity
  8
IMAGE
100
AcDbLine
 10
2.024082883508889
 20
0.8501910583184917
 30
0.0
 11
2.063312790877279
 21
0.8728404558979168
 31
0.0
  0
LINE
  5
A79
330
1E
100
AcDbEntity
  8
IMAGE
100
AcDbLine
 10
2.036366085825324
 20
0.9412785844920783
 30
0.0
 11
2.075595993193718
 21
0.9639279820715028
 31
0.0
  0
LINE
  5
A7A
330
1E
100
AcDbEntity
  8
IMAGE
100
AcDbLine
 10
2.007893599314929
 20
0.8204925525608764
 30
0.0
 11
2.07950207507124
 21
0.8618357253150408
 31
0.0
  0
LINE
  5
A7B
330
1E
100
AcDbEntity
  8
IMAGE
100
AcDbLine
 10
2.007893599314929
 20
0.96202648251018
 30
0.0
 11
2.07950207507124
 21
1.003369655264344
 31
0.0
  0
LINE
  5
A7C
330
1E
100
AcDbEntity
  8
IMAGE
100
AcDbLine
 10
1.867521882041572
 20
0.6662912778652315
 30
0.0
 11
1.867521882041572
 21
0.9086907568382365
 31
0.0
  0
LINE
  5
A7D
330
1E
100
AcDbEntity
  8
IMAGE
100
AcDbLine
 10
1.720874008413256
 20
1.083369113526244
 30
0.0
 11
2.118127475915105
 21
1.312723509924948
 31
0.0
  0
LINE
  5
A7E
330
1E
100
AcDbEntity
  8
IMAGE
100
AcDbLine
 10
1.812065098721026
 20
1.030719912989358
 30
0.0
 11
2.209318566222875
 21
1.260074309388062
 31
0.0
  0
LINE
  5
A7F
330
1E
100
AcDbEntity
  8
IMAGE
100
AcDbLine
 10
1.867521882041572
 20
0.7186345212183952
 30
0.0
 11
2.108531204442016
 21
0.857781318383501
 31
0.0
  0
LINE
  5
A80
330
1E
100
AcDbEntity
  8
IMAGE
100
AcDbLine
 10
1.867521882041572
 20
0.9086907568382365
 30
0.0
 11
2.153861782902327
 21
1.074009175679924
 31
0.0
  0
LINE
  5
A81
330
1E
100
AcDbEntity
  8
IMAGE
100
AcDbLine
 10
1.867521882041572
 20
0.6662912778652315
 30
0.0
 11
2.153861782902327
 21
0.8316096967069185
 31
0.0
  0
LINE
  5
A83
330
1E
100
AcDbEntity
  8
IMAGE
100
AcDbLine
 10
1.004094501151575
 20
2.734200950587853
 30
0.0
 11
1.100708210856854
 21
2.678420999282102
 31
0.0
  0
LINE
  5
A84
330
1E
100
AcDbEntity
  8
IMAGE
100
AcDbLine
 10
1.046874602269299
 20
2.600137108835916
 30
0.0
 11
1.042739985033705
 21
2.600329067454053
 31
0.0
  0
LINE
  5
A85
330
1E
100
AcDbEntity
  8
IMAGE
100
AcDbLine
 10
1.085520086151397
 20
2.622449089358214
 30
0.0
 11
1.046874602269299
 21
2.600137108835916
 31
0.0
  0
LINE
  5
A86
330
1E
100
AcDbEntity
  8
IMAGE
100
AcDbLine
 10
1.081385468915804
 20
2.622641047976352
 30
0.0
 11
1.085520086151397
 21
2.622449089358214
 31
0.0
  0
LINE
  5
A87
330
1E
100
AcDbEntity
  8
IMAGE
100
AcDbLine
 10
1.081385468915804
 20
2.578017086931755
 30
0.0
 11
1.085520086151397
 21
2.622449089358214
 31
0.0
  0
LINE
  5
A88
330
1E
100
AcDbEntity
  8
IMAGE
100
AcDbLine
 10
1.042739985033705
 20
2.555705106409454
 30
0.0
 11
1.046874602269299
 21
2.600137108835916
 31
0.0
  0
LINE
  5
A89
330
1E
100
AcDbEntity
  8
IMAGE
100
AcDbLine
 10
1.054844824355752
 20
2.51275431172184
 30
0.0
 11
1.042739985033705
 21
2.511081145364853
 31
0.0
  0
LINE
  5
A8A
330
1E
100
AcDbEntity
  8
IMAGE
100
AcDbLine
 10
1.054844824355752
 20
2.51275431172184
 30
0.0
 11
1.09349030823785
 21
2.535066292244139
 31
0.0
  0
LINE
  5
A8B
330
1E
100
AcDbEntity
  8
IMAGE
100
AcDbLine
 10
1.081385468915804
 20
2.578017086931755
 30
0.0
 11
1.09349030823785
 21
2.535066292244139
 31
0.0
  0
LINE
  5
A8C
330
1E
100
AcDbEntity
  8
IMAGE
100
AcDbLine
 10
1.042739985033705
 20
2.555705106409454
 30
0.0
 11
1.054844824355752
 21
2.51275431172184
 31
0.0
  0
LINE
  5
A8D
330
1E
100
AcDbEntity
  8
IMAGE
100
AcDbLine
 10
1.100708210856854
 20
2.678420999282102
 30
0.0
 11
1.100708210856854
 21
2.499925155103703
 31
0.0
  0
LINE
  5
A8E
330
1E
100
AcDbEntity
  8
IMAGE
100
AcDbLine
 10
1.100708210856854
 20
2.499925155103703
 30
0.0
 11
0.8516420376928179
 21
2.356814897091904
 31
0.0
  0
LINE
  5
A8F
330
1E
100
AcDbEntity
  8
IMAGE
100
AcDbLine
 10
1.081385468915804
 20
2.622641047976352
 30
0.0
 11
1.042739985033705
 21
2.600329067454053
 31
0.0
  0
LINE
  5
A90
330
1E
100
AcDbEntity
  8
IMAGE
100
AcDbLine
 10
1.042739985033705
 20
2.600329067454053
 30
0.0
 11
1.042739985033705
 21
2.511081145364853
 31
0.0
  0
LINE
  5
A91
330
1E
100
AcDbEntity
  8
IMAGE
100
AcDbLine
 10
1.023417243092657
 20
2.589173077192902
 30
0.0
 11
1.023417243092657
 21
2.522237135626004
 31
0.0
  0
LINE
  5
A92
330
1E
100
AcDbEntity
  8
IMAGE
100
AcDbLine
 10
1.023417243092657
 20
2.522237135626004
 30
0.0
 11
0.984771759210526
 21
2.499925155111995
 31
0.0
  0
LINE
  5
A93
330
1E
100
AcDbEntity
  8
IMAGE
100
AcDbLine
 10
0.984771759210526
 20
2.499925155111995
 30
0.0
 11
0.9847717592105258
 21
2.566861096670604
 31
0.0
  0
LINE
  5
A94
330
1E
100
AcDbEntity
  8
IMAGE
100
AcDbLine
 10
0.9847717592105258
 20
2.566861096670604
 30
0.0
 11
1.023417243092657
 21
2.589173077192902
 31
0.0
  0
LINE
  5
A95
330
1E
100
AcDbEntity
  8
IMAGE
100
AcDbLine
 10
1.042739985033705
 20
2.555705106409454
 30
0.0
 11
1.081385468915804
 21
2.578017086931755
 31
0.0
  0
LWPOLYLINE
  5
ACC
330
1E
100
AcDbEntity
  8
IMAGE
100
AcDbPolyline
 90
       10
 70
     0
 43
0.0
 10
0.7673909123637111
 20
2.395945515737052
 10
0.7673909123637111
 20
2.435778211102094
 42
0.1604757256896705
 10
0.7542569173505323
 20
2.442094207165379
 42
0.1219464553701672
 10
0.7376531026051297
 20
2.439964528239648
 42
0.0807104688999279
 10
0.7198377543580663
 20
2.42967883213349
 42
0.0602395935416808
 10
0.7032339396126619
 20
2.412636077233555
 42
0.0537597547242275
 10
0.6900999445994833
 20
2.391154250057494
 10
0.6900999445994833
 20
2.324218308490592
 42
0.16047572568968
 10
0.7032339396126619
 20
2.317902312427304
 42
0.0331442674321128
 10
0.7078408084050514
 20
2.317677030308876
 42
0.080710468899927
  0
LINE
  5
AD8
330
1E
100
AcDbEntity
  8
IMAGE
100
AcDbLine
 10
0.728968197915636
 20
2.313786137081271
 30
0.0
 11
0.7424510001194538
 21
2.32157043656308
 31
0.0
  0
LINE
  5
AD9
330
1E
100
AcDbEntity
  8
IMAGE
100
AcDbLine
 10
0.7763128891556317
 20
2.377327464275228
 30
0.0
 11
0.7763128891556317
 21
2.369582110546816
 31
0.0
  0
ARC
  5
ADA
330
1E
100
AcDbEntity
  8
IMAGE
100
AcDbCircle
 10
0.7524261698751733
 20
2.377327464275228
 30
0.0
 40
0.0238867192804552
100
AcDbArc
 50
359.9999999999998
 51
54.18247435555643
  0
LINE
  5
ADB
330
1E
100
AcDbEntity
  8
IMAGE
100
AcDbLine
 10
0.7349398777357355
 20
2.41940470566139
 30
0.0
 11
0.7664048150118675
 21
2.396696843153393
 31
0.0
  0
ARC
  5
ADC
330
1E
100
AcDbEntity
  8
IMAGE
100
AcDbCircle
 10
0.7110531584552762
 20
2.35344074499477
 30
0.0
 40
0.0238867192804552
100
AcDbArc
 50
359.9999999999998
 51
54.18247435555643
  0
ARC
  5
ADD
330
1E
100
AcDbEntity
  8
IMAGE
100
AcDbCircle
 10
0.7229965180955063
 20
2.324129389936243
 30
0.0
 40
0.0119433596402276
100
AcDbArc
 50
246.5867755536302
 51
359.9999999999999
  0
LINE
  5
ADE
330
1E
100
AcDbEntity
  8
IMAGE
100
AcDbLine
 10
0.6935668663158703
 20
2.323857828539568
 30
0.0
 11
0.7182507082068455
 21
2.31316941146927
 31
0.0
  0
LINE
  5
ADF
330
1E
100
AcDbEntity
  8
IMAGE
100
AcDbLine
 10
0.6935668663158703
 20
2.395517986380936
 30
0.0
 11
0.7250318035919721
 21
2.372810123872938
 31
0.0
  0
LINE
  5
AE0
330
1E
100
AcDbEntity
  8
IMAGE
100
AcDbLine
 10
0.7349398777357355
 20
2.35344074499477
 30
0.0
 11
0.7349398777357355
 21
2.324129389936243
 31
0.0
  0
LWPOLYLINE
  5
AE1
330
1E
100
AcDbEntity
  8
IMAGE
100
AcDbPolyline
 90
        9
 70
     0
 43
0.0
 10
0.7702539519122534
 20
2.373080239595289
 42
0.1568512196707746
 10
0.7641950146688423
 20
2.374387066638058
 42
0.1066170543910077
 10
0.7556263834456987
 20
2.371631267100479
 42
0.0723410840576587
 10
0.7480716920551651
 20
2.365670225724562
 42
0.0587518675353754
 10
0.740998814979144
 20
2.35618977841178
 42
0.0587518675353755
 10
0.7363249453050394
 20
2.345324263529706
 42
0.0723410840576597
 10
0.7349398777357355
 20
2.335801188179796
 42
0.1066170543910072
 10
0.7368376009400493
 20
2.327002636096085
 42
0.1568512196707774
 10
0.740998814979144
 20
2.322408856044761
 42
0.1568512196707807
  0
LINE
  5
AEC
330
1E
100
AcDbEntity
  8
IMAGE
100
AcDbLine
 10
0.740998814979144
 20
2.322408856044761
 30
0.0
 11
0.7823718263990092
 21
2.298522136764305
 31
0.0
  0
LINE
  5
AED
330
1E
100
AcDbEntity
  8
IMAGE
100
AcDbLine
 10
0.7702539519122534
 20
2.373080239595289
 30
0.0
 11
0.8116269633321167
 21
2.349193520314832
 31
0.0
  0
LWPOLYLINE
  5
AEE
330
1E
100
AcDbEntity
  8
IMAGE
100
AcDbPolyline
 90
       16
 70
     1
 43
0.0
 10
0.7823718263990092
 20
2.332303059131322
 42
0.0587518675353755
 10
0.7776979567249045
 20
2.321437544249252
 42
0.0723410840576597
 10
0.7763128891556313
 20
2.311914468899342
 42
0.1066170543910072
 10
0.7782106123599451
 20
2.303115916815631
 42
0.1568512196707782
 10
0.7823718263990092
 20
2.298522136764305
 42
0.1568512196707807
 10
0.7884307636424202
 20
2.297215309721536
 42
0.1066170543910086
 10
0.7969993948655639
 20
2.299971109259115
 42
0.0723410840576592
 10
0.804554086256096
 20
2.305932150635033
 42
0.0587518675353762
 10
0.811626963332117
 20
2.315412597947815
 42
0.0587518675353772
 10
0.8163008330062215
 20
2.326278112829888
 42
0.072341084057659
 10
0.817685900575527
 20
2.335801188179796
 42
0.1066170543910099
 10
0.8157881773712132
 20
2.344599740263508
 42
0.1568512196707723
 10
0.811626963332117
 20
2.349193520314832
 42
0.1568512196707746
 10
0.8055680260887394
 20
2.3505003473576
 42
0.1066170543910077
 10
0.7969993948655639
 20
2.347744547820026
 42
0.0723410840576587
 10
0.7894447034750303
 20
2.341783506444107
 42
0.0587518675353754
  0
LINE
  5
B00
330
1E
100
AcDbEntity
  8
IMAGE
100
AcDbLine
 10
0.7349398777357355
 20
2.41940470566139
 30
0.0
 11
0.6935668663158703
 21
2.395517986380936
 31
0.0
  0
LINE
  5
B01
330
1E
100
AcDbEntity
  8
IMAGE
100
AcDbLine
 10
0.6935668663158703
 20
2.395517986380936
 30
0.0
 11
0.6935668663158703
 21
2.323857828539568
 31
0.0
  0
LINE
  5
B02
330
1E
100
AcDbEntity
  8
IMAGE
100
AcDbLine
 10
0.8171854421990651
 20
2.337289771053715
 30
0.0
 11
0.8516420376928179
 21
2.356814897091904
 31
0.0
  0
LINE
  5
B03
330
1E
100
AcDbEntity
  8
IMAGE
100
AcDbLine
 10
1.100708210856854
 20
2.656088666196041
 30
0.0
 11
1.324656307761132
 21
2.785385160228232
 31
0.0
  0
POLYLINE
  5
B37
330
1E
100
AcDbEntity
  8
IMAGE
100
AcDb2dPolyline
 66
     1
 10
0.0
 20
0.0
 30
0.0
 70
     4
 40
0.0234375
 41
0.0234375
 75
     6
  0
VERTEX
  5
B38
330
B37
100
AcDbEntity
  8
IMAGE
100
AcDbVertex
100
AcDb2dVertex
 10
1.100708210856854
 20
2.614583489696648
 30
0.0
 70
    16
  0
VERTEX
  5
B39
330
B37
100
AcDbEntity
  8
IMAGE
100
AcDbVertex
100
AcDb2dVertex
 10
1.100708210856854
 20
2.614583489696648
 30
0.0
 70
     8
  0
VERTEX
  5
B3A
330
B37
100
AcDbEntity
  8
IMAGE
100
AcDbVertex
100
AcDb2dVertex
 10
1.124112959594642
 20
2.624909228015474
 30
0.0
 70
     8
  0
VERTEX
  5
B3B
330
B37
100
AcDbEntity
  8
IMAGE
100
AcDbVertex
100
AcDb2dVertex
 10
1.142277948974104
 20
2.637770728648372
 30
0.0
 70
     8
  0
VERTEX
  5
B3C
330
B37
100
AcDbEntity
  8
IMAGE
100
AcDbVertex
100
AcDb2dVertex
 10
1.155737838517986
 20
2.652599868462543
 30
0.0
 70
     8
  0
VERTEX
  5
B3D
330
B37
100
AcDbEntity
  8
IMAGE
100
AcDbVertex
100
AcDb2dVertex
 10
1.16502728774904
 20
2.668828524325188
 30
0.0
 70
     8
  0
VERTEX
  5
B3E
330
B37
100
AcDbEntity
  8
IMAGE
100
AcDbVertex
100
AcDb2dVertex
 10
1.170680956190009
 20
2.685888573103506
 30
0.0
 70
     8
  0
VERTEX
  5
B3F
330
B37
100
AcDbEntity
  8
IMAGE
100
AcDbVertex
100
AcDb2dVertex
 10
1.173233503363645
 20
2.703211891664698
 30
0.0
 70
     8
  0
VERTEX
  5
B40
330
B37
100
AcDbEntity
  8
IMAGE
100
AcDbVertex
100
AcDb2dVertex
 10
1.173219588792695
 20
2.720230356875967
 30
0.0
 70
     8
  0
VERTEX
  5
B41
330
B37
100
AcDbEntity
  8
IMAGE
100
AcDbVertex
100
AcDb2dVertex
 10
1.171173871999909
 20
2.736375845604512
 30
0.0
 70
     8
  0
VERTEX
  5
B42
330
B37
100
AcDbEntity
  8
IMAGE
100
AcDbVertex
100
AcDb2dVertex
 10
1.16755615023488
 20
2.751188008517772
 30
0.0
 70
     8
  0
VERTEX
  5
B43
330
B37
100
AcDbEntity
  8
IMAGE
100
AcDbVertex
100
AcDb2dVertex
 10
1.162526771654581
 20
2.764637591484142
 30
0.0
 70
     8
  0
VERTEX
  5
B44
330
B37
100
AcDbEntity
  8
IMAGE
100
AcDbVertex
100
AcDb2dVertex
 10
1.156171222142836
 20
2.776803114172253
 30
0.0
 70
     8
  0
VERTEX
  5
B45
330
B37
100
AcDbEntity
  8
IMAGE
100
AcDbVertex
100
AcDb2dVertex
 10
1.148574987583465
 20
2.787763096250739
 30
0.0
 70
     8
  0
VERTEX
  5
B46
330
B37
100
AcDbEntity
  8
IMAGE
100
AcDbVertex
100
AcDb2dVertex
 10
1.139823553860292
 20
2.797596057388229
 30
0.0
 70
     8
  0
VERTEX
  5
B47
330
B37
100
AcDbEntity
  8
IMAGE
100
AcDbVertex
100
AcDb2dVertex
 10
1.130002406857131
 20
2.806380517253358
 30
0.0
 70
     8
  0
VERTEX
  5
B48
330
B37
100
AcDbEntity
  8
IMAGE
100
AcDbVertex
100
AcDb2dVertex
 10
1.11919703245781
 20
2.814194995514757
 30
0.0
 70
     8
  0
VERTEX
  5
B49
330
B37
100
AcDbEntity
  8
IMAGE
100
AcDbVertex
100
AcDb2dVertex
 10
1.107492916546145
 20
2.821118011841059
 30
0.0
 70
     8
  0
VERTEX
  5
B4A
330
B37
100
AcDbEntity
  8
IMAGE
100
AcDbVertex
100
AcDb2dVertex
 10
1.094993642623812
 20
2.827212690265204
 30
0.0
 70
     8
  0
VERTEX
  5
B4B
330
B37
100
AcDbEntity
  8
IMAGE
100
AcDbVertex
100
AcDb2dVertex
 10
1.081875184663898
 20
2.832480572277365
 30
0.0
 70
     8
  0
VERTEX
  5
B4C
330
B37
100
AcDbEntity
  8
IMAGE
100
AcDbVertex
100
AcDb2dVertex
 10
1.068331614257337
 20
2.836907803732022
 30
0.0
 70
     8
  0
VERTEX
  5
B4D
330
B37
100
AcDbEntity
  8
IMAGE
100
AcDbVertex
100
AcDb2dVertex
 10
1.054557002995069
 20
2.840480530483659
 30
0.0
 70
     8
  0
VERTEX
  5
B4E
330
B37
100
AcDbEntity
  8
IMAGE
100
AcDbVertex
100
AcDb2dVertex
 10
1.040745422468034
 20
2.843184898386754
 30
0.0
 70
     8
  0
VERTEX
  5
B4F
330
B37
100
AcDbEntity
  8
IMAGE
100
AcDbVertex
100
AcDb2dVertex
 10
1.027090944267166
 20
2.845007053295789
 30
0.0
 70
     8
  0
VERTEX
  5
B50
330
B37
100
AcDbEntity
  8
IMAGE
100
AcDbVertex
100
AcDb2dVertex
 10
1.013787639983407
 20
2.845933141065245
 30
0.0
 70
     8
  0
VERTEX
  5
B51
330
B37
100
AcDbEntity
  8
IMAGE
100
AcDbVertex
100
AcDb2dVertex
 10
1.001029581207694
 20
2.845949307549604
 30
0.0
 70
     8
  0
VERTEX
  5
B52
330
B37
100
AcDbEntity
  8
IMAGE
100
AcDbVertex
100
AcDb2dVertex
 10
0.9889153438373741
 20
2.845036308877527
 30
0.0
 70
     8
  0
VERTEX
  5
B53
330
B37
100
AcDbEntity
  8
IMAGE
100
AcDbVertex
100
AcDb2dVertex
 10
0.9771615209954429
 20
2.843153342274391
 30
0.0
 70
     8
  0
VERTEX
  5
B54
330
B37
100
AcDbEntity
  8
IMAGE
100
AcDbVertex
100
AcDb2dVertex
 10
0.9653892101113088
 20
2.840254215239756
 30
0.0
 70
     8
  0
VERTEX
  5
B55
330
B37
100
AcDbEntity
  8
IMAGE
100
AcDbVertex
100
AcDb2dVertex
 10
0.9532195086143779
 20
2.836292735273181
 30
0.0
 70
     8
  0
VERTEX
  5
B56
330
B37
100
AcDbEntity
  8
IMAGE
100
AcDbVertex
100
AcDb2dVertex
 10
0.9402735139340556
 20
2.831222709874225
 30
0.0
 70
     8
  0
VERTEX
  5
B57
330
B37
100
AcDbEntity
  8
IMAGE
100
AcDbVertex
100
AcDb2dVertex
 10
0.9261723234997472
 20
2.824997946542445
 30
0.0
 70
     8
  0
VERTEX
  5
B58
330
B37
100
AcDbEntity
  8
IMAGE
100
AcDbVertex
100
AcDb2dVertex
 10
0.9105370347408578
 20
2.817572252777402
 30
0.0
 70
     8
  0
VERTEX
  5
B59
330
B37
100
AcDbEntity
  8
IMAGE
100
AcDbVertex
100
AcDb2dVertex
 10
0.8929887450867983
 20
2.808899436078651
 30
0.0
 70
     8
  0
VERTEX
  5
B5A
330
B37
100
AcDbEntity
  8
IMAGE
100
AcDbVertex
100
AcDb2dVertex
 10
0.8732748528238367
 20
2.798991811380322
 30
0.0
 70
     8
  0
VERTEX
  5
B5B
330
B37
100
AcDbEntity
  8
IMAGE
100
AcDbVertex
100
AcDb2dVertex
 10
0.8516479596657031
 20
2.788095723354797
 30
0.0
 70
     8
  0
VERTEX
  5
B5C
330
B37
100
AcDbEntity
  8
IMAGE
100
AcDbVertex
100
AcDb2dVertex
 10
0.8284869681829887
 20
2.776516024109035
 30
0.0
 70
     8
  0
VERTEX
  5
B5D
330
B37
100
AcDbEntity
  8
IMAGE
100
AcDbVertex
100
AcDb2dVertex
 10
0.8041707809462899
 20
2.764557565749988
 30
0.0
 70
     8
  0
VERTEX
  5
B5E
330
B37
100
AcDbEntity
  8
IMAGE
100
AcDbVertex
100
AcDb2dVertex
 10
0.7790783005261979
 20
2.752525200384611
 30
0.0
 70
     8
  0
VERTEX
  5
B5F
330
B37
100
AcDbEntity
  8
IMAGE
100
AcDbVertex
100
AcDb2dVertex
 10
0.75358842949331
 20
2.740723780119858
 30
0.0
 70
     8
  0
VERTEX
  5
B60
330
B37
100
AcDbEntity
  8
IMAGE
100
AcDbVertex
100
AcDb2dVertex
 10
0.7280800704182191
 20
2.729458157062684
 30
0.0
 70
     8
  0
VERTEX
  5
B61
330
B37
100
AcDbEntity
  8
IMAGE
100
AcDbVertex
100
AcDb2dVertex
 10
0.7029321258715165
 20
2.719033183320044
 30
0.0
 70
     8
  0
VERTEX
  5
B62
330
B37
100
AcDbEntity
  8
IMAGE
100
AcDbVertex
100
AcDb2dVertex
 10
0.6784534172527508
 20
2.709705596762984
 30
0.0
 70
     8
  0
VERTEX
  5
B63
330
B37
100
AcDbEntity
  8
IMAGE
100
AcDbVertex
100
AcDb2dVertex
 10
0.6546724412772891
 20
2.701539678318933
 30
0.0
 70
     8
  0
VERTEX
  5
B64
330
B37
100
AcDbEntity
  8
IMAGE
100
AcDbVertex
100
AcDb2dVertex
 10
0.6315476134894489
 20
2.69455159467941
 30
0.0
 70
     8
  0
VERTEX
  5
B65
330
B37
100
AcDbEntity
  8
IMAGE
100
AcDbVertex
100
AcDb2dVertex
 10
0.6090373494335504
 20
2.688757512535937
 30
0.0
 70
     8
  0
VERTEX
  5
B66
330
B37
100
AcDbEntity
  8
IMAGE
100
AcDbVertex
100
AcDb2dVertex
 10
0.5871000646539147
 20
2.684173598580034
 30
0.0
 70
     8
  0
VERTEX
  5
B67
330
B37
100
AcDbEntity
  8
IMAGE
100
AcDbVertex
100
AcDb2dVertex
 10
0.5656941746948583
 20
2.680816019503222
 30
0.0
 70
     8
  0
VERTEX
  5
B68
330
B37
100
AcDbEntity
  8
IMAGE
100
AcDbVertex
100
AcDb2dVertex
 10
0.5447780951007024
 20
2.678700941997023
 30
0.0
 70
     8
  0
VERTEX
  5
B69
330
B37
100
AcDbEntity
  8
IMAGE
100
AcDbVertex
100
AcDb2dVertex
 10
0.5243102414157655
 20
2.677844532752958
 30
0.0
 70
     8
  0
VERTEX
  5
B6A
330
B37
100
AcDbEntity
  8
IMAGE
100
AcDbVertex
100
AcDb2dVertex
 10
0.5042474882300337
 20
2.678342249187008
 30
0.0
 70
     8
  0
VERTEX
  5
B6B
330
B37
100
AcDbEntity
  8
IMAGE
100
AcDbVertex
100
AcDb2dVertex
 10
0.4845405463161488
 20
2.680606711613001
 30
0.0
 70
     8
  0
VERTEX
  5
B6C
330
B37
100
AcDbEntity
  8
IMAGE
100
AcDbVertex
100
AcDb2dVertex
 10
0.4651385854924169
 20
2.685129831069224
 30
0.0
 70
     8
  0
VERTEX
  5
B6D
330
B37
100
AcDbEntity
  8
IMAGE
100
AcDbVertex
100
AcDb2dVertex
 10
0.4459907755771493
 20
2.692403518593966
 30
0.0
 70
     8
  0
VERTEX
  5
B6E
330
B37
100
AcDbEntity
  8
IMAGE
100
AcDbVertex
100
AcDb2dVertex
 10
0.4270462863886486
 20
2.702919685225515
 30
0.0
 70
     8
  0
VERTEX
  5
B6F
330
B37
100
AcDbEntity
  8
IMAGE
100
AcDbVertex
100
AcDb2dVertex
 10
0.4082542877452262
 20
2.71717024200216
 30
0.0
 70
     8
  0
VERTEX
  5
B70
330
B37
100
AcDbEntity
  8
IMAGE
100
AcDbVertex
100
AcDb2dVertex
 10
0.3895639494651881
 20
2.73564709996219
 30
0.0
 70
     8
  0
VERTEX
  5
B71
330
B37
100
AcDbEntity
  8
IMAGE
100
AcDbVertex
100
AcDb2dVertex
 10
0.370924441366844
 20
2.758842170143892
 30
0.0
 70
     8
  0
VERTEX
  5
B72
330
B37
100
AcDbEntity
  8
IMAGE
100
AcDbVertex
100
AcDb2dVertex
 10
1.170582472877837
 20
2.638232777121156
 30
0.0
 70
    16
  0
VERTEX
  5
B73
330
B37
100
AcDbEntity
  8
IMAGE
100
AcDbVertex
100
AcDb2dVertex
 10
1.187143394123522
 20
2.751747574836757
 30
0.0
 70
    16
  0
VERTEX
  5
B74
330
B37
100
AcDbEntity
  8
IMAGE
100
AcDbVertex
100
AcDb2dVertex
 10
1.116167643250369
 20
2.829789396016688
 30
0.0
 70
    16
  0
VERTEX
  5
B75
330
B37
100
AcDbEntity
  8
IMAGE
100
AcDbVertex
100
AcDb2dVertex
 10
0.9931435321518709
 20
2.855802912142846
 30
0.0
 70
    16
  0
VERTEX
  5
B76
330
B37
100
AcDbEntity
  8
IMAGE
100
AcDbVertex
100
AcDb2dVertex
 10
0.917435715388307
 20
2.822694800709554
 30
0.0
 70
    16
  0
VERTEX
  5
B77
330
B37
100
AcDbEntity
  8
IMAGE
100
AcDbVertex
100
AcDb2dVertex
 10
0.6950460768156939
 20
2.706814501490848
 30
0.0
 70
    16
  0
VERTEX
  5
B78
330
B37
100
AcDbEntity
  8
IMAGE
100
AcDbVertex
100
AcDb2dVertex
 10
0.5199727325780153
 20
2.664246293247316
 30
0.0
 70
    16
  0
VERTEX
  5
B79
330
B37
100
AcDbEntity
  8
IMAGE
100
AcDbVertex
100
AcDb2dVertex
 10
0.4206072051039014
 20
2.690260445774202
 30
0.0
 70
    16
  0
VERTEX
  5
B7A
330
B37
100
AcDbEntity
  8
IMAGE
100
AcDbVertex
100
AcDb2dVertex
 10
0.370924441366844
 20
2.758842170143892
 30
0.0
 70
    16
  0
SEQEND
  5
B7B
330
B37
100
AcDbEntity
  8
IMAGE
  0
LINE
  5
B7C
330
1E
100
AcDbEntity
  8
IMAGE
100
AcDbLine
 10
0.5500100652182827
 20
2.248915374227829
 30
0.0
 11
0.5789941781298733
 21
2.265649359619556
 31
0.0
  0
LINE
  5
B7D
330
1E
100
AcDbEntity
  8
IMAGE
100
AcDbLine
 10
0.5500100652182827
 20
2.26007136448898
 30
0.0
 11
0.5500100652182827
 21
2.248915374227829
 31
0.0
  0
LINE
  5
B7E
330
1E
100
AcDbEntity
  8
IMAGE
100
AcDbLine
 10
0.5500100652182827
 20
2.293539335272429
 30
0.0
 11
0.5789941781298733
 21
2.310273320664154
 31
0.0
  0
LINE
  5
B7F
330
1E
100
AcDbEntity
  8
IMAGE
100
AcDbLine
 10
0.5789941781298733
 20
2.310273320664154
 30
0.0
 11
0.5789941781298733
 21
2.299117330403003
 31
0.0
  0
LINE
  5
B80
330
1E
100
AcDbEntity
  8
IMAGE
100
AcDbLine
 10
0.5789941781298733
 20
2.299117330403003
 30
0.0
 11
0.5500100652182827
 21
2.282383345011281
 31
0.0
  0
LINE
  5
B81
330
1E
100
AcDbEntity
  8
IMAGE
100
AcDbLine
 10
0.5500100652182827
 20
2.282383345011281
 30
0.0
 11
0.5500100652182827
 21
2.293539335272429
 31
0.0
  0
LINE
  5
B82
330
1E
100
AcDbEntity
  8
IMAGE
100
AcDbLine
 10
0.5789941781298733
 20
2.276805349880704
 30
0.0
 11
0.5500100652182827
 21
2.26007136448898
 31
0.0
  0
LINE
  5
B83
330
1E
100
AcDbEntity
  8
IMAGE
100
AcDbLine
 10
0.5789941781298733
 20
2.265649359619556
 30
0.0
 11
0.5789941781298733
 21
2.276805349880704
 31
0.0
  0
LWPOLYLINE
  5
B84
330
1E
100
AcDbEntity
  8
IMAGE
100
AcDbPolyline
 90
       19
 70
     1
 43
0.0
 10
0.6079782910414629
 20
2.30469532553358
 42
0.0916206593036125
 10
0.6073956390786149
 20
2.308174504654044
 42
0.1338272256830868
 10
0.605717959615808
 20
2.310561254890177
 42
0.1492998140792082
 10
0.6031476055561913
 20
2.311567698938819
 42
0.1119210550517681
 10
0.5999945995337282
 20
2.311072444794172
 42
0.0759118367899279
 10
0.5966392406081158
 20
2.309135227415254
 42
0.0573757824643921
 10
0.5934862345856513
 20
2.305989703808244
 42
0.0507700122154809
 10
0.590915880526036
 20
2.302015270543134
 42
0.052885093614998
 10
0.5892382010632598
 20
2.297691302928081
 42
0.0647821012387657
 10
0.5886555491004132
 20
2.293539335272429
 42
0.0916206593036147
 10
0.5892382010632598
 20
2.290060156151965
 42
0.1338272256830863
 10
0.590915880526036
 20
2.287673405915832
 42
0.1492998140792593
 10
0.5934862345856513
 20
2.286666961867189
 42
0.1119210550517721
 10
0.5966392406081158
 20
2.287162216011837
 42
0.0759118367899111
 10
0.5999945995337282
 20
2.289099433390755
 42
0.0573757824643873
 10
0.6031476055561913
 20
2.292244956997764
 42
0.0507700122154694
 10
0.605717959615808
 20
2.296219390262875
 42
0.0528850936150002
 10
0.6073956390786149
 20
2.300543357877928
 42
0.064782101238765
 10
0.6079782910414629
 20
2.30469532553358
  0
LINE
  5
B9A
330
1E
100
AcDbEntity
  8
IMAGE
100
AcDbLine
 10
0.3637352125115303
 20
3.106872814796882
 30
0.0
 11
0.2091532769830717
 21
3.017624892707683
 31
0.0
  0
LINE
  5
B9B
330
1E
100
AcDbEntity
  8
IMAGE
100
AcDbLine
 10
0.2091532769830717
 20
3.017624892707683
 30
0.0
 11
0.2091532769830717
 21
2.660633204350884
 31
0.0
  0
LINE
  5
B9C
330
1E
100
AcDbEntity
  8
IMAGE
100
AcDbLine
 10
0.2091532769830717
 20
2.660633204350884
 30
0.0
 11
0.3489721320342003
 21
2.741357657952439
 31
0.0
  0
LINE
  5
B9D
330
1E
100
AcDbEntity
  8
IMAGE
100
AcDbLine
 10
0.3540738415409894
 20
3.112450809927455
 30
0.0
 11
0.1994919060125646
 21
3.023202887838258
 31
0.0
  0
LINE
  5
B9E
330
1E
100
AcDbEntity
  8
IMAGE
100
AcDbLine
 10
0.1994919060125646
 20
3.023202887838258
 30
0.0
 11
0.1994919060125646
 21
2.66621119948146
 31
0.0
  0
LINE
  5
B9F
330
1E
100
AcDbEntity
  8
IMAGE
100
AcDbLine
 10
0.3540738415409894
 20
3.112450809927455
 30
0.0
 11
0.3637352125115303
 21
3.106872814796882
 31
0.0
  0
LINE
  5
BA0
330
1E
100
AcDbEntity
  8
IMAGE
100
AcDbLine
 10
0.1994919060125646
 20
3.023202887838258
 30
0.0
 11
0.2091532769830717
 21
3.017624892707683
 31
0.0
  0
LINE
  5
BA1
330
1E
100
AcDbEntity
  8
IMAGE
100
AcDbLine
 10
0.1994919060125646
 20
2.66621119948146
 30
0.0
 11
0.2091532769830717
 21
2.660633204350884
 31
0.0
  0
LINE
  5
BA2
330
1E
100
AcDbEntity
  8
IMAGE
100
AcDbLine
 10
0.3101604062448642
 20
2.957886506480539
 30
0.0
 11
0.3355447843448953
 21
2.972542184009803
 31
0.0
  0
LINE
  5
BA3
330
1E
100
AcDbEntity
  8
IMAGE
100
AcDbLine
 10
0.3150934577031599
 20
3.008508043628823
 30
0.0
 11
0.3366918193577781
 21
2.992475418023374
 31
0.0
  0
ARC
  5
BA4
330
1E
100
AcDbEntity
  8
IMAGE
100
AcDbCircle
 10
0.3295731045247816
 20
2.982885436864775
 30
0.0
 40
0.0119433596402276
100
AcDbArc
 50
300.0000000000001
 51
53.41322444636979
  0
LINE
  5
BA5
330
1E
100
AcDbEntity
  8
IMAGE
100
AcDbLine
 10
0.2530339405733351
 20
2.97267796470814
 30
0.0
 11
0.3150934577031599
 21
3.008508043628823
 31
0.0
  0
LINE
  5
BA6
330
1E
100
AcDbEntity
  8
IMAGE
100
AcDbLine
 10
0.2530339405733351
 20
2.92490452614723
 30
0.0
 11
0.2530339405733351
 21
2.97267796470814
 31
0.0
  0
LINE
  5
BA7
330
1E
100
AcDbEntity
  8
IMAGE
100
AcDbLine
 10
0.2530339405733351
 20
2.92490452614723
 30
0.0
 11
0.2884319950089589
 21
2.909009022391632
 31
0.0
  0
LINE
  5
BA8
330
1E
100
AcDbEntity
  8
IMAGE
100
AcDbLine
 10
0.3101604062448642
 20
2.910113067919628
 30
0.0
 11
0.3168680793349647
 21
2.913985744783833
 31
0.0
  0
ARC
  5
BA9
330
1E
100
AcDbEntity
  8
IMAGE
100
AcDbCircle
 10
0.2982170466046359
 20
2.93079957362957
 30
0.0
 40
0.0238867192804552
100
AcDbArc
 50
245.8175256444436
 51
300.0000000000001
  0
LINE
  5
BAA
330
1E
100
AcDbEntity
  8
IMAGE
100
AcDbLine
 10
0.2530339405733351
 20
2.97267796470814
 30
0.0
 11
0.2884319950089589
 21
2.956782460952543
 31
0.0
  0
ARC
  5
BAB
330
1E
100
AcDbEntity
  8
IMAGE
100
AcDbCircle
 10
0.2982170466046359
 20
2.97857301219048
 30
0.0
 40
0.0238867192804552
100
AcDbArc
 50
245.8175256444436
 51
300.0000000000001
  0
LWPOLYLINE
  5
BAC
330
1E
100
AcDbEntity
  8
IMAGE
100
AcDbPolyline
 90
        9
 70
     0
 43
0.0
 10
0.3108091420915768
 20
2.917483873832306
 42
-0.1568512196707746
 10
0.306647928052493
 20
2.922077653883633
 42
-0.1066170543910077
 10
0.304750204848189
 20
2.930876205967344
 42
-0.0723410840576587
 10
0.3061352724174782
 20
2.940399281317253
 42
-0.0587518675353754
 10
0.310809142091577
 20
2.951264796199325
 42
-0.0587518675353755
 10
0.3178820191675999
 20
2.96074524351211
 42
-0.0723410840576597
 10
0.3254367105581306
 20
2.966706284888026
 42
-0.1066170543910072
 10
0.3340053417812971
 20
2.969462084425603
 42
-0.1568512196707774
 10
0.3400642790246851
 20
2.968155257382834
 42
-0.1568512196707807
  0
LINE
  5
BB7
330
1E
100
AcDbEntity
  8
IMAGE
100
AcDbLine
 10
0.3108091420915766
 20
2.917483873832307
 30
0.0
 11
0.3521821535114604
 21
2.893597154551852
 31
0.0
  0
LWPOLYLINE
  5
BB8
330
1E
100
AcDbEntity
  8
IMAGE
100
AcDbPolyline
 90
       16
 70
     1
 43
0.0
 10
0.35218215351146
 20
2.927378076918871
 42
-0.0587518675353755
 10
0.3592550305874833
 20
2.936858524231654
 42
-0.0723410840576597
 10
0.3668097219780142
 20
2.942819565607571
 42
-0.1066170543910072
 10
0.3753783532011807
 20
2.945575365145149
 42
-0.1568512196707782
 10
0.3814372904445682
 20
2.944268538102381
 42
-0.1568512196707807
 10
0.3855985044836521
 20
2.939674758051054
 42
-0.1066170543910086
 10
0.3874962276879557
 20
2.930876205967344
 42
-0.0723410840576592
 10
0.3861111601186664
 20
2.921353130617434
 42
-0.0587518675353762
 10
0.381437290444568
 20
2.910487615735361
 42
-0.0587518675353772
 10
0.3743644133685449
 20
2.901007168422578
 42
-0.072341084057659
 10
0.3668097219780146
 20
2.89504612704666
 42
-0.1066170543910099
 10
0.3582410907548477
 20
2.892290327509083
 42
-0.1568512196707723
 10
0.35218215351146
 20
2.893597154551852
 42
-0.1568512196707746
 10
0.3480209394723763
 20
2.898190934603176
 42
-0.1066170543910077
 10
0.3461232162680725
 20
2.906989486686887
 42
-0.0723410840576587
 10
0.3475082838373618
 20
2.916512562036797
 42
-0.0587518675353754
  0
LINE
  5
BCA
330
1E
100
AcDbEntity
  8
IMAGE
100
AcDbLine
 10
0.3400642790246851
 20
2.968155257382836
 30
0.0
 11
0.381437290444568
 21
2.944268538102381
 31
0.0
  0
LINE
  5
BCB
330
1E
100
AcDbEntity
  8
IMAGE
100
AcDbLine
 10
0.341516464165009
 20
2.982885436864775
 30
0.0
 11
0.341516464165009
 21
2.967316837901155
 31
0.0
  0
LWPOLYLINE
  5
BCC
330
1E
100
AcDbEntity
  8
IMAGE
100
AcDbPolyline
 90
       10
 70
     0
 43
0.0
 10
0.2895757123139953
 20
2.908530700742497
 10
0.2550795862266645
 20
2.888614353059978
 42
-0.1604757256896705
 10
0.2430427756790705
 20
2.896830728362912
 42
-0.1219464553701672
 10
0.2365852243579569
 20
2.912274893195032
 42
-0.0807104688999279
 10
0.2365852243579566
 20
2.932846285407343
 42
-0.0602395935416808
 10
0.2430427756790707
 20
2.955746988226563
 42
-0.0537597547242275
 10
0.2550795862266644
 20
2.977862275149176
 10
0.31304781204983
 20
3.011330245932627
 42
-0.16047572568968
 10
0.3250846225974242
 20
3.00311387062969
 42
-0.0331442674321128
 10
0.3275831570312008
 20
2.999236846282784
 42
-0.080710468899927
  0
LINE
  5
BD8
330
1E
100
AcDbEntity
  8
IMAGE
100
AcDbLine
 10
0.3137480393260903
 20
2.798896063162438
 30
0.0
 11
0.3391324174261223
 21
2.813551740691702
 31
0.0
  0
LINE
  5
BD9
330
1E
100
AcDbEntity
  8
IMAGE
100
AcDbLine
 10
0.318681090784386
 20
2.849517600310722
 30
0.0
 11
0.3402794524390043
 21
2.833484974705273
 31
0.0
  0
ARC
  5
BDA
330
1E
100
AcDbEntity
  8
IMAGE
100
AcDbCircle
 10
0.3331607376060086
 20
2.823894993546673
 30
0.0
 40
0.0119433596402276
100
AcDbArc
 50
300.0000000000001
 51
53.41322444636979
  0
LINE
  5
BDB
330
1E
100
AcDbEntity
  8
IMAGE
100
AcDbLine
 10
0.2566215736545612
 20
2.813687521390038
 30
0.0
 11
0.318681090784386
 21
2.849517600310722
 31
0.0
  0
LINE
  5
BDC
330
1E
100
AcDbEntity
  8
IMAGE
100
AcDbLine
 10
0.2566215736545612
 20
2.765914082829127
 30
0.0
 11
0.2566215736545612
 21
2.813687521390038
 31
0.0
  0
LINE
  5
BDD
330
1E
100
AcDbEntity
  8
IMAGE
100
AcDbLine
 10
0.2566215736545612
 20
2.765914082829127
 30
0.0
 11
0.292019628090185
 21
2.75001857907353
 31
0.0
  0
LINE
  5
BDE
330
1E
100
AcDbEntity
  8
IMAGE
100
AcDbLine
 10
0.3137480393260903
 20
2.751122624601528
 30
0.0
 11
0.3204557124161909
 21
2.754995301465733
 31
0.0
  0
ARC
  5
BDF
330
1E
100
AcDbEntity
  8
IMAGE
100
AcDbCircle
 10
0.3018046796858629
 20
2.771809130311468
 30
0.0
 40
0.0238867192804552
100
AcDbArc
 50
245.8175256444436
 51
300.0000000000001
  0
LINE
  5
BE0
330
1E
100
AcDbEntity
  8
IMAGE
100
AcDbLine
 10
0.2566215736545612
 20
2.813687521390038
 30
0.0
 11
0.292019628090185
 21
2.797792017634441
 31
0.0
  0
ARC
  5
BE1
330
1E
100
AcDbEntity
  8
IMAGE
100
AcDbCircle
 10
0.3018046796858629
 20
2.819582568872379
 30
0.0
 40
0.0238867192804552
100
AcDbArc
 50
245.8175256444436
 51
300.0000000000001
  0
LWPOLYLINE
  5
BE2
330
1E
100
AcDbEntity
  8
IMAGE
100
AcDbPolyline
 90
        9
 70
     0
 43
0.0
 10
0.3143967751728031
 20
2.758493430514205
 42
-0.1568512196707746
 10
0.3102355611337193
 20
2.76308721056553
 42
-0.1066170543910077
 10
0.3083378379294154
 20
2.771885762649242
 42
-0.0723410840576587
 10
0.3097229054987046
 20
2.781408837999151
 42
-0.0587518675353754
 10
0.3143967751728034
 20
2.792274352881224
 42
-0.0587518675353755
 10
0.3214696522488265
 20
2.801754800194007
 42
-0.0723410840576597
 10
0.3290243436393569
 20
2.807715841569926
 42
-0.1066170543910072
 10
0.3375929748625235
 20
2.810471641107501
 42
-0.1568512196707774
 10
0.3436519121059112
 20
2.809164814064733
 42
-0.1568512196707807
  0
LINE
  5
BED
330
1E
100
AcDbEntity
  8
IMAGE
100
AcDbLine
 10
0.3143967751728027
 20
2.758493430514205
 30
0.0
 11
0.3557697865926865
 21
2.73460671123375
 31
0.0
  0
LWPOLYLINE
  5
BEE
330
1E
100
AcDbEntity
  8
IMAGE
100
AcDbPolyline
 90
       16
 70
     1
 43
0.0
 10
0.3557697865926865
 20
2.768387633600768
 42
-0.0587518675353755
 10
0.3628426636687099
 20
2.777868080913552
 42
-0.0723410840576597
 10
0.3703973550592405
 20
2.783829122289469
 42
-0.1066170543910072
 10
0.3789659862824068
 20
2.786584921827047
 42
-0.1568512196707782
 10
0.3850249235257945
 20
2.785278094784279
 42
-0.1568512196707807
 10
0.3891861375648784
 20
2.780684314732953
 42
-0.1066170543910086
 10
0.3910838607691822
 20
2.771885762649242
 42
-0.0723410840576592
 10
0.389698793199893
 20
2.762362687299333
 42
-0.0587518675353762
 10
0.3850249235257945
 20
2.751497172417259
 42
-0.0587518675353772
 10
0.3779520464497712
 20
2.742016725104476
 42
-0.072341084057659
 10
0.3703973550592408
 20
2.736055683728559
 42
-0.1066170543910099
 10
0.3618287238360738
 20
2.733299884190983
 42
-0.1568512196707723
 10
0.3557697865926863
 20
2.73460671123375
 42
-0.1568512196707746
 10
0.3516085725536029
 20
2.739200491285076
 42
-0.1066170543910077
 10
0.3497108493492989
 20
2.747999043368787
 42
-0.0723410840576587
 10
0.3510959169185879
 20
2.757522118718696
 42
-0.0587518675353754
  0
LINE
  5
C00
330
1E
100
AcDbEntity
  8
IMAGE
100
AcDbLine
 10
0.3436519121059112
 20
2.809164814064733
 30
0.0
 11
0.3850249235257941
 21
2.785278094784279
 31
0.0
  0
LINE
  5
C01
330
1E
100
AcDbEntity
  8
IMAGE
100
AcDbLine
 10
0.345104097246236
 20
2.823894993546673
 30
0.0
 11
0.345104097246236
 21
2.808326394583053
 31
0.0
  0
LWPOLYLINE
  5
C02
330
1E
100
AcDbEntity
  8
IMAGE
100
AcDbPolyline
 90
       10
 70
     0
 43
0.0
 10
0.2931633453952217
 20
2.749540257424395
 10
0.2586672193078908
 20
2.729623909741875
 42
-0.1604757256896705
 10
0.2466304087602969
 20
2.737840285044812
 42
-0.1219464553701672
 10
0.2401728574391834
 20
2.75328444987693
 42
-0.0807104688999279
 10
0.2401728574391829
 20
2.773855842089242
 42
-0.0602395935416808
 10
0.2466304087602971
 20
2.796756544908463
 42
-0.0537597547242275
 10
0.2586672193078907
 20
2.818871831831074
 10
0.3166354451310563
 20
2.852339802614524
 42
-0.16047572568968
 10
0.3286722556786503
 20
2.844123427311588
 42
-0.0331442674321128
 10
0.3311707901124271
 20
2.840246402964681
 42
-0.080710468899927
  0
LINE
  5
C0E
330
1E
100
AcDbEntity
  8
IMAGE
100
AcDbLine
 10
0.3637352125115303
 20
2.954488837562236
 30
0.0
 11
0.3637352125115303
 21
3.106872814796882
 31
0.0
  0
LINE
  5
C0F
330
1E
100
AcDbEntity
  8
IMAGE
100
AcDbLine
 10
0.3637352125115303
 20
2.797569715169332
 30
0.0
 11
0.3637352125115303
 21
2.893584513192745
 31
0.0
  0
MTEXT
  5
C13
330
1E
100
AcDbEntity
  8
TEXT_BUBBLES
100
AcDbMText
 10
9.16855558711277
 20
7.897599901587373
 30
0.0
 40
0.125
 41
3.064999999999999
 71
     1
 72
     5
  3
{\Fsimplex.shx;MAXICOM GOLD SYSTEM\P\PFREEDOM BASE STATION\P\PANTENNA CABLE TO POLYPHASER\P\PSURGE PROTECTOR (RECOMMENDED)\P\PUPS - FOR COMPUTER ONLY. (OPTIONAL / RECOMMENDED)\P\PPOWER CORD TO COMPUTER\P\PPOWER CORD TO MONITOR\P\PPOLYPHASER MODEL IS-
  1
IE50LN-C1COAXIAL CABLE SURGE ARRESTOR \P(SEE MAXICOM DETAIL 503)\P\PANTENNA CABLE TO FREEDOM ANTENNA}
 73
     1
 44
1.0
  0
LINE
  5
C1D
330
1E
100
AcDbEntity
  8
IMAGE
100
AcDbLine
 10
1.929065847544043
 20
6.056449803834665
 30
0.0
 11
1.938591198465507
 21
6.050950339916038
 31
0.0
  0
LINE
  5
C1E
330
1E
100
AcDbEntity
  8
IMAGE
100
AcDbLine
 10
2.081471462287301
 20
6.144441226532689
 30
0.0
 11
2.090996813208733
 21
6.138941762614061
 31
0.0
  0
LINE
  5
C1F
330
1E
100
AcDbEntity
  8
IMAGE
100
AcDbLine
 10
1.929065847544043
 20
6.056449803834665
 30
0.0
 11
1.929065847544043
 21
5.715482072959984
 31
0.0
  0
LINE
  5
C20
330
1E
100
AcDbEntity
  8
IMAGE
100
AcDbLine
 10
2.081471462287301
 20
6.144441226532689
 30
0.0
 11
1.929065847544043
 21
6.056449803834665
 31
0.0
  0
LINE
  5
C21
330
1E
100
AcDbEntity
  8
IMAGE
100
AcDbLine
 10
2.090996813208733
 20
5.797974031630595
 30
0.0
 11
2.090996813208733
 21
6.138941762614061
 31
0.0
  0
LINE
  5
C22
330
1E
100
AcDbEntity
  8
IMAGE
100
AcDbLine
 10
1.938591198465507
 20
6.050950339916038
 30
0.0
 11
1.938591198465507
 21
5.709982609041356
 31
0.0
  0
LINE
  5
C23
330
1E
100
AcDbEntity
  8
IMAGE
100
AcDbLine
 10
2.090996813208733
 20
6.138941762614061
 30
0.0
 11
1.938591198465507
 21
6.050950339916038
 31
0.0
  0
LINE
  5
C24
330
1E
100
AcDbEntity
  8
IMAGE
100
AcDbLine
 10
1.938591198465507
 20
5.709982609041356
 30
0.0
 11
2.090996813208733
 21
5.797974031630595
 31
0.0
  0
LINE
  5
C26
330
1E
100
AcDbEntity
  8
IMAGE
100
AcDbLine
 10
2.006365517023394
 20
5.883606760599379
 30
0.0
 11
2.020653543435011
 21
5.891855956477318
 31
0.0
  0
LINE
  5
C27
330
1E
100
AcDbEntity
  8
IMAGE
100
AcDbLine
 10
2.006365517023394
 20
5.905604616273884
 30
0.0
 11
2.006365517023394
 21
5.883606760599379
 31
0.0
  0
LINE
  5
C28
330
1E
100
AcDbEntity
  8
IMAGE
100
AcDbLine
 10
2.025416218905539
 20
5.916603544111138
 30
0.0
 11
2.025416218905539
 21
5.905604616273884
 31
0.0
  0
LINE
  5
C29
330
1E
100
AcDbEntity
  8
IMAGE
100
AcDbLine
 10
2.006365517023394
 20
5.905604616273884
 30
0.0
 11
2.025416218905539
 21
5.916603544111138
 31
0.0
  0
LINE
  5
C2A
330
1E
100
AcDbEntity
  8
IMAGE
100
AcDbLine
 10
2.020653543435011
 20
5.908354348233194
 30
0.0
 11
2.025416218905539
 21
5.905604616273884
 31
0.0
  0
LINE
  5
C2B
330
1E
100
AcDbEntity
  8
IMAGE
100
AcDbLine
 10
2.011128192493923
 20
5.90285488431457
 30
0.0
 11
2.020653543435011
 21
5.908354348233194
 31
0.0
  0
LINE
  5
C2C
330
1E
100
AcDbEntity
  8
IMAGE
100
AcDbLine
 10
2.011128192493923
 20
5.90285488431457
 30
0.0
 11
2.015890867964483
 21
5.900105152355259
 31
0.0
  0
LINE
  5
C2D
330
1E
100
AcDbEntity
  8
IMAGE
100
AcDbLine
 10
2.011128192493923
 20
5.891855956477318
 30
0.0
 11
2.011128192493923
 21
5.90285488431457
 31
0.0
  0
LINE
  5
C2E
330
1E
100
AcDbEntity
  8
IMAGE
100
AcDbLine
 10
2.015890867964483
 20
5.889106224518003
 30
0.0
 11
2.011128192493923
 21
5.891855956477318
 31
0.0
  0
LINE
  5
C2F
330
1E
100
AcDbEntity
  8
IMAGE
100
AcDbLine
 10
2.015890867964483
 20
5.900105152355259
 30
0.0
 11
2.015890867964483
 21
5.889106224518003
 31
0.0
  0
LINE
  5
C30
330
1E
100
AcDbEntity
  8
IMAGE
100
AcDbLine
 10
2.025416218905539
 20
5.905604616273884
 30
0.0
 11
2.015890867964483
 21
5.900105152355259
 31
0.0
  0
LINE
  5
C31
330
1E
100
AcDbEntity
  8
IMAGE
100
AcDbLine
 10
2.025416218905539
 20
5.894605688436629
 30
0.0
 11
2.025416218905539
 21
5.905604616273884
 31
0.0
  0
LINE
  5
C32
330
1E
100
AcDbEntity
  8
IMAGE
100
AcDbLine
 10
2.015890867964483
 20
5.889106224518003
 30
0.0
 11
2.025416218905539
 21
5.894605688436629
 31
0.0
  0
LWPOLYLINE
  5
C5F
330
1E
100
AcDbEntity
  8
IMAGE
100
AcDbPolyline
 90
        4
 70
     1
 43
0.0
 10
-2.449418365895529
 20
-1.705751236806984
 10
14.04058163410446
 20
-1.705751236806984
 10
14.04058163410446
 20
8.734248763193015
 10
-2.449418365895529
 20
8.734248763193015
  0
INSERT
  5
C60
330
1E
100
AcDbEntity
  8
TEXT_BUBBLES
 62
    42
100
AcDbBlockReference
 66
     1
  2
TITLBLK
 10
-1.842975995381045
 20
-0.8215241403286164
 30
0.0
  0
ATTRIB
  5
C61
330
C60
100
AcDbEntity
  8
TITLE
100
AcDbText
 10
-1.217975995381045
 20
-0.7215241403286168
 30
0.0
 40
0.2
  1
FREEDOM FOR MAXICOM
  7
L200
100
AcDbAttribute
  2
TITLE2
 70
     0
  0
ATTRIB
  5
C62
330
C60
100
AcDbEntity
  8
TITLE
100
AcDbText
 10
-2.076059215026338
 20
-0.9202280966724091
 30
0.0
 40
0.2
  1
502
  7
L200
 72
     4
 11
-1.842975995381045
 21
-0.8215241403286164
 31
0.0
100
AcDbAttribute
  2
#
 70
     0
  0
ATTRIB
  5
C63
330
C60
100
AcDbEntity
  8
TITLE
 62
     7
100
AcDbText
 10
-1.217975995381045
 20
-1.005187457411494
 30
0.0
 40
0.1
  1
N.T.S.
  7
L100
100
AcDbAttribute
  2
SCALE
 70
     0
  0
ATTRIB
  5
C64
330
C60
100
AcDbEntity
  8
TITLE
100
AcDbText
 10
-0.70022262258858
 20
-1.112958470348665
 30
0.0
 40
0.2
  1
RADIO
  7
L200
100
AcDbAttribute
  2
TITLE3
 70
     0
  0
ATTRIB
  5
C65
330
C60
100
AcDbEntity
  8
TITLE
 62
     7
100
AcDbText
 10
-2.194309721541592
 20
-1.673714911412009
 30
0.0
 40
0.08
  1
502-FREEDOM-R-PC.DWG
  7
L80
 72
     2
 11
-0.6019287691606406
 21
-1.673714911412009
 31
0.0
100
AcDbAttribute
  2
DWG-NAME
 70
     0
  0
ATTRIB
  5
C66
330
C60
100
AcDbEntity
  8
TITLE
 62
     7
100
AcDbText
 10
5.078177853924498
 20
-0.7361484452623444
 30
0.0
 40
0.08
  1
1-16-04
  7
L80
 72
     2
 11
5.649606425353069
 21
-0.7361484452623444
 31
0.0
100
AcDbAttribute
  2
REVISED
 70
     0
  0
ATTRIB
  5
C67
330
C60
100
AcDbEntity
  8
TITLE
100
AcDbText
 10
-1.217975995381045
 20
-0.3620389340602337
 30
0.0
 40
0.2
  1

  7
L200
100
AcDbAttribute
  2
TITLE1
 70
     0
  0
ATTRIB
  5
C68
330
C60
100
AcDbEntity
  8
TITLE
100
AcDbText
 10
-0.6763048614499319
 20
-1.436495155990209
 30
0.0
 40
0.2
  1

  7
L200
100
AcDbAttribute
  2
TITLE4
 70
     0
  0
SEQEND
  5
C69
330
C60
100
AcDbEntity
  8
TEXT_BUBBLES
 62
    40
  0
INSERT
  5
CBC
330
1E
100
AcDbEntity
  8
TEXT_BUBBLES
100
AcDbBlockReference
 66
     1
  2
bubble
 10
8.906135261846802
 20
4.243488514280784
 30
0.0
  0
ATTRIB
  5
CBD
330
CBC
100
AcDbEntity
  8
TEXT_BUBBLES
100
AcDbText
 10
8.846611452322992
 20
4.180988514280784
 30
0.0
 40
0.125
  1
8
  7
ROMANS
 72
     4
 11
8.906135261846802
 21
4.243488514280784
 31
0.0
100
AcDbAttribute
  2
XX
 70
     0
  0
SEQEND
  5
CBE
330
CBC
100
AcDbEntity
  8
TEXT_BUBBLES
  0
INSERT
  5
CC5
330
1E
100
AcDbEntity
  8
TEXT_BUBBLES
100
AcDbBlockReference
 66
     1
  2
bubble
 10
8.906135261846802
 20
5.717209021202798
 30
0.0
  0
ATTRIB
  5
CC6
330
CC5
100
AcDbEntity
  8
TEXT_BUBBLES
100
AcDbText
 10
8.846611452322992
 20
5.654709021202798
 30
0.0
 40
0.125
  1
5
  7
ROMANS
 72
     4
 11
8.906135261846802
 21
5.717209021202798
 31
0.0
100
AcDbAttribute
  2
XX
 70
     0
  0
SEQEND
  5
CC7
330
CC5
100
AcDbEntity
  8
TEXT_BUBBLES
  0
INSERT
  5
CC8
330
1E
100
AcDbEntity
  8
TEXT_BUBBLES
100
AcDbBlockReference
 66
     1
  2
bubble
 10
8.906135261846802
 20
4.652855317249215
 30
0.0
  0
ATTRIB
  5
CC9
330
CC8
100
AcDbEntity
  8
TEXT_BUBBLES
100
AcDbText
 10
8.846611452322992
 20
4.590355317249215
 30
0.0
 40
0.125
  1
7
  7
ROMANS
 72
     4
 11
8.906135261846802
 21
4.652855317249215
 31
0.0
100
AcDbAttribute
  2
XX
 70
     0
  0
SEQEND
  5
CCA
330
CC8
100
AcDbEntity
  8
TEXT_BUBBLES
  0
INSERT
  5
CCB
330
1E
100
AcDbEntity
  8
TEXT_BUBBLES
100
AcDbBlockReference
 66
     1
  2
bubble
 10
8.906135261846802
 20
3.138621673193618
 30
0.0
  0
ATTRIB
  5
CCC
330
CCB
100
AcDbEntity
  8
TEXT_BUBBLES
100
AcDbText
 10
8.849587642799184
 20
3.076121673193618
 30
0.0
 40
0.125
  1
9
  7
ROMANS
 72
     4
 11
8.906135261846802
 21
3.138621673193618
 31
0.0
100
AcDbAttribute
  2
XX
 70
     0
  0
SEQEND
  5
CCD
330
CCB
100
AcDbEntity
  8
TEXT_BUBBLES
  0
INSERT
  5
CCE
330
1E
100
AcDbEntity
  8
TEXT_BUBBLES
100
AcDbBlockReference
 66
     1
  2
bubble
 10
8.906135261846802
 20
5.0739183153613
 30
0.0
  0
ATTRIB
  5
CCF
330
CCE
100
AcDbEntity
  8
TEXT_BUBBLES
100
AcDbText
 10
8.843635261846802
 20
5.0114183153613
 30
0.0
 40
0.125
  1
6
  7
ROMANS
 72
     4
 11
8.906135261846802
 21
5.0739183153613
 31
0.0
100
AcDbAttribute
  2
XX
 70
     0
  0
SEQEND
  5
CD0
330
CCE
100
AcDbEntity
  8
TEXT_BUBBLES
  0
INSERT
  5
CD1
330
1E
100
AcDbEntity
  8
TEXT_BUBBLES
100
AcDbBlockReference
 66
     1
  2
bubble
 10
8.906135261846802
 20
6.360499727044292
 30
0.0
  0
ATTRIB
  5
CD2
330
CD1
100
AcDbEntity
  8
TEXT_BUBBLES
100
AcDbText
 10
8.843635261846802
 20
6.297999727044292
 30
0.0
 40
0.125
  1
4
  7
ROMANS
 72
     4
 11
8.906135261846802
 21
6.360499727044292
 31
0.0
100
AcDbAttribute
  2
XX
 70
     0
  0
SEQEND
  5
CD3
330
CD1
100
AcDbEntity
  8
TEXT_BUBBLES
  0
INSERT
  5
CD4
330
1E
100
AcDbEntity
  8
TEXT_BUBBLES
100
AcDbBlockReference
 66
     1
  2
bubble
 10
8.906135261846802
 20
6.978228471608623
 30
0.0
  0
ATTRIB
  5
CD5
330
CD4
100
AcDbEntity
  8
TEXT_BUBBLES
100
AcDbText
 10
8.846611452322992
 20
6.915728471608623
 30
0.0
 40
0.125
  1
3
  7
ROMANS
 72
     4
 11
8.906135261846802
 21
6.978228471608623
 31
0.0
100
AcDbAttribute
  2
XX
 70
     0
  0
SEQEND
  5
CD6
330
CD4
100
AcDbEntity
  8
TEXT_BUBBLES
  0
INSERT
  5
CD7
330
1E
100
AcDbEntity
  8
TEXT_BUBBLES
100
AcDbBlockReference
 66
     1
  2
bubble
 10
8.906135261846802
 20
7.408851755805599
 30
0.0
  0
ATTRIB
  5
CD8
330
CD7
100
AcDbEntity
  8
TEXT_BUBBLES
100
AcDbText
 10
8.846611452322992
 20
7.346351755805599
 30
0.0
 40
0.125
  1
2
  7
ROMANS
 72
     4
 11
8.906135261846802
 21
7.408851755805599
 31
0.0
100
AcDbAttribute
  2
XX
 70
     0
  0
SEQEND
  5
CD9
330
CD7
100
AcDbEntity
  8
TEXT_BUBBLES
  0
INSERT
  5
CDA
330
1E
100
AcDbEntity
  8
TEXT_BUBBLES
100
AcDbBlockReference
 66
     1
  2
bubble
 10
8.906135261846802
 20
7.841814529443692
 30
0.0
  0
ATTRIB
  5
CDB
330
CDA
100
AcDbEntity
  8
TEXT_BUBBLES
100
AcDbText
 10
8.855540023751565
 20
7.779314529443692
 30
0.0
 40
0.125
  1
1
  7
ROMANS
 72
     4
 11
8.906135261846802
 21
7.841814529443692
 31
0.0
100
AcDbAttribute
  2
XX
 70
     0
  0
SEQEND
  5
CDC
330
CDA
100
AcDbEntity
  8
TEXT_BUBBLES
  0
INSERT
  5
CF4
330
1E
100
AcDbEntity
  8
TEXT_BUBBLES
100
AcDbBlockReference
 66
     1
  2
bubble
 10
0.6533545540897468
 20
7.776080275217115
 30
0.0
  0
ATTRIB
  5
CF5
330
CF4
100
AcDbEntity
  8
TEXT_BUBBLES
100
AcDbText
 10
0.5938307445659373
 20
7.713580275217115
 30
0.0
 40
0.125
  1
2
  7
ROMANS
 72
     4
 11
0.6533545540897468
 21
7.776080275217115
 31
0.0
100
AcDbAttribute
  2
XX
 70
     0
  0
SEQEND
  5
CF6
330
CF4
100
AcDbEntity
  8
TEXT_BUBBLES
  0
INSERT
  5
CF9
330
1E
100
AcDbEntity
  8
TEXT_BUBBLES
100
AcDbBlockReference
 66
     1
  2
bubble
 10
1.718165623007047
 20
7.093990987423455
 30
0.0
  0
ATTRIB
  5
CFA
330
CF9
100
AcDbEntity
  8
TEXT_BUBBLES
100
AcDbText
 10
1.667570384911809
 20
7.031490987423455
 30
0.0
 40
0.125
  1
1
  7
ROMANS
 72
     4
 11
1.718165623007047
 21
7.093990987423455
 31
0.0
100
AcDbAttribute
  2
XX
 70
     0
  0
SEQEND
  5
CFB
330
CF9
100
AcDbEntity
  8
TEXT_BUBBLES
  0
ELLIPSE
  5
DB2
330
1E
100
AcDbEntity
  8
IMAGE
100
AcDbEllipse
 10
2.934922516814817
 20
3.944028650041048
 30
0.0
 11
0.1486577782702031
 21
-0.0857308859113759
 31
0.0
210
0.0
220
0.0
230
1.0
 40
0.9501546645416897
 41
-1.570796326794896
 42
4.712388980384689
  0
ELLIPSE
  5
DB3
330
1E
100
AcDbEntity
  8
IMAGE
100
AcDbEllipse
 10
2.934922516814817
 20
3.944028650041048
 30
0.0
 11
-0.0298341321682592
 21
0.0172053330202003
 31
0.0
210
0.0
220
0.0
230
1.0
 40
0.9754347115667947
 41
-4.712388980384689
 42
1.570796326794896
  0
INSERT
  5
F3A
330
1E
100
AcDbEntity
  8
TEXT_BUBBLES
100
AcDbBlockReference
 66
     1
  2
bubble
 10
-0.3031810498405658
 20
5.738777268691268
 30
0.0
  0
ATTRIB
  5
F3B
330
F3A
100
AcDbEntity
  8
TEXT_BUBBLES
100
AcDbText
 10
-0.3627048593643753
 20
5.676277268691268
 30
0.0
 40
0.125
  1
3
  7
ROMANS
 72
     4
 11
-0.3031810498405658
 21
5.738777268691268
 31
0.0
100
AcDbAttribute
  2
XX
 70
     0
  0
SEQEND
  5
F3C
330
F3A
100
AcDbEntity
  8
TEXT_BUBBLES
  0
TEXT
  5
F40
330
1E
100
AcDbEntity
  8
TEXT_BUBBLES
100
AcDbText
 10
0.1650002375226947
 20
0.2184722446952938
 30
0.0
 40
0.1
  1
7
  7
ROMANS
 72
     4
 11
0.2126192851417423
 21
0.2684722446952938
 31
0.0
100
AcDbText
  0
CIRCLE
  5
F42
330
1E
100
AcDbEntity
  8
TEXT_BUBBLES
100
AcDbCircle
 10
0.2126192851417423
 20
0.2684722446952938
 30
0.0
 40
0.125
  0
TEXT
  5
F45
330
1E
100
AcDbEntity
  8
TEXT_BUBBLES
100
AcDbText
 10
-1.738497749169087
 20
3.490500009342019
 30
0.0
 40
0.1
  1
4
  7
ROMANS
 72
     4
 11
-1.688497749169087
 21
3.540500009342019
 31
0.0
100
AcDbText
  0
CIRCLE
  5
F46
330
1E
100
AcDbEntity
  8
TEXT_BUBBLES
100
AcDbCircle
 10
-1.688497749169087
 20
3.540500009342019
 30
0.0
 40
0.125
  0
LINE
  5
F4B
330
1E
100
AcDbEntity
  8
IMAGE
100
AcDbLine
 10
2.961201062711915
 20
4.109096291656354
 30
0.0
 11
2.963987793497695
 21
4.110705211425683
 31
0.0
  0
LINE
  5
F4C
330
1E
100
AcDbEntity
  8
IMAGE
100
AcDbLine
 10
2.963987793497695
 20
4.110705211425683
 30
0.0
 11
2.950429096216983
 21
4.146151564080168
 31
0.0
  0
LINE
  5
F51
330
1E
100
AcDbEntity
  8
IMAGE
100
AcDbLine
 10
0.2551858346247684
 20
6.091501910031702
 30
0.0
 11
0.4730035680468092
 21
5.965744783006212
 31
0.0
  0
LINE
  5
F52
330
1E
100
AcDbEntity
  8
IMAGE
100
AcDbLine
 10
0.5022823106332575
 20
6.286922491368605
 30
0.0
 11
0.5022823106332575
 21
6.489771570334332
 31
0.0
  0
LINE
  5
F53
330
1E
100
AcDbEntity
  8
IMAGE
100
AcDbLine
 10
0.4730035680468092
 20
6.236210221627174
 30
0.0
 11
0.4730035680468092
 21
6.506675660248135
 31
0.0
  0
LINE
  5
F59
330
1E
100
AcDbEntity
  8
IMAGE
100
AcDbLine
 10
0.2551858346247684
 20
6.632432787273629
 30
0.0
 11
0.4730035680468092
 21
6.506675660248135
 31
0.0
  0
LINE
  5
F60
330
1E
100
AcDbEntity
  8
IMAGE
100
AcDbLine
 10
0.5022823106332575
 20
6.489771570334332
 30
0.0
 11
1.380644588226249
 21
6.996894267748643
 31
0.0
  0
LINE
  5
F61
330
1E
100
AcDbEntity
  8
IMAGE
100
AcDbLine
 10
1.380644588226249
 20
6.996894267748643
 30
0.0
 11
1.380644588226249
 21
6.794045188782915
 31
0.0
  0
LINE
  5
F62
330
1E
100
AcDbEntity
  8
IMAGE
100
AcDbLine
 10
1.409923330812692
 20
7.047606537490076
 30
0.0
 11
1.409923330812692
 21
6.506675660248153
 31
0.0
  0
LINE
  5
F64
330
1E
100
AcDbEntity
  8
IMAGE
100
AcDbLine
 10
0.4730035680468092
 20
6.506675660248135
 30
0.0
 11
1.175693390121224
 21
6.9123738181796
 31
0.0
  0
LINE
  5
F67
330
1E
100
AcDbEntity
  8
IMAGE
100
AcDbLine
 10
1.192105597390642
 20
7.173363664515573
 30
0.0
 11
1.409923330812692
 21
7.047606537490076
 31
0.0
  0
LINE
  5
F6C
330
1E
100
AcDbEntity
  8
IMAGE
100
AcDbLine
 10
1.175693390121224
 20
6.9123738181796
 30
0.0
 11
1.409923330812692
 21
7.047606537490076
 31
0.0
  0
LINE
  5
F6D
330
1E
100
AcDbEntity
  8
IMAGE
100
AcDbLine
 10
0.2551858346247684
 20
6.091501910031706
 30
0.0
 11
0.2551858346247684
 21
6.632432787273629
 31
0.0
  0
LINE
  5
F6E
330
1E
100
AcDbEntity
  8
IMAGE
100
AcDbLine
 10
0.2551858346247684
 20
6.632432787273629
 30
0.0
 11
1.192105597390642
 21
7.173363664515573
 31
0.0
  0
LINE
  5
F6F
330
1E
100
AcDbEntity
  8
IMAGE
100
AcDbLine
 10
0.4730035680468092
 20
5.965744783006212
 30
0.0
 11
0.4730035680468092
 21
6.236210221627174
 31
0.0
  0
LINE
  5
F70
330
1E
100
AcDbEntity
  8
IMAGE
100
AcDbLine
 10
1.409923330812692
 20
6.506675660248153
 30
0.0
 11
0.4730035680468092
 21
5.965744783006212
 31
0.0
  0
LINE
  5
F71
330
1E
100
AcDbEntity
  8
IMAGE
100
AcDbLine
 10
0.5022823106332575
 20
6.00235902460509
 30
0.0
 11
0.5022823106332575
 21
6.286922491368605
 31
0.0
  0
LINE
  5
F72
330
1E
100
AcDbEntity
  8
IMAGE
100
AcDbLine
 10
1.380644588226249
 20
6.509481722019401
 30
0.0
 11
0.5022823106332575
 21
6.00235902460509
 31
0.0
  0
LINE
  5
F73
330
1E
100
AcDbEntity
  8
IMAGE
100
AcDbLine
 10
1.380644588226249
 20
6.794045188782915
 30
0.0
 11
1.380644588226249
 21
6.509481722019401
 31
0.0
  0
LINE
  5
F77
330
1E
100
AcDbEntity
  8
IMAGE
100
AcDbLine
 10
0.1668879684017524
 20
6.125624154771189
 30
0.0
 11
0.1668879684017524
 21
6.523543831120708
 31
0.0
  0
LINE
  5
F79
330
1E
100
AcDbEntity
  8
IMAGE
100
AcDbLine
 10
0.1668879684017524
 20
6.523543831120708
 30
0.0
 11
0.2551858346247686
 21
6.574522627953436
 31
0.0
  0
LINE
  5
F7A
330
1E
100
AcDbEntity
  8
IMAGE
100
AcDbLine
 10
0.1668879684017524
 20
6.125624154771189
 30
0.0
 11
0.2551858346247686
 21
6.176602951603918
 31
0.0
  0
LWPOLYLINE
  5
F81
330
1E
100
AcDbEntity
  8
IMAGE
100
AcDbPolyline
 90
       19
 70
     1
 43
0.0
 10
0.2340622484647736
 20
6.491958223937275
 42
0.0916206593036125
 10
0.2326056185576536
 20
6.500656171738437
 42
0.1338272256830868
 10
0.2284114199006365
 20
6.506623047328772
 42
0.1492998140792082
 10
0.2219855347515947
 20
6.509139157450376
 42
0.1119210550517681
 10
0.2141030196954369
 20
6.507901022088762
 42
0.0759118367899279
 10
0.2057146223814066
 20
6.503057978641466
 42
0.0573757824643921
 10
0.1978321073252448
 20
6.495194169623938
 42
0.0507700122154809
 10
0.1914062221762064
 20
6.48525808646116
 42
0.052885093614998
 10
0.1872120235192659
 20
6.474448167423534
 42
0.0647821012387657
 10
0.1857553936121492
 20
6.4640682482844
 42
0.0916206593036147
 10
0.1872120235192659
 20
6.455370300483241
 42
0.1338272256830863
 10
0.1914062221762064
 20
6.449403424892907
 42
0.1492998140792593
 10
0.1978321073252448
 20
6.446887314771299
 42
0.1119210550517721
 10
0.2057146223814066
 20
6.448125450132919
 42
0.0759118367899111
 10
0.2141030196954369
 20
6.452968493580213
 42
0.0573757824643873
 10
0.2219855347515947
 20
6.460832302597741
 42
0.0507700122154694
 10
0.2284114199006365
 20
6.470768385760514
 42
0.0528850936150002
 10
0.2326056185576536
 20
6.481578304798145
 42
0.064782101238765
 10
0.2340622484647736
 20
6.491958223937275
  0
LWPOLYLINE
  5
F87
330
1E
100
AcDbEntity
  8
IMAGE
100
AcDbPolyline
 90
       19
 70
     1
 43
0.0
 10
0.2374812330105624
 20
6.223807930255849
 42
0.0916206593036125
 10
0.2360246031034424
 20
6.23250587805701
 42
0.1338272256830868
 10
0.2318304044464253
 20
6.238472753647346
 42
0.1492998140792082
 10
0.2254045192973836
 20
6.24098886376895
 42
0.1119210550517681
 10
0.2175220042412257
 20
6.239750728407336
 42
0.0759118367899279
 10
0.2091336069271954
 20
6.23490768496004
 42
0.0573757824643921
 10
0.2012510918710336
 20
6.227043875942512
 42
0.0507700122154809
 10
0.1948252067219952
 20
6.217107792779734
 42
0.052885093614998
 10
0.1906310080650547
 20
6.206297873742108
 42
0.0647821012387657
 10
0.189174378157938
 20
6.195917954602974
 42
0.0916206593036147
 10
0.1906310080650547
 20
6.187220006801815
 42
0.1338272256830863
 10
0.1948252067219952
 20
6.181253131211481
 42
0.1492998140792593
 10
0.2012510918710336
 20
6.178737021089872
 42
0.1119210550517721
 10
0.2091336069271954
 20
6.179975156451493
 42
0.0759118367899111
 10
0.2175220042412257
 20
6.184818199898787
 42
0.0573757824643873
 10
0.2254045192973836
 20
6.192682008916315
 42
0.0507700122154694
 10
0.2318304044464253
 20
6.202618092079088
 42
0.0528850936150002
 10
0.2360246031034424
 20
6.213428011116719
 42
0.064782101238765
 10
0.2374812330105624
 20
6.223807930255849
  0
LINE
  5
F99
330
1E
100
AcDbEntity
  8
IMAGE
100
AcDbLine
 10
-1.237013907882278
 20
7.805357806935397
 30
0.0
 11
-1.179489811136821
 21
1.339615724392354
 31
0.0
  0
LWPOLYLINE
  5
F9A
330
1E
100
AcDbEntity
  8
IMAGE
100
AcDbPolyline
 90
        4
 70
     0
 43
0.023
 10
0.7093197478267247
 20
6.102181993016005
 10
0.7093197478267247
 20
5.432642366562173
 10
0.7093197478267247
 20
5.174105206032692
 42
0.1380338139293866
 10
0.7905497202172178
 20
4.873780993381924
 42
0.1380338139293866
  0
LWPOLYLINE
  5
F9B
330
1E
100
AcDbEntity
  8
IMAGE
100
AcDbPolyline
 90
       19
 70
     1
 43
0.0
 10
0.912311477240151
 20
2.485980167277267
 42
0.0916206593036125
 10
0.9117288252773029
 20
2.489459346397731
 42
0.1338272256830868
 10
0.9100511458144961
 20
2.491846096633864
 42
0.1492998140792082
 10
0.9074807917548795
 20
2.492852540682506
 42
0.1119210550517681
 10
0.9043277857324163
 20
2.492357286537859
 42
0.0759118367899279
 10
0.900972426806804
 20
2.490420069158941
 42
0.0573757824643921
 10
0.8978194207843394
 20
2.487274545551931
 42
0.0507700122154809
 10
0.8952490667247241
 20
2.483300112286821
 42
0.052885093614998
 10
0.893571387261948
 20
2.478976144671768
 42
0.0647821012387657
 10
0.8929887352991013
 20
2.474824177016116
 42
0.0916206593036147
 10
0.893571387261948
 20
2.471344997895652
 42
0.1338272256830863
 10
0.8952490667247241
 20
2.468958247659519
 42
0.1492998140792593
 10
0.8978194207843394
 20
2.467951803610876
 42
0.1119210550517721
 10
0.900972426806804
 20
2.468447057755524
 42
0.0759118367899111
 10
0.9043277857324163
 20
2.470384275134442
 42
0.0573757824643873
 10
0.9074807917548795
 20
2.473529798741451
 42
0.0507700122154694
 10
0.9100511458144961
 20
2.477504232006562
 42
0.0528850936150002
 10
0.9117288252773029
 20
2.481828199621615
 42
0.064782101238765
 10
0.912311477240151
 20
2.485980167277267
  0
LINE
  5
F9C
330
1E
100
AcDbEntity
  8
IMAGE
100
AcDbLine
 10
0.8833273643285615
 20
2.446934201363243
 30
0.0
 11
0.8833273643285615
 21
2.458090191624391
 31
0.0
  0
LINE
  5
F9D
330
1E
100
AcDbEntity
  8
IMAGE
100
AcDbLine
 10
0.8833273643285615
 20
2.458090191624391
 30
0.0
 11
0.8543432514169708
 21
2.441356206232667
 31
0.0
  0
LINE
  5
F9E
330
1E
100
AcDbEntity
  8
IMAGE
100
AcDbLine
 10
0.8543432514169708
 20
2.463668186754968
 30
0.0
 11
0.8543432514169708
 21
2.474824177016116
 31
0.0
  0
LINE
  5
F9F
330
1E
100
AcDbEntity
  8
IMAGE
100
AcDbLine
 10
0.8833273643285615
 20
2.48040217214669
 30
0.0
 11
0.8543432514169708
 21
2.463668186754968
 31
0.0
  0
LINE
  5
FA0
330
1E
100
AcDbEntity
  8
IMAGE
100
AcDbLine
 10
0.8833273643285615
 20
2.491558162407841
 30
0.0
 11
0.8833273643285615
 21
2.48040217214669
 31
0.0
  0
LINE
  5
FA1
330
1E
100
AcDbEntity
  8
IMAGE
100
AcDbLine
 10
0.8543432514169708
 20
2.474824177016116
 30
0.0
 11
0.8833273643285615
 21
2.491558162407841
 31
0.0
  0
LINE
  5
FA2
330
1E
100
AcDbEntity
  8
IMAGE
100
AcDbLine
 10
0.8543432514169708
 20
2.441356206232667
 30
0.0
 11
0.8543432514169708
 21
2.430200215971516
 31
0.0
  0
LINE
  5
FA3
330
1E
100
AcDbEntity
  8
IMAGE
100
AcDbLine
 10
0.8543432514169708
 20
2.430200215971516
 30
0.0
 11
0.8833273643285615
 21
2.446934201363243
 31
0.0
  0
LWPOLYLINE
  5
FA4
330
1E
100
AcDbEntity
  8
IMAGE
100
AcDbPolyline
 90
       13
 70
     1
 43
0.0
 10
0.9219728482106592
 20
2.458090191624391
 10
0.9219728482106592
 20
2.525026133191291
 42
0.1604757256896696
 10
0.9088388531975123
 20
2.531342129254581
 42
0.121946455370167
 10
0.8922350384521081
 20
2.529212450328846
 42
0.0807104688999249
 10
0.8744196902050129
 20
2.51892675422269
 42
0.0602395935416768
 10
0.8578158754596101
 20
2.501883999322752
 42
0.0537597547242333
 10
0.8446818804464619
 20
2.48040217214669
 10
0.8446818804464619
 20
2.413466230579791
 42
0.1604757256896791
 10
0.8578158754596101
 20
2.407150234516504
 42
0.1219464553701619
 10
0.8744196902050129
 20
2.409279913442236
 42
0.0807104688999241
 10
0.8922350384521081
 20
2.419565609548392
 42
0.0602395935416808
 10
0.9088388531975123
 20
2.436608364448328
 42
0.0537597547242337
 10
0.9219728482106592
 20
2.458090191624391
  0
LINE
  5
FA5
330
1E
100
AcDbEntity
  8
IMAGE
100
AcDbLine
 10
6.541949524234273
 20
8.734248763193015
 30
0.0
 11
6.537674642762288
 21
5.79512269923159
 31
0.0
  0
LINE
  5
FA9
330
1E
100
AcDbEntity
  8
IMAGE
100
AcDbLine
 10
-1.035879817479216
 20
2.775204493631704
 30
0.0
 11
-0.9520984490147231
 21
2.823575689267753
 31
0.0
  0
LINE
  5
FAB
330
1E
100
AcDbEntity
  8
IMAGE
100
AcDbLine
 10
-0.9487527241104004
 20
2.724901642821507
 30
0.0
 11
-0.8000156697673522
 21
2.810775021184936
 31
0.0
  0
LWPOLYLINE
  5
FAD
330
1E
100
AcDbEntity
  8
IMAGE
100
AcDbPolyline
 90
       19
 70
     1
 43
0.0
 10
-0.9858355407224021
 20
2.82843312709609
 42
0.0916206593036125
 10
-0.9864181926852502
 20
2.831912306216555
 42
0.1338272256830868
 10
-0.988095872148057
 20
2.834299056452689
 42
0.1492998140792082
 10
-0.9906662262076737
 20
2.835305500501331
 42
0.1119210550517681
 10
-0.9938192322301368
 20
2.834810246356685
 42
0.0759118367899279
 10
-0.9971745911557491
 20
2.832873028977767
 42
0.0573757824643921
 10
-1.000327597178213
 20
2.829727505370756
 42
0.0507700122154809
 10
-1.002897951237829
 20
2.825753072105644
 42
0.052885093614998
 10
-1.004575630700605
 20
2.821429104490594
 42
0.0647821012387657
 10
-1.005158282663451
 20
2.81727713683494
 42
0.0916206593036147
 10
-1.004575630700605
 20
2.813797957714476
 42
0.1338272256830863
 10
-1.002897951237829
 20
2.811411207478343
 42
0.1492998140792593
 10
-1.000327597178213
 20
2.8104047634297
 42
0.1119210550517721
 10
-0.9971745911557491
 20
2.810900017574348
 42
0.0759118367899111
 10
-0.9938192322301368
 20
2.812837234953265
 42
0.0573757824643873
 10
-0.9906662262076737
 20
2.815982758560276
 42
0.0507700122154694
 10
-0.988095872148057
 20
2.819957191825386
 42
0.0528850936150002
 10
-0.9864181926852502
 20
2.824281159440438
 42
0.064782101238765
 10
-0.9858355407224021
 20
2.82843312709609
  0
LINE
  5
FB2
330
1E
100
AcDbEntity
  8
IMAGE
100
AcDbLine
 10
-1.035879817479216
 20
2.333960561842266
 30
0.0
 11
-1.035879817479216
 21
2.775204493631704
 31
0.0
  0
LINE
  5
FB4
330
1E
100
AcDbEntity
  8
IMAGE
100
AcDbLine
 10
-0.9487527241104002
 20
2.28365771103207
 30
0.0
 11
-0.9487527241104004
 21
2.616715467373122
 31
0.0
  0
LINE
  5
FB5
330
1E
100
AcDbEntity
  8
IMAGE
100
AcDbLine
 10
-1.035879817479216
 20
2.775204493631704
 30
0.0
 11
-0.9487527241104004
 21
2.724901642821507
 31
0.0
  0
LINE
  5
FB7
330
1E
100
AcDbEntity
  8
IMAGE
100
AcDbLine
 10
-0.9487527241104004
 20
2.616715467373122
 30
0.0
 11
-0.9487527241104004
 21
2.724901642821507
 31
0.0
  0
LINE
  5
FB9
330
1E
100
AcDbEntity
  8
IMAGE
100
AcDbLine
 10
-0.8000156697673522
 20
2.810775021184932
 30
0.0
 11
-0.8000156697673521
 21
2.369531089395497
 31
0.0
  0
LINE
  5
FBA
330
1E
100
AcDbEntity
  8
IMAGE
100
AcDbLine
 10
-0.8871427631361724
 20
2.861077871995131
 30
0.0
 11
-0.8000156697673522
 21
2.810775021184932
 31
0.0
  0
LINE
  5
FBD
330
1E
100
AcDbEntity
  8
IMAGE
100
AcDbLine
 10
-1.035879817479216
 20
2.333960561842266
 30
0.0
 11
-0.9487527241104004
 21
2.28365771103207
 31
0.0
  0
LINE
  5
FBE
330
1E
100
AcDbEntity
  8
IMAGE
100
AcDbLine
 10
-0.8000156697673521
 20
2.369531089395497
 30
0.0
 11
-0.9487527241104004
 21
2.28365771103207
 31
0.0
  0
LINE
  5
FBF
330
1E
100
AcDbEntity
  8
IMAGE
100
AcDbLine
 10
-1.023434358133098
 20
2.782389882935374
 30
0.0
 11
-1.023434358133098
 21
2.834612337175145
 31
0.0
  0
LINE
  5
FC0
330
1E
100
AcDbEntity
  8
IMAGE
100
AcDbLine
 10
-0.8989797123778416
 20
2.854243806164069
 30
0.0
 11
-0.8989797123778414
 21
2.906466260403841
 31
0.0
  0
LINE
  5
FC1
330
1E
100
AcDbEntity
  8
IMAGE
100
AcDbLine
 10
-1.023434358133098
 20
2.834612337175146
 30
0.0
 11
-0.8989797123778412
 21
2.906466260403841
 31
0.0
  0
LWPOLYLINE
  5
FC2
330
1E
100
AcDbEntity
  8
IMAGE
100
AcDbPolyline
 90
       19
 70
     1
 43
0.0
 10
-0.9111627323516312
 20
2.871951834452662
 42
0.0916206593036125
 10
-0.9117453843144794
 20
2.875431013573127
 42
0.1338272256830868
 10
-0.9134230637772862
 20
2.877817763809261
 42
0.1492998140792082
 10
-0.9159934178369029
 20
2.878824207857903
 42
0.1119210550517681
 10
-0.919146423859366
 20
2.878328953713257
 42
0.0759118367899279
 10
-0.9225017827849782
 20
2.876391736334339
 42
0.0573757824643921
 10
-0.9256547888074429
 20
2.873246212727328
 42
0.0507700122154809
 10
-0.9282251428670582
 20
2.869271779462216
 42
0.052885093614998
 10
-0.9299028223298344
 20
2.864947811847166
 42
0.0647821012387657
 10
-0.930485474292681
 20
2.860795844191512
 42
0.0916206593036147
 10
-0.9299028223298344
 20
2.857316665071048
 42
0.1338272256830863
 10
-0.9282251428670582
 20
2.854929914834915
 42
0.1492998140792593
 10
-0.9256547888074429
 20
2.853923470786272
 42
0.1119210550517721
 10
-0.9225017827849782
 20
2.85441872493092
 42
0.0759118367899111
 10
-0.919146423859366
 20
2.856355942309837
 42
0.0573757824643873
 10
-0.9159934178369029
 20
2.859501465916848
 42
0.0507700122154694
 10
-0.9134230637772862
 20
2.863475899181958
 42
0.0528850936150002
 10
-0.9117453843144794
 20
2.86779986679701
 42
0.064782101238765
 10
-0.9111627323516312
 20
2.871951834452662
  0
LINE
  5
FC3
330
1E
100
AcDbEntity
  8
IMAGE
100
AcDbLine
 10
-1.023434358133098
 20
2.285098738312056
 30
0.0
 11
-1.023434358133098
 21
2.326775172538596
 31
0.0
  0
LINE
  5
FC7
330
1E
100
AcDbEntity
  8
IMAGE
100
AcDbLine
 10
-0.9873415073537625
 20
2.305936955425325
 30
0.0
 11
-1.023434358133098
 21
2.285098738312056
 31
0.0
  0
LWPOLYLINE
  5
FC9
330
1E
100
AcDbEntity
  8
IMAGE
100
AcDbPolyline
 90
        4
 70
     0
 43
0.023
 10
0.6502775836821077
 20
6.068093983653573
 42
-0.3106792467430515
 10
-0.1078548319309149
 20
4.905305567206163
 42
0.2221877529527215
 10
-0.9235606935264826
 20
3.547057363031978
 10
-0.9235606935264826
 20
2.833755008862734
  0
LINE
  5
FD3
330
1E
100
AcDbEntity
  8
IMAGE
100
AcDbLine
 10
-0.8943171962401802
 20
2.784735156277616
 30
0.0
 11
-0.893407625706156
 21
2.832499935282409
 31
0.0
  0
LWPOLYLINE
  5
FD4
330
1E
100
AcDbEntity
  8
IMAGE
100
AcDbPolyline
 90
        9
 70
     0
 43
0.0
 10
-0.8943171962401796
 20
2.784735156277617
 42
-0.1568512196707746
 10
-0.8963269186027238
 20
2.77887174997543
 42
-0.1066170543910077
 10
-0.903111666921173
 20
2.772957101855276
 42
-0.0723410840576587
 10
-0.9121176238959311
 20
2.769565919869545
 42
-0.0587518675353754
 10
-0.9238886120461046
 20
2.76840475263289
 42
-0.0587518675353755
 10
-0.9356068588953956
 20
2.770013218411848
 42
-0.0723410840576597
 10
-0.944477178945474
 20
2.773744813044273
 42
-0.1066170543910072
 10
-0.9510318282873377
 20
2.77991347936165
 42
-0.1568512196707774
 10
-0.9528168643594533
 20
2.785849148124331
 42
-0.1568512196707807
  0
LINE
  5
FD5
330
1E
100
AcDbEntity
  8
IMAGE
100
AcDbLine
 10
-0.9528168643594533
 20
2.785849148124331
 30
0.0
 11
-0.9519072938254291
 21
2.833613927129123
 31
0.0
  0
LWPOLYLINE
  5
FD6
330
1E
100
AcDbEntity
  8
IMAGE
100
AcDbPolyline
 90
       16
 70
     1
 43
0.0
 10
-0.9229790415120803
 20
2.816169531637684
 42
-0.0587518675353755
 10
-0.9346972883613711
 20
2.817777997416641
 42
-0.0723410840576597
 10
-0.943567608411449
 20
2.821509592049067
 42
-0.1066170543910072
 10
-0.9501222577533141
 20
2.827678258366442
 42
-0.1568512196707782
 10
-0.9519072938254296
 20
2.833613927129123
 42
-0.1568512196707807
 10
-0.9498975714628855
 20
2.839477333431309
 42
-0.1066170543910086
 10
-0.9431128231444372
 20
2.845391981551463
 42
-0.0723410840576592
 10
-0.9341068661696789
 20
2.848783163537194
 42
-0.0587518675353762
 10
-0.9223358780195049
 20
2.849944330773849
 42
-0.0587518675353772
 10
-0.9106176311702135
 20
2.848335864994892
 42
-0.072341084057659
 10
-0.9017473111201365
 20
2.844604270362466
 42
-0.1066170543910099
 10
-0.8951926617782719
 20
2.838435604045089
 42
-0.1568512196707723
 10
-0.893407625706156
 20
2.832499935282409
 42
-0.1568512196707746
 10
-0.8954173480687014
 20
2.826636528980223
 42
-0.1066170543910077
 10
-0.9022020963871488
 20
2.820721880860069
 42
-0.0723410840576587
 10
-0.9112080533619074
 20
2.817330698874338
 42
-0.0587518675353754
  0
LINE
  5
FD8
330
1E
100
AcDbEntity
  8
IMAGE
100
AcDbLine
 10
-0.9096661003947236
 20
2.848074017165857
 30
0.0
 11
-0.8871427631361722
 21
2.86107787199513
 31
0.0
  0
LWPOLYLINE
  5
FE2
330
1E
100
AcDbEntity
  8
IMAGE
100
AcDbPolyline
 90
        3
 70
     0
 43
0.023
 10
-0.9228732943309438
 20
2.252793473862907
 10
-0.9228732943309438
 20
2.040476614751128
 42
-0.4366502482019116
 10
-1.043740615012701
 20
1.830849347142397
  0
LINE
  5
FE3
330
1E
100
AcDbEntity
  8
IMAGE
100
AcDbLine
 10
-0.8943171962401802
 20
2.269133003515484
 30
0.0
 11
-0.893407625706156
 21
2.316897782520278
 31
0.0
  0
LWPOLYLINE
  5
FE4
330
1E
100
AcDbEntity
  8
IMAGE
100
AcDbPolyline
 90
        5
 70
     0
 43
0.0
 10
-0.8935246840789005
 20
2.31554363481107
 42
-0.1225975430155985
 10
-0.8954173480687014
 20
2.311034376218092
 42
-0.1066170543910077
 10
-0.9022020963871488
 20
2.305119728097937
 42
-0.0723410840576587
 10
-0.9112080533619074
 20
2.301728546112206
 42
-0.0407807139426247
 10
-0.9193588934131675
 20
2.300628247097631
 42
-0.0407807139426247
  0
LINE
  5
FE5
330
1E
100
AcDbEntity
  8
IMAGE
100
AcDbLine
 10
-0.9528168643594533
 20
2.270246995362199
 30
0.0
 11
-0.9525200687195869
 21
2.285832788456314
 31
0.0
  0
LWPOLYLINE
  5
FE6
330
1E
100
AcDbEntity
  8
IMAGE
100
AcDbPolyline
 90
        9
 70
     0
 43
0.0
 10
-0.8943171962401796
 20
2.269133003515485
 42
-0.1568512196707746
 10
-0.8963269186027238
 20
2.263269597213299
 42
-0.1066170543910077
 10
-0.903111666921173
 20
2.257354949093144
 42
-0.0723410840576587
 10
-0.9121176238959311
 20
2.253963767107414
 42
-0.0587518675353754
 10
-0.9238886120461046
 20
2.252802599870759
 42
-0.0587518675353755
 10
-0.9356068588953956
 20
2.254411065649716
 42
-0.0723410840576597
 10
-0.944477178945474
 20
2.258142660282142
 42
-0.1066170543910072
 10
-0.9510318282873377
 20
2.264311326599518
 42
-0.1568512196707774
 10
-0.9528168643594533
 20
2.270246995362199
 42
-0.1568512196707807
  0
LWPOLYLINE
  5
FED
330
1E
100
AcDbEntity
  8
IMAGE
100
AcDbPolyline
 90
       19
 70
     1
 43
0.0
 10
-1.020702364618209
 20
1.845079465316172
 42
0.0916206593036125
 10
-1.022013331534617
 20
1.852907618337217
 42
0.1338272256830868
 10
-1.025788110325932
 20
1.858277806368519
 42
0.1492998140792082
 10
-1.03157140696007
 20
1.860542305477963
 42
0.1119210550517681
 10
-1.038665670510612
 20
1.85942798365251
 42
0.0759118367899279
 10
-1.046215228093239
 20
1.855069244549944
 42
0.0573757824643921
 10
-1.053309491643785
 20
1.847991816434169
 42
0.0507700122154809
 10
-1.05909278827792
 20
1.839049341587669
 42
0.052885093614998
 10
-1.062867567069166
 20
1.829320414453805
 42
0.0647821012387657
 10
-1.064178533985571
 20
1.819978487228584
 42
0.0916206593036147
 10
-1.062867567069166
 20
1.812150334207541
 42
0.1338272256830863
 10
-1.05909278827792
 20
1.806780146176241
 42
0.1492998140792593
 10
-1.053309491643785
 20
1.804515647066793
 42
0.1119210550517721
 10
-1.046215228093239
 20
1.805629968892252
 42
0.0759118367899111
 10
-1.038665670510612
 20
1.809988707994816
 42
0.0573757824643873
 10
-1.03157140696007
 20
1.817066136110591
 42
0.0507700122154694
 10
-1.025788110325932
 20
1.826008610957087
 42
0.0528850936150002
 10
-1.022013331534617
 20
1.835737538090955
 42
0.064782101238765
 10
-1.020702364618209
 20
1.845079465316172
  0
CIRCLE
  5
FF1
330
1E
100
AcDbEntity
  8
TEXT_BUBBLES
100
AcDbCircle
 10
-1.688497749169087
 20
2.862810490003291
 30
0.0
 40
0.125
  0
TEXT
  5
FF2
330
1E
100
AcDbEntity
  8
TEXT_BUBBLES
100
AcDbText
 10
-1.736116796788135
 20
2.812810490003291
 30
0.0
 40
0.1
  1
8
  7
ROMANS
 72
     4
 11
-1.688497749169087
 21
2.862810490003291
 31
0.0
100
AcDbText
  0
CIRCLE
  5
FF5
330
1E
100
AcDbEntity
  8
TEXT_BUBBLES
100
AcDbCircle
 10
-1.688497749169087
 20
2.32661659797347
 30
0.0
 40
0.125
  0
TEXT
  5
FF6
330
1E
100
AcDbEntity
  8
TEXT_BUBBLES
100
AcDbText
 10
-1.733735844407182
 20
2.27661659797347
 30
0.0
 40
0.1
  1
9
  7
ROMANS
 72
     4
 11
-1.688497749169087
 21
2.32661659797347
 31
0.0
100
AcDbText
  0
LEADER
  5
1013
330
1E
100
AcDbEntity
  8
TEXT_BUBBLES
100
AcDbLeader
  3
Standard
 76
     2
 10
-0.9280245352596764
 20
1.928591784847836
 30
0.0
 10
-1.580087059393146
 20
2.264390218179168
 30
0.0
  0
LEADER
  5
1014
330
1E
100
AcDbEntity
  8
TEXT_BUBBLES
100
AcDbLeader
  3
Standard
 76
     2
 10
-1.035879817479216
 20
2.48969328420111
 30
0.0
 10
-1.575391890611224
 20
2.809593342767755
 30
0.0
  0
LEADER
  5
1015
330
1E
100
AcDbEntity
  8
TEXT_BUBBLES
100
AcDbLeader
  3
Standard
 76
     2
 10
0.4342056344061448
 20
2.348063715369251
 30
0.0
 10
-1.578059482538929
 20
3.48194756051427
 30
0.0
  0
LEADER
  5
1016
330
1E
100
AcDbEntity
  8
TEXT_BUBBLES
100
AcDbLeader
  3
Standard
 76
     2
 10
0.2126192851417423
 20
1.767387586303499
 30
0.0
 10
0.2126192851417423
 20
0.3934722446952938
 30
0.0
  0
LEADER
  5
1017
330
1E
100
AcDbEntity
  8
TEXT_BUBBLES
100
AcDbLeader
  3
Standard
 76
     2
 10
-0.1078548319309149
 20
4.905305567206163
 30
0.0
 10
-0.2947034839558726
 20
5.599145198309498
 30
0.0
  0
LEADER
  5
1018
330
1E
100
AcDbEntity
  8
TEXT_BUBBLES
100
AcDbLeader
  3
Standard
 76
     2
 10
1.718165623007047
 20
5.722516705591927
 30
0.0
 10
1.718165623007047
 20
6.954101801985736
 30
0.0
  0
LEADER
  5
1019
330
1E
100
AcDbEntity
  8
TEXT_BUBBLES
100
AcDbLeader
  3
Standard
 76
     2
 10
0.6533545540897468
 20
6.862315604639618
 30
0.0
 10
0.6533545540897468
 20
7.636191089779395
 30
0.0
  0
LEADER
  5
101A
330
1E
100
AcDbEntity
  8
TEXT_BUBBLES
100
AcDbLeader
  3
Standard
 76
     2
 10
1.234934216888688
 20
0.7740502884627272
 30
0.0
 10
1.234934216888688
 20
0.3934722446952938
 30
0.0
  0
LEADER
  5
101C
330
1E
100
AcDbEntity
  8
TEXT_BUBBLES
100
AcDbLeader
  3
Standard
 76
     2
 10
0.6720166951592086
 20
1.760737392843185
 30
0.0
 10
0.6720166951592086
 20
0.3934722446952938
 30
0.0
  0
ENDSEC
  0
SECTION
  2
OBJECTS
  0
DICTIONARY
  5
C
330
0
100
AcDbDictionary
281
     1
  3
ACAD_GROUP
350
D
  3
ACAD_LAYOUT
350
19
  3
ACAD_MLINESTYLE
350
16
  3
ACAD_PLOTSETTINGS
350
18
  3
ACAD_PLOTSTYLENAME
350
E
  3
AcDbVariableDictionary
350
C39
  0
DICTIONARY
  5
C4D
330
2
100
AcDbDictionary
280
     1
281
     1
  3
ACAD_LAYERFILTERS
360
C6B
  3
ACAD_LAYERSTATES
360
C4E
  0
DICTIONARY
  5
D
102
{ACAD_REACTORS
330
C
102
}
330
C
100
AcDbDictionary
281
     1
  0
DICTIONARY
  5
19
102
{ACAD_REACTORS
330
C
102
}
330
C
100
AcDbDictionary
281
     1
  3
Layout1
350
1D
  3
Model
350
21
  0
DICTIONARY
  5
16
102
{ACAD_REACTORS
330
C
102
}
330
C
100
AcDbDictionary
281
     1
  3
Standard
350
17
  0
DICTIONARY
  5
18
102
{ACAD_REACTORS
330
C
102
}
330
C
100
AcDbDictionary
281
     1
  0
ACDBDICTIONARYWDFLT
  5
E
102
{ACAD_REACTORS
330
C
102
}
330
C
100
AcDbDictionary
281
     1
  3
Normal
350
F
100
AcDbDictionaryWithDefault
340
F
  0
DICTIONARY
  5
C39
102
{ACAD_REACTORS
330
C
102
}
330
C
100
AcDbDictionary
281
     1
  3
DIMASSOC
350
C3B
  3
HIDETEXT
350
C3A
  3
SORTENTS
350
100C
  0
DICTIONARY
  5
C6B
102
{ACAD_REACTORS
330
C4D
102
}
330
C4D
100
AcDbDictionary
280
     1
281
     1
  0
DICTIONARY
  5
C4E
102
{ACAD_REACTORS
330
C4D
102
}
330
C4D
100
AcDbDictionary
281
     1
  0
LAYOUT
  5
1D
102
{ACAD_REACTORS
330
19
102
}
330
19
100
AcDbPlotSettings
  1

  2
S:\AutoCAD 2002\Plotters\LaserJet5Shaded.pc3
  4

  6

 40
0.0
 41
0.0
 42
0.0
 43
0.0
 44
0.0
 45
0.0
 46
0.0
 47
0.0
 48
0.0
 49
0.0
140
0.0
141
0.0
142
1.0
143
1.0
 70
   688
 72
     0
 73
     0
 74
     5
  7

 75
    16
147
1.0
148
0.0
149
0.0
100
AcDbLayout
  1
Layout1
 70
     0
 71
     1
 10
0.0
 20
0.0
 11
12.0
 21
9.0
 12
0.0
 22
0.0
 32
0.0
 14
1.000000000000000E+20
 24
1.000000000000000E+20
 34
1.000000000000000E+20
 15
-1.000000000000000E+20
 25
-1.000000000000000E+20
 35
-1.000000000000000E+20
146
0.0
 13
0.0
 23
0.0
 33
0.0
 16
1.0
 26
0.0
 36
0.0
 17
0.0
 27
1.0
 37
0.0
 76
     0
330
1A
  0
LAYOUT
  5
21
102
{ACAD_REACTORS
330
19
102
}
330
19
100
AcDbPlotSettings
  1

  2
LaserJet5Shaded.pc3
  4
Letter
  6

 40
7.143749713897705
 41
6.974400997161865
 42
7.14373779296875
 43
6.297088623046875
 44
215.8999938964843
 45
279.3999938964843
 46
0.0
 47
0.0
 48
-2.549703268922698
 49
-1.808676586400029
140
14.18522878295642
141
8.828704568075838
142
1.0
143
1.597225653349989
 70
 11952
 72
     0
 73
     1
 74
     4
  7

 75
     0
147
0.626085611574432
148
64.76246303063653
149
45.94038529456073
100
AcDbLayout
  1
Model
 70
     1
 71
     0
 10
0.0
 20
0.0
 11
12.0
 21
9.0
 12
0.0
 22
0.0
 32
0.0
 14
0.0
 24
0.0
 34
0.0
 15
0.0
 25
0.0
 35
0.0
146
0.0
 13
0.0
 23
0.0
 33
0.0
 16
1.0
 26
0.0
 36
0.0
 17
0.0
 27
1.0
 37
0.0
 76
     0
330
1E
  0
MLINESTYLE
  5
17
102
{ACAD_REACTORS
330
16
102
}
330
16
100
AcDbMlineStyle
  2
STANDARD
 70
     0
  3

 62
   256
 51
90.0
 52
90.0
 71
     2
 49
0.5
 62
   256
  6
BYLAYER
 49
-0.5
 62
   256
  6
BYLAYER
  0
ACDBPLACEHOLDER
  5
F
102
{ACAD_REACTORS
330
E
102
}
330
E
  0
DICTIONARYVAR
  5
C3B
102
{ACAD_REACTORS
330
C39
102
}
330
C39
100
DictionaryVariables
280
     0
  1
1
  0
DICTIONARYVAR
  5
C3A
102
{ACAD_REACTORS
330
C39
102
}
330
C39
100
DictionaryVariables
280
     0
  1
1
  0
DICTIONARYVAR
  5
100C
102
{ACAD_REACTORS
330
C39
102
}
330
C39
100
DictionaryVariables
280
     0
  1
1
  0
ENDSEC
  0
EOF
