  0
SECTION
  2
HEADER
  9
$ACADVER
  1
AC1015
  9
$ACADMAINTVER
 70
    13
  9
$DWGCODEPAGE
  3
ANSI_1252
  9
$INSBASE
 10
0.0
 20
0.0
 30
0.0
  9
$EXTMIN
 10
-0.0258030127938633
 20
0.0895098875638348
 30
0.0
  9
$EXTMAX
 10
16.46419698720613
 20
10.52950988756383
 30
0.03
  9
$LIMMIN
 10
0.0
 20
0.0
  9
$LIMMAX
 10
12.0
 20
9.0
  9
$ORTHOMODE
 70
     1
  9
$REGENMODE
 70
     1
  9
$FILLMODE
 70
     1
  9
$QTEXTMODE
 70
     0
  9
$MIRRTEXT
 70
     0
  9
$LTSCALE
 40
1.0
  9
$ATTMODE
 70
     1
  9
$TEXTSIZE
 40
0.59651550821952
  9
$TRACEWID
 40
0.05
  9
$TEXTSTYLE
  7
SIMPLEX
  9
$CLAYER
  8
IMAGE
  9
$CELTYPE
  6
ByLayer
  9
$CECOLOR
 62
   256
  9
$CELTSCALE
 40
1.0
  9
$DISPSILH
 70
     0
  9
$DIMSCALE
 40
1.0
  9
$DIMASZ
 40
0.18
  9
$DIMEXO
 40
0.0625
  9
$DIMDLI
 40
0.38
  9
$DIMRND
 40
0.0
  9
$DIMDLE
 40
0.0
  9
$DIMEXE
 40
0.18
  9
$DIMTP
 40
0.0
  9
$DIMTM
 40
0.0
  9
$DIMTXT
 40
0.18
  9
$DIMCEN
 40
0.09
  9
$DIMTSZ
 40
0.0
  9
$DIMTOL
 70
     0
  9
$DIMLIM
 70
     0
  9
$DIMTIH
 70
     1
  9
$DIMTOH
 70
     1
  9
$DIMSE1
 70
     0
  9
$DIMSE2
 70
     0
  9
$DIMTAD
 70
     0
  9
$DIMZIN
 70
     0
  9
$DIMBLK
  1

  9
$DIMASO
 70
     1
  9
$DIMSHO
 70
     1
  9
$DIMPOST
  1

  9
$DIMAPOST
  1

  9
$DIMALT
 70
     0
  9
$DIMALTD
 70
     2
  9
$DIMALTF
 40
25.4
  9
$DIMLFAC
 40
1.0
  9
$DIMTOFL
 70
     0
  9
$DIMTVP
 40
0.0
  9
$DIMTIX
 70
     0
  9
$DIMSOXD
 70
     0
  9
$DIMSAH
 70
     0
  9
$DIMBLK1
  1

  9
$DIMBLK2
  1

  9
$DIMSTYLE
  2
Standard
  9
$DIMCLRD
 70
     0
  9
$DIMCLRE
 70
     0
  9
$DIMCLRT
 70
     0
  9
$DIMTFAC
 40
1.0
  9
$DIMGAP
 40
0.09
  9
$DIMJUST
 70
     0
  9
$DIMSD1
 70
     0
  9
$DIMSD2
 70
     0
  9
$DIMTOLJ
 70
     1
  9
$DIMTZIN
 70
     0
  9
$DIMALTZ
 70
     0
  9
$DIMALTTZ
 70
     0
  9
$DIMUPT
 70
     0
  9
$DIMDEC
 70
     4
  9
$DIMTDEC
 70
     4
  9
$DIMALTU
 70
     2
  9
$DIMALTTD
 70
     2
  9
$DIMTXSTY
  7
STANDARD
  9
$DIMAUNIT
 70
     0
  9
$DIMADEC
 70
     0
  9
$DIMALTRND
 40
0.0
  9
$DIMAZIN
 70
     0
  9
$DIMDSEP
 70
    46
  9
$DIMATFIT
 70
     3
  9
$DIMFRAC
 70
     0
  9
$DIMLDRBLK
  1

  9
$DIMLUNIT
 70
     2
  9
$DIMLWD
 70
    -2
  9
$DIMLWE
 70
    -2
  9
$DIMTMOVE
 70
     2
  9
$LUNITS
 70
     2
  9
$LUPREC
 70
     4
  9
$SKETCHINC
 40
0.1
  9
$FILLETRAD
 40
0.0
  9
$AUNITS
 70
     0
  9
$AUPREC
 70
     0
  9
$MENU
  1
ACAD
  9
$ELEVATION
 40
0.0
  9
$PELEVATION
 40
0.0
  9
$THICKNESS
 40
0.0
  9
$LIMCHECK
 70
     0
  9
$CHAMFERA
 40
0.0
  9
$CHAMFERB
 40
0.0
  9
$CHAMFERC
 40
0.0
  9
$CHAMFERD
 40
0.0
  9
$SKPOLY
 70
     0
  9
$TDCREATE
 40
2449623.385097569
  9
$TDUCREATE
 40
2449623.676764236
  9
$TDUPDATE
 40
2453018.700360034
  9
$TDUUPDATE
 40
2453018.992026701
  9
$TDINDWG
 40
0.4397818519
  9
$TDUSRTIMER
 40
0.4397818519
  9
$USRTIMER
 70
     1
  9
$ANGBASE
 50
0.0
  9
$ANGDIR
 70
     0
  9
$PDMODE
 70
     0
  9
$PDSIZE
 40
0.0
  9
$PLINEWID
 40
0.0
  9
$SPLFRAME
 70
     0
  9
$SPLINETYPE
 70
     6
  9
$SPLINESEGS
 70
     8
  9
$HANDSEED
  5
70F
  9
$SURFTAB1
 70
     6
  9
$SURFTAB2
 70
     6
  9
$SURFTYPE
 70
     6
  9
$SURFU
 70
     6
  9
$SURFV
 70
     6
  9
$UCSBASE
  2

  9
$UCSNAME
  2

  9
$UCSORG
 10
0.0
 20
0.0
 30
0.0
  9
$UCSXDIR
 10
1.0
 20
0.0
 30
0.0
  9
$UCSYDIR
 10
0.0
 20
1.0
 30
0.0
  9
$UCSORTHOREF
  2

  9
$UCSORTHOVIEW
 70
     0
  9
$UCSORGTOP
 10
0.0
 20
0.0
 30
0.0
  9
$UCSORGBOTTOM
 10
0.0
 20
0.0
 30
0.0
  9
$UCSORGLEFT
 10
0.0
 20
0.0
 30
0.0
  9
$UCSORGRIGHT
 10
0.0
 20
0.0
 30
0.0
  9
$UCSORGFRONT
 10
0.0
 20
0.0
 30
0.0
  9
$UCSORGBACK
 10
0.0
 20
0.0
 30
0.0
  9
$PUCSBASE
  2

  9
$PUCSNAME
  2

  9
$PUCSORG
 10
0.0
 20
0.0
 30
0.0
  9
$PUCSXDIR
 10
1.0
 20
0.0
 30
0.0
  9
$PUCSYDIR
 10
0.0
 20
1.0
 30
0.0
  9
$PUCSORTHOREF
  2

  9
$PUCSORTHOVIEW
 70
     0
  9
$PUCSORGTOP
 10
0.0
 20
0.0
 30
0.0
  9
$PUCSORGBOTTOM
 10
0.0
 20
0.0
 30
0.0
  9
$PUCSORGLEFT
 10
0.0
 20
0.0
 30
0.0
  9
$PUCSORGRIGHT
 10
0.0
 20
0.0
 30
0.0
  9
$PUCSORGFRONT
 10
0.0
 20
0.0
 30
0.0
  9
$PUCSORGBACK
 10
0.0
 20
0.0
 30
0.0
  9
$USERI1
 70
     0
  9
$USERI2
 70
     0
  9
$USERI3
 70
     0
  9
$USERI4
 70
     0
  9
$USERI5
 70
     0
  9
$USERR1
 40
0.0
  9
$USERR2
 40
0.0
  9
$USERR3
 40
0.0
  9
$USERR4
 40
0.0
  9
$USERR5
 40
0.0
  9
$WORLDVIEW
 70
     1
  9
$SHADEDGE
 70
     3
  9
$SHADEDIF
 70
    70
  9
$TILEMODE
 70
     1
  9
$MAXACTVP
 70
    16
  9
$PINSBASE
 10
0.0
 20
0.0
 30
0.0
  9
$PLIMCHECK
 70
     0
  9
$PEXTMIN
 10
1.000000000000000E+20
 20
1.000000000000000E+20
 30
1.000000000000000E+20
  9
$PEXTMAX
 10
-1.000000000000000E+20
 20
-1.000000000000000E+20
 30
-1.000000000000000E+20
  9
$PLIMMIN
 10
0.0
 20
0.0
  9
$PLIMMAX
 10
12.0
 20
9.0
  9
$UNITMODE
 70
     0
  9
$VISRETAIN
 70
     0
  9
$PLINEGEN
 70
     1
  9
$PSLTSCALE
 70
     1
  9
$TREEDEPTH
 70
  3020
  9
$CMLSTYLE
  2
Standard
  9
$CMLJUST
 70
     0
  9
$CMLSCALE
 40
1.0
  9
$PROXYGRAPHICS
 70
     1
  9
$MEASUREMENT
 70
     0
  9
$CELWEIGHT
370
    -1
  9
$ENDCAPS
280
     0
  9
$JOINSTYLE
280
     0
  9
$LWDISPLAY
290
     0
  9
$INSUNITS
 70
     0
  9
$HYPERLINKBASE
  1

  9
$STYLESHEET
  1
Color.ctb
  9
$XEDIT
290
     1
  9
$CEPSNTYPE
380
     0
  9
$PSTYLEMODE
290
     1
  9
$FINGERPRINTGUID
  2
{09DD9ABA-ABB0-465B-AF37-603197D157E3}
  9
$VERSIONGUID
  2
{F58FDC23-7DA2-4086-9EFB-4611100F38EA}
  9
$EXTNAMES
290
     1
  9
$PSVPSCALE
 40
0.0
  9
$OLESTARTUP
290
     0
  0
ENDSEC
  0
SECTION
  2
CLASSES
  0
CLASS
  1
ACDBDICTIONARYWDFLT
  2
AcDbDictionaryWithDefault
  3
AutoCAD 2000
 90
        0
280
     0
281
     0
  0
CLASS
  1
ACDBPLACEHOLDER
  2
AcDbPlaceHolder
  3
AutoCAD 2000
 90
        0
280
     0
281
     0
  0
CLASS
  1
LAYOUT
  2
AcDbLayout
  3
AutoCAD 2000
 90
        0
280
     0
281
     0
  0
CLASS
  1
DICTIONARYVAR
  2
AcDbDictionaryVar
  3
AutoCAD 2000
 90
        0
280
     0
281
     0
  0
ENDSEC
  0
SECTION
  2
TABLES
  0
TABLE
  2
VPORT
  5
8
330
0
100
AcDbSymbolTable
 70
     2
  0
VPORT
  5
70E
330
8
100
AcDbSymbolTableRecord
100
AcDbViewportTableRecord
  2
*Active
 70
     0
 10
0.0
 20
0.0
 11
1.0
 21
1.0
 12
8.219197025599907
 22
5.309340219109619
 13
0.0
 23
0.0
 14
0.14
 24
0.14
 15
0.14
 25
0.14
 16
0.0
 26
0.0
 36
1.0
 17
0.0
 27
0.0
 37
0.0
 40
11.0072450655855
 41
1.505548705302096
 42
50.0
 43
0.0
 44
0.0
 50
0.0
 51
0.0
 71
     0
 72
  5000
 73
     1
 74
     1
 75
     0
 76
     0
 77
     0
 78
     0
281
     0
 65
     1
110
0.0
120
0.0
130
0.0
111
1.0
121
0.0
131
0.0
112
0.0
122
1.0
132
0.0
 79
     0
146
0.0
  0
ENDTAB
  0
TABLE
  2
LTYPE
  5
5
330
0
100
AcDbSymbolTable
 70
     1
  0
LTYPE
  5
13
330
5
100
AcDbSymbolTableRecord
100
AcDbLinetypeTableRecord
  2
ByBlock
 70
     0
  3

 72
    65
 73
     0
 40
0.0
  0
LTYPE
  5
14
330
5
100
AcDbSymbolTableRecord
100
AcDbLinetypeTableRecord
  2
ByLayer
 70
     0
  3

 72
    65
 73
     0
 40
0.0
  0
LTYPE
  5
15
330
5
100
AcDbSymbolTableRecord
100
AcDbLinetypeTableRecord
  2
CONTINUOUS
 70
     0
  3
Solid line
 72
    65
 73
     0
 40
0.0
  0
ENDTAB
  0
TABLE
  2
LAYER
  5
2
330
0
100
AcDbSymbolTable
 70
    11
  0
LAYER
  5
10
330
2
100
AcDbSymbolTableRecord
100
AcDbLayerTableRecord
  2
0
 70
     0
 62
     7
  6
CONTINUOUS
370
    -3
390
F
  0
LAYER
  5
2A
330
2
100
AcDbSymbolTableRecord
100
AcDbLayerTableRecord
  2
TEXT_BUBBLES
 70
     0
 62
     6
  6
CONTINUOUS
370
    -3
390
F
  0
LAYER
  5
2B
330
2
100
AcDbSymbolTableRecord
100
AcDbLayerTableRecord
  2
IMAGE
 70
     0
 62
     7
  6
CONTINUOUS
370
    -3
390
F
  0
LAYER
  5
2E
330
2
100
AcDbSymbolTableRecord
100
AcDbLayerTableRecord
  2
TEXT_LEADERS
 70
     0
 62
    -5
  6
CONTINUOUS
370
    -3
390
F
  0
LAYER
  5
2F
330
2
100
AcDbSymbolTableRecord
100
AcDbLayerTableRecord
  2
INSTRUCT-OPTION
 70
     0
 62
     7
  6
CONTINUOUS
370
    -3
390
F
  0
LAYER
  5
30
330
2
100
AcDbSymbolTableRecord
100
AcDbLayerTableRecord
  2
INSTRUCT-CALLOUT
 70
     0
 62
     4
  6
CONTINUOUS
370
    -3
390
F
  0
LAYER
  5
31
330
2
100
AcDbSymbolTableRecord
100
AcDbLayerTableRecord
  2
OPTION-MODEL-TNT
 70
     0
 62
    -1
  6
CONTINUOUS
370
    -3
390
F
  0
LAYER
  5
32
330
2
100
AcDbSymbolTableRecord
100
AcDbLayerTableRecord
  2
OPTION-MODEL-PJDA-TNT
 70
     0
 62
    -1
  6
CONTINUOUS
370
    -3
390
F
  0
LAYER
  5
33
330
2
100
AcDbSymbolTableRecord
100
AcDbLayerTableRecord
  2
OPTION-MODEL-ADJ-TNT
 70
     0
 62
    -1
  6
CONTINUOUS
370
    -3
390
F
  0
LAYER
  5
34
330
2
100
AcDbSymbolTableRecord
100
AcDbLayerTableRecord
  2
OPTION-MODEL-PJADJ-TNT
 70
     0
 62
     1
  6
CONTINUOUS
370
    -3
390
F
  0
LAYER
  5
616
330
2
100
AcDbSymbolTableRecord
100
AcDbLayerTableRecord
  2
TITLE
 70
     0
 62
     4
  6
CONTINUOUS
370
    -3
390
F
  0
ENDTAB
  0
TABLE
  2
STYLE
  5
3
330
0
100
AcDbSymbolTable
 70
     6
  0
STYLE
  5
11
330
3
100
AcDbSymbolTableRecord
100
AcDbTextStyleTableRecord
  2
STANDARD
 70
     0
 40
0.0
 41
1.0
 50
0.0
 71
     0
 42
0.2
  3
txt
  4

  0
STYLE
  5
24
330
3
100
AcDbSymbolTableRecord
100
AcDbTextStyleTableRecord
  2
ROMANS
 70
     0
 40
0.0
 41
1.0
 50
0.0
 71
     0
 42
0.59651550821952
  3
ROMANS.SHX
  4

  0
STYLE
  5
25
330
3
100
AcDbSymbolTableRecord
100
AcDbTextStyleTableRecord
  2
SIMPLEX
 70
     0
 40
0.0
 41
1.0
 50
0.0
 71
     0
 42
0.59651550821952
  3
SIMPLEX
  4

  0
STYLE
  5
617
330
3
100
AcDbSymbolTableRecord
100
AcDbTextStyleTableRecord
  2
L100
 70
     0
 40
0.1
 41
1.0
 50
0.0
 71
     0
 42
0.1
  3
romans.shx
  4

  0
STYLE
  5
618
330
3
100
AcDbSymbolTableRecord
100
AcDbTextStyleTableRecord
  2
L200
 70
     0
 40
0.2
 41
1.0
 50
0.0
 71
     0
 42
0.081
  3
ARIAL.TTF
  4

1001
ACAD
1000
Arial
1071
       34
  0
STYLE
  5
619
330
3
100
AcDbSymbolTableRecord
100
AcDbTextStyleTableRecord
  2
L80
 70
     0
 40
0.08
 41
1.0
 50
0.0
 71
     0
 42
0.08
  3
ROMANS
  4

  0
ENDTAB
  0
TABLE
  2
VIEW
  5
6
330
0
100
AcDbSymbolTable
 70
     0
  0
ENDTAB
  0
TABLE
  2
UCS
  5
7
330
0
100
AcDbSymbolTable
 70
     0
  0
ENDTAB
  0
TABLE
  2
APPID
  5
9
330
0
100
AcDbSymbolTable
 70
     3
  0
APPID
  5
12
330
9
100
AcDbSymbolTableRecord
100
AcDbRegAppTableRecord
  2
ACAD
 70
     0
  0
APPID
  5
61A
330
9
100
AcDbSymbolTableRecord
100
AcDbRegAppTableRecord
  2
RAK
 70
     0
  0
APPID
  5
61B
330
9
100
AcDbSymbolTableRecord
100
AcDbRegAppTableRecord
  2
DCO15
 70
     0
  0
ENDTAB
  0
TABLE
  2
DIMSTYLE
  5
A
330
0
100
AcDbSymbolTable
 70
     1
100
AcDbDimStyleTable
 71
     0
  0
DIMSTYLE
105
5FE
330
A
100
AcDbSymbolTableRecord
100
AcDbDimStyleTableRecord
  2
Standard
 70
     0
340
11
  0
ENDTAB
  0
TABLE
  2
BLOCK_RECORD
  5
1
330
0
100
AcDbSymbolTable
 70
     1
  0
BLOCK_RECORD
  5
1E
330
1
100
AcDbSymbolTableRecord
100
AcDbBlockTableRecord
  2
*Model_Space
340
21
  0
BLOCK_RECORD
  5
1A
330
1
100
AcDbSymbolTableRecord
100
AcDbBlockTableRecord
  2
*Paper_Space
340
1D
  0
BLOCK_RECORD
  5
61C
330
1
100
AcDbSymbolTableRecord
100
AcDbBlockTableRecord
  2
titleblock
340
0
102
{BLKREFS
331
62B
102
}
  0
ENDTAB
  0
ENDSEC
  0
SECTION
  2
BLOCKS
  0
BLOCK
  5
38
330
1E
100
AcDbEntity
  8
0
100
AcDbBlockBegin
  2
*Model_Space
 70
     0
 10
0.0
 20
0.0
 30
0.0
  3
*Model_Space
  1

  0
ENDBLK
  5
39
330
1E
100
AcDbEntity
  8
0
100
AcDbBlockEnd
  0
BLOCK
  5
36
330
1A
100
AcDbEntity
 67
     1
  8
0
100
AcDbBlockBegin
  2
*Paper_Space
 70
     0
 10
0.0
 20
0.0
 30
0.0
  3
*Paper_Space
  1

  0
ENDBLK
  5
37
330
1A
100
AcDbEntity
 67
     1
  8
0
100
AcDbBlockEnd
  0
BLOCK
  5
628
330
61C
100
AcDbEntity
  8
0
100
AcDbBlockBegin
  2
titleblock
 70
     2
 10
0.0
 20
0.0
 30
0.0
  3
titleblock
  1

  0
LWPOLYLINE
  5
61D
330
61C
100
AcDbEntity
  8
IMAGE
100
AcDbPolyline
 90
        4
 70
     1
 43
0.0
 10
-0.0258030127938633
 20
-0.4303277029463163
 10
16.46419698720613
 20
-0.4303277029463163
 10
16.46419698720613
 20
10.00967229705368
 10
-0.0258030127938633
 20
10.00967229705368
  0
ATTDEF
  5
61E
330
61C
100
AcDbEntity
  8
TITLE
100
AcDbText
 10
0.4797525910084789
 20
0.3538993935320509
 30
0.0
 40
0.2
  1
D
  7
L200
 72
     4
 11
0.5806393577206208
 21
0.453899393532051
 31
0.0
100
AcDbAttributeDefinition
  3
#
  2
D
 70
     0
  0
ATTDEF
  5
61F
330
61C
100
AcDbEntity
  8
TITLE
100
AcDbText
 10
1.20563935772062
 20
0.9133845998004341
 30
0.0
 40
0.2
  1

  7
L200
100
AcDbAttributeDefinition
  3
DETAIL TITLE TOP LINE
  2
TITLE1
 70
     0
  0
ATTDEF
  5
620
330
61C
100
AcDbEntity
  8
TITLE
100
AcDbText
 10
1.20563935772062
 20
0.5538993935320511
 30
0.0
 40
0.2
  1
TITLE
  7
L200
100
AcDbAttributeDefinition
  3
DETAIL TITLE TOP 2ND LINE
  2
TITLE2
 70
     0
  0
ATTDEF
  5
621
330
61C
100
AcDbEntity
  8
TITLE
100
AcDbText
 10
2.687842738374449
 20
0.1624650635120026
 30
0.0
 40
0.2
  1
TITLE2
  7
L200
100
AcDbAttributeDefinition
  3
DETAIL TITLE BOTTOM 1
  2
TITLE3
 70
     0
  0
ATTDEF
  5
622
330
61C
100
AcDbEntity
  8
TITLE
100
AcDbText
 10
2.687842738374449
 20
-0.1610716221295422
 30
0.0
 40
0.2
  1

  7
L200
100
AcDbAttributeDefinition
  3
DETAIL TITLE BOTTOM 2
  2
TITLE4
 70
     0
  0
ATTDEF
  5
623
330
61C
100
AcDbEntity
  8
TITLE
 62
     7
100
AcDbText
 10
8.151411817172515
 20
0.5392750885983235
 30
0.0
 40
0.08
  1
-
  7
L80
 72
     2
 11
8.23522134098204
 21
0.5392750885983235
 31
0.0
100
AcDbAttributeDefinition
  3
REVISION DATE
  2
REVISED
 70
     0
  0
ATTDEF
  5
624
330
61C
100
AcDbEntity
  8
TITLE
 62
     7
100
AcDbText
 10
0.2381393577206206
 20
-0.345616054925595
 30
0.0
 40
0.08
  1
-
  7
L80
100
AcDbAttributeDefinition
  3
DWG-NAME
  2
DWG-NAME
 70
     0
  0
LWPOLYLINE
  5
625
330
61C
100
AcDbEntity
  8
TITLE
 62
     3
100
AcDbPolyline
 90
        2
 70
     1
 43
0.03
 10
0.5806393577206208
 20
0.1113993935320511
 42
0.9999999999999998
 10
0.5806393577206208
 20
0.7963993935320515
 42
0.9999999999999998
  0
ATTDEF
  5
626
330
61C
100
AcDbEntity
  8
TITLE
 62
     7
100
AcDbText
 10
1.20563935772062
 20
0.2702360764491731
 30
0.0
 40
0.1
  1
N.T.S.
  7
L100
100
AcDbAttributeDefinition
  3
SCALE
  2
SCALE
 70
     0
  0
LWPOLYLINE
  5
627
330
61C
100
AcDbEntity
  8
TITLE
 62
     3
100
AcDbPolyline
 90
        2
 70
     0
 43
0.04
 39
0.03
 10
0.9231393577206199
 20
0.453899393532051
 10
8.23522134098204
 20
0.453899393532051
  0
ENDBLK
  5
629
330
61C
100
AcDbEntity
  8
0
100
AcDbBlockEnd
  0
ENDSEC
  0
SECTION
  2
ENTITIES
  0
TEXT
  5
B1
330
1E
100
AcDbEntity
  8
TEXT_BUBBLES
100
AcDbText
 10
5.869876343154554
 20
7.910245182638219
 30
0.0
 40
0.1
  1
1
  7
ROMANS
 72
     4
 11
5.910352533630744
 21
7.960245182638219
 31
0.0
100
AcDbText
  0
LWPOLYLINE
  5
B4
330
1E
100
AcDbEntity
  8
IMAGE
100
AcDbPolyline
 90
        2
 70
     0
 43
0.0
 10
2.504315709782258
 20
6.109205631355037
 10
2.691695148678225
 20
6.109205631355037
  0
LINE
  5
B8
330
1E
100
AcDbEntity
  8
IMAGE
100
AcDbLine
 10
2.488495034201927
 20
6.083794819785793
 30
0.0
 11
2.707888937367651
 21
6.083794819785793
 31
0.0
  0
LINE
  5
B9
330
1E
100
AcDbEntity
  8
IMAGE
100
AcDbLine
 10
2.707888937367651
 20
6.136010934121682
 30
0.0
 11
2.707888937367649
 21
5.46267426402762
 31
0.0
  0
LINE
  5
BA
330
1E
100
AcDbEntity
  8
IMAGE
100
AcDbLine
 10
2.488495034201927
 20
6.136010934121682
 30
0.0
 11
2.488495034201926
 21
5.46267426402762
 31
0.0
  0
LWPOLYLINE
  5
BB
330
1E
100
AcDbEntity
  8
IMAGE
100
AcDbPolyline
 90
        2
 70
     0
 43
0.0
 10
2.964625668910696
 20
4.378416894992922
 10
2.925814740035584
 20
4.195100867540826
  0
LINE
  5
BF
330
1E
100
AcDbEntity
  8
IMAGE
100
AcDbLine
 10
2.992696056844905
 20
4.388507552857993
 30
0.0
 11
2.947254138448911
 21
4.173871309882155
 31
0.0
  0
LINE
  5
C0
330
1E
100
AcDbEntity
  8
IMAGE
100
AcDbLine
 10
4.262273673742952
 20
4.119044551305176
 30
0.0
 11
4.216831755346956
 21
3.904408308329339
 31
0.0
  0
LWPOLYLINE
  5
C1
330
1E
100
AcDbEntity
  8
IMAGE
100
AcDbPolyline
 90
        2
 70
     0
 43
0.0
 10
4.284354438543894
 20
4.09815192086314
 10
4.245543509668782
 20
3.914835893411042
  0
LWPOLYLINE
  5
C5
330
1E
100
AcDbEntity
  8
IMAGE
100
AcDbPolyline
 90
        2
 70
     0
 43
0.0
 10
2.504315709782258
 20
4.595083049602971
 10
2.691695148678225
 20
4.595083049602971
  0
LINE
  5
C9
330
1E
100
AcDbEntity
  8
IMAGE
100
AcDbLine
 10
2.488495034201927
 20
4.622108732166668
 30
0.0
 11
2.707888937367651
 21
4.622108732166668
 31
0.0
  0
TEXT
  5
CA
330
1E
100
AcDbEntity
  8
TEXT_BUBBLES
100
AcDbText
 10
6.18217026
 20
3.703280949999999
 30
0.0
 40
0.125
  1
  (LENGTH AS REQUIRED)
  7
SIMPLEX
100
AcDbText
  0
TEXT
  5
CC
330
1E
100
AcDbEntity
  8
TEXT_BUBBLES
100
AcDbText
 10
6.18217026
 20
4.22828095
 30
0.0
 40
0.125
  1
PVC SCH 40 STREET ELL
  7
SIMPLEX
100
AcDbText
  0
TEXT
  5
CD
330
1E
100
AcDbEntity
  8
TEXT_BUBBLES
100
AcDbText
 10
6.18217026
 20
3.87828095
 30
0.0
 40
0.125
  1
PVC SCH 80 NIPPLE
  7
SIMPLEX
100
AcDbText
  0
TEXT
  5
CE
330
1E
100
AcDbEntity
  8
TEXT_BUBBLES
100
AcDbText
 10
6.18217026
 20
3.35328095
 30
0.0
 40
0.125
  1
PVC SCH 40 TEE OR ELL
  7
SIMPLEX
100
AcDbText
  0
TEXT
  5
CF
330
1E
100
AcDbEntity
  8
TEXT_BUBBLES
100
AcDbText
 10
6.18217026
 20
3.003280950000009
 30
0.0
 40
0.125
  1
PVC LATERAL PIPE
  7
SIMPLEX
100
AcDbText
  0
TEXT
  5
D0
330
1E
100
AcDbEntity
  8
TEXT_BUBBLES
100
AcDbText
 10
6.18217026
 20
5.453280949999999
 30
0.0
 40
0.125
  1
PVC SCH 40 ELL
  7
SIMPLEX
100
AcDbText
  0
LWPOLYLINE
  5
D1
330
1E
100
AcDbEntity
  8
IMAGE
100
AcDbPolyline
 90
        4
 70
     0
 43
0.0
 10
1.776921885897533
 20
4.059271459359795
 42
0.6332430429610296
 10
1.776921885897533
 20
3.928453970959511
 42
-0.6332430429610812
 10
1.776921885897533
 20
3.797636482559228
 42
-0.6134111328532366
 10
1.776921885897533
 20
3.928453970959511
 42
-0.6134111328532366
  0
LWPOLYLINE
  5
D7
330
1E
100
AcDbEntity
  8
IMAGE
100
AcDbPolyline
 90
        4
 70
     0
 43
0.0
 10
5.167071820393993
 20
4.061156891926641
 42
-0.6332430429610296
 10
5.167071820393993
 20
3.930339403526359
 42
0.6332430429610812
 10
5.167071820393993
 20
3.799521915126073
 42
0.6134111328532366
 10
5.16707182039399
 20
3.930339403526355
 42
0.6134111328532366
  0
ARC
  5
DD
330
1E
100
AcDbEntity
  8
IMAGE
100
AcDbCircle
 10
2.598693259816491
 20
4.363974931498741
 30
0.0
 40
0.1293594744712923
100
AcDbArc
 50
179.379115872957
 51
0.2371380430744057
  0
LINE
  5
DE
330
1E
100
AcDbEntity
  8
IMAGE
100
AcDbLine
 10
4.267096579087909
 20
3.893535281870597
 30
0.0
 11
2.895918309402884
 21
4.183835606613063
 31
0.0
  0
LINE
  5
DF
330
1E
100
AcDbEntity
  8
IMAGE
100
AcDbLine
 10
4.312970060148683
 20
4.108079702636223
 30
0.0
 11
2.941791790463656
 21
4.398380027378688
 31
0.0
  0
LINE
  5
E0
330
1E
100
AcDbEntity
  8
IMAGE
100
AcDbLine
 10
2.470408840408128
 20
4.569785928235634
 30
0.0
 11
2.727642135409694
 21
4.569785928235634
 31
0.0
  0
LINE
  5
E1
330
1E
100
AcDbEntity
  8
IMAGE
100
AcDbLine
 10
2.470408840408128
 20
4.569785928235634
 30
0.0
 11
2.4693337853452
 21
4.363974931498741
 31
0.0
  0
LINE
  5
E2
330
1E
100
AcDbEntity
  8
IMAGE
100
AcDbLine
 10
2.727642135409696
 20
4.569785928235634
 30
0.0
 11
2.728052734287783
 21
4.363974931498741
 31
0.0
  0
LINE
  5
E3
330
1E
100
AcDbEntity
  8
IMAGE
100
AcDbLine
 10
4.970884124973921
 20
4.093397023990645
 30
0.0
 11
4.970884124973918
 21
3.768488088109654
 31
0.0
  0
LINE
  5
E4
330
1E
100
AcDbEntity
  8
IMAGE
100
AcDbLine
 10
4.315253997336355
 20
4.120200430483212
 30
0.0
 11
4.631607004124359
 21
4.053048012738646
 31
0.0
  0
LINE
  5
E5
330
1E
100
AcDbEntity
  8
IMAGE
100
AcDbLine
 10
4.264062129913232
 20
3.880782594944337
 30
0.0
 11
4.580315031809559
 21
3.813161999387558
 31
0.0
  0
LINE
  5
E6
330
1E
100
AcDbEntity
  8
IMAGE
100
AcDbLine
 10
4.631607004124359
 20
4.053048012738646
 30
0.0
 11
4.646717055803848
 21
4.024527275730685
 31
0.0
  0
LINE
  5
E7
330
1E
100
AcDbEntity
  8
IMAGE
100
AcDbLine
 10
4.580315031809559
 20
3.813161999387558
 30
0.0
 11
4.607365373879951
 21
3.829738585168513
 31
0.0
  0
LINE
  5
E8
330
1E
100
AcDbEntity
  8
IMAGE
100
AcDbLine
 10
4.607365373879951
 20
3.829738585168511
 30
0.0
 11
4.646717055803848
 21
4.024527275730685
 31
0.0
  0
ARC
  5
E9
330
1E
100
AcDbEntity
  8
IMAGE
100
AcDbCircle
 10
4.603101022380017
 20
3.931969385976033
 30
0.0
 40
0.1023197015606605
100
AcDbArc
 50
272.3885930691139
 51
64.76879059918148
  0
LINE
  5
EA
330
1E
100
AcDbEntity
  8
IMAGE
100
AcDbLine
 10
2.893329834008889
 20
4.17153356873273
 30
0.0
 11
2.591906160832917
 21
4.234793628970552
 31
0.0
  0
LINE
  5
EB
330
1E
100
AcDbEntity
  8
IMAGE
100
AcDbLine
 10
2.94374066908264
 20
4.411117071861709
 30
0.0
 11
2.727875803976123
 21
4.456871077559367
 31
0.0
  0
LINE
  5
EC
330
1E
100
AcDbEntity
  8
IMAGE
100
AcDbLine
 10
2.94374066908264
 20
4.411117071861709
 30
0.0
 11
2.893329834008889
 21
4.171533568732732
 31
0.0
  0
LINE
  5
ED
330
1E
100
AcDbEntity
  8
IMAGE
100
AcDbLine
 10
4.315253997336355
 20
4.120200430483212
 30
0.0
 11
4.264062129913232
 21
3.880782594944337
 31
0.0
  0
LINE
  5
EE
330
1E
100
AcDbEntity
  8
IMAGE
100
AcDbLine
 10
4.970884124973921
 20
3.768488088109654
 30
0.0
 11
4.233713164511205
 21
3.768488088109654
 31
0.0
  0
LINE
  5
EF
330
1E
100
AcDbEntity
  8
IMAGE
100
AcDbLine
 10
4.233713164511205
 20
3.900603083561223
 30
0.0
 11
4.233713164511205
 21
3.768488088109656
 31
0.0
  0
LINE
  5
F0
330
1E
100
AcDbEntity
  8
IMAGE
100
AcDbLine
 10
4.631607004124359
 20
4.053048012738647
 30
0.0
 11
4.580315031809559
 21
3.813161999387558
 31
0.0
  0
LINE
  5
F1
330
1E
100
AcDbEntity
  8
IMAGE
100
AcDbLine
 10
5.167071820393993
 20
4.061156891926641
 30
0.0
 11
4.970884124973921
 21
4.061156891926641
 31
0.0
  0
LINE
  5
F2
330
1E
100
AcDbEntity
  8
IMAGE
100
AcDbLine
 10
5.167071820393993
 20
3.799521915126073
 30
0.0
 11
4.970884124973921
 21
3.799521915126073
 31
0.0
  0
LINE
  5
F3
330
1E
100
AcDbEntity
  8
IMAGE
100
AcDbLine
 10
4.233713164511205
 20
3.797636482559227
 30
0.0
 11
2.465826452153192
 21
3.797636482559227
 31
0.0
  0
LINE
  5
F4
330
1E
100
AcDbEntity
  8
IMAGE
100
AcDbLine
 10
3.484273324324232
 20
4.059271459359795
 30
0.0
 11
2.465826452153192
 21
4.059271459359795
 31
0.0
  0
LINE
  5
F5
330
1E
100
AcDbEntity
  8
IMAGE
100
AcDbLine
 10
4.441524033782967
 20
4.093397023990645
 30
0.0
 11
4.970884124973921
 21
4.093397023990647
 31
0.0
  0
TEXT
  5
F6
330
1E
100
AcDbEntity
  8
TEXT_BUBBLES
100
AcDbText
 10
6.18217026
 20
6.15328095
 30
0.0
 40
0.125
  1
UV RADIATION RESISTANT
  7
SIMPLEX
100
AcDbText
  0
TEXT
  5
F7
330
1E
100
AcDbEntity
  8
TEXT_BUBBLES
100
AcDbText
 10
6.18217026
 20
5.97828095
 30
0.0
 40
0.125
  1
  PVC SCH 80 NIPPLE
  7
SIMPLEX
100
AcDbText
  0
TEXT
  5
F8
330
1E
100
AcDbEntity
  8
TEXT_BUBBLES
100
AcDbText
 10
6.18217026
 20
5.80328095
 30
0.0
 40
0.125
  1
  (LENGTH AS REQUIRED)
  7
SIMPLEX
100
AcDbText
  0
LINE
  5
F9
330
1E
100
AcDbEntity
  8
IMAGE
100
AcDbLine
 10
2.707888937367649
 20
5.252550738287466
 30
0.0
 11
3.563173963642377
 21
5.252550738287466
 31
0.0
  0
LINE
  5
FA
330
1E
100
AcDbEntity
  8
IMAGE
100
AcDbLine
 10
2.465826452153192
 20
6.454061077306871
 30
0.0
 11
2.465826452153192
 21
6.353044198341899
 31
0.0
  0
LINE
  5
FB
330
1E
100
AcDbEntity
  8
IMAGE
100
AcDbLine
 10
2.251830910513434
 20
6.454061077306871
 30
0.0
 11
2.251830910513434
 21
6.353044198341899
 31
0.0
  0
LINE
  5
FC
330
1E
100
AcDbEntity
  8
IMAGE
100
AcDbLine
 10
2.251830910513434
 20
3.797636482559228
 30
0.0
 11
2.251830910513434
 21
2.932343040386911
 31
0.0
  0
ARC
  5
FD
330
1E
100
AcDbEntity
  8
IMAGE
100
AcDbCircle
 10
2.367399537251743
 20
6.31393892550356
 30
0.0
 40
0.0363347932812923
100
AcDbArc
 50
142.5532855597031
 51
232.8116314160015
  0
LINE
  5
FE
330
1E
100
AcDbEntity
  8
IMAGE
100
AcDbLine
 10
2.734922616940203
 20
6.353044198341899
 30
0.0
 11
2.250946277955882
 21
6.353044198341899
 31
0.0
  0
LINE
  5
FF
330
1E
100
AcDbEntity
  8
IMAGE
100
AcDbLine
 10
2.734922616940203
 20
6.267979846092725
 30
0.0
 11
2.250946277955882
 21
6.267979846092725
 31
0.0
  0
ARC
  5
100
330
1E
100
AcDbEntity
  8
IMAGE
100
AcDbCircle
 10
2.293544622686659
 20
6.31393892550356
 30
0.0
 40
0.0363347932812923
100
AcDbArc
 50
142.5532855597031
 51
232.8116314160015
  0
LINE
  5
101
330
1E
100
AcDbEntity
  8
IMAGE
100
AcDbLine
 10
2.264697734474846
 20
6.336031327892044
 30
0.0
 11
2.27158251464627
 21
6.284992716542472
 31
0.0
  0
ARC
  5
102
330
1E
100
AcDbEntity
  8
IMAGE
100
AcDbCircle
 10
2.311695406774595
 20
6.31393892550356
 30
0.0
 40
0.0363347932812923
100
AcDbArc
 50
142.5532855597031
 51
232.8116314160015
  0
LINE
  5
103
330
1E
100
AcDbEntity
  8
IMAGE
100
AcDbLine
 10
2.282848518563004
 20
6.336031327892044
 30
0.0
 11
2.28973329873411
 21
6.284992716542472
 31
0.0
  0
ARC
  5
104
330
1E
100
AcDbEntity
  8
IMAGE
100
AcDbCircle
 10
2.329846190862753
 20
6.31393892550356
 30
0.0
 40
0.0363347932812923
100
AcDbArc
 50
142.5532855597031
 51
232.8116314160015
  0
LINE
  5
105
330
1E
100
AcDbEntity
  8
IMAGE
100
AcDbLine
 10
2.300999302650837
 20
6.336031327892044
 30
0.0
 11
2.307884082822256
 21
6.284992716542472
 31
0.0
  0
ARC
  5
106
330
1E
100
AcDbEntity
  8
IMAGE
100
AcDbCircle
 10
2.348622864057092
 20
6.31393892550356
 30
0.0
 40
0.0363347932812923
100
AcDbArc
 50
142.5532855597031
 51
232.8116314160015
  0
LINE
  5
107
330
1E
100
AcDbEntity
  8
IMAGE
100
AcDbLine
 10
2.31977597584538
 20
6.336031327892044
 30
0.0
 11
2.326660756016702
 21
6.284992716542472
 31
0.0
  0
ARC
  5
108
330
1E
100
AcDbEntity
  8
IMAGE
100
AcDbCircle
 10
2.243598225077922
 20
6.271452624884352
 30
0.0
 40
0.0101391053531439
100
AcDbArc
 50
221.6972960676141
 51
316.4458918268223
  0
LINE
  5
109
330
1E
100
AcDbEntity
  8
IMAGE
100
AcDbLine
 10
2.236027663589607
 20
6.264708141500801
 30
0.0
 11
2.227093733255476
 21
6.274990290550856
 31
0.0
  0
LINE
  5
10A
330
1E
100
AcDbEntity
  8
IMAGE
100
AcDbLine
 10
2.237311901261546
 20
6.265823987014902
 30
0.0
 11
2.228763225878776
 21
6.275662742319672
 31
0.0
  0
ARC
  5
10B
330
1E
100
AcDbEntity
  8
IMAGE
100
AcDbCircle
 10
2.243598225077922
 20
6.271452624884352
 30
0.0
 40
0.0084378183081614
100
AcDbArc
 50
221.6972960676141
 51
330.5572729070301
  0
ARC
  5
10C
330
1E
100
AcDbEntity
  8
IMAGE
100
AcDbCircle
 10
2.243598225077922
 20
6.346057956414677
 30
0.0
 40
0.0084378183081614
100
AcDbArc
 50
29.4427270929698
 51
138.3027039323858
  0
LINE
  5
10D
330
1E
100
AcDbEntity
  8
IMAGE
100
AcDbLine
 10
2.237311901261546
 20
6.351686594284126
 30
0.0
 11
2.228763225878776
 21
6.341847838979356
 31
0.0
  0
LINE
  5
10E
330
1E
100
AcDbEntity
  8
IMAGE
100
AcDbLine
 10
2.236027663589607
 20
6.352802439798221
 30
0.0
 11
2.227093733255476
 21
6.342520290748165
 31
0.0
  0
CIRCLE
  5
10F
330
1E
100
AcDbEntity
  8
IMAGE
100
AcDbCircle
 10
2.214463766972699
 20
6.308755290649491
 30
0.0
 40
0.0360498443820563
  0
ARC
  5
110
330
1E
100
AcDbEntity
  8
IMAGE
100
AcDbCircle
 10
2.243598225077922
 20
6.346057956414677
 30
0.0
 40
0.0101391053531439
100
AcDbArc
 50
43.55410817317756
 51
138.3027039323858
  0
LWPOLYLINE
  5
111
330
1E
100
AcDbEntity
  8
IMAGE
100
AcDbPolyline
 90
        2
 70
     0
 43
0.0
 10
2.222551229418093
 20
6.28624095956481
 10
2.214463766972699
 20
6.28157166094498
  0
LWPOLYLINE
  5
115
330
1E
100
AcDbEntity
  8
IMAGE
100
AcDbPolyline
 90
        5
 70
     0
 43
0.0
 10
2.206376304527414
 20
6.331269621734218
 10
2.214463766972699
 20
6.335938920354106
 10
2.238005480864081
 20
6.322347105501744
 10
2.238005480864081
 20
6.295163475797284
 10
2.229918018418573
 20
6.290494177177345
  0
ARC
  5
11C
330
1E
100
AcDbEntity
  8
IMAGE
100
AcDbCircle
 10
2.214463766972699
 20
6.308755290649491
 30
0.0
 40
0.019416878360384
100
AcDbArc
 50
132.6530910809695
 51
287.3469089190293
  0
LWPOLYLINE
  5
11D
330
1E
100
AcDbEntity
  8
IMAGE
100
AcDbPolyline
 90
        4
 70
     0
 43
0.0
 10
2.214463766972699
 20
6.28157166094498
 10
2.190922053081636
 20
6.295163475797284
 10
2.190922053081636
 20
6.322347105501744
 10
2.199009515526928
 20
6.327016404121684
  0
LINE
  5
123
330
1E
100
AcDbEntity
  8
IMAGE
100
AcDbLine
 10
2.206376304527414
 20
6.331269621734218
 30
0.0
 11
2.229918018418573
 21
6.290494177177345
 31
0.0
  0
LINE
  5
124
330
1E
100
AcDbEntity
  8
IMAGE
100
AcDbLine
 10
2.199009515526928
 20
6.327016404121684
 30
0.0
 11
2.222551229418093
 21
6.28624095956481
 31
0.0
  0
ARC
  5
125
330
1E
100
AcDbEntity
  8
IMAGE
100
AcDbCircle
 10
2.214463766972699
 20
6.308755290649491
 30
0.0
 40
0.019416878360384
100
AcDbArc
 50
312.6530910809717
 51
107.3469089190281
  0
CIRCLE
  5
126
330
1E
100
AcDbEntity
  8
IMAGE
100
AcDbCircle
 10
2.214463766972699
 20
6.308755290649491
 30
0.0
 40
0.0322956548274434
  0
LINE
  5
127
330
1E
100
AcDbEntity
  8
IMAGE
100
AcDbLine
 10
2.338552649039935
 20
6.336031327892044
 30
0.0
 11
2.345437429211256
 21
6.284992716542472
 31
0.0
  0
ARC
  5
128
330
1E
100
AcDbEntity
  8
IMAGE
100
AcDbCircle
 10
2.38617621044619
 20
6.31393892550356
 30
0.0
 40
0.0363347932812923
100
AcDbArc
 50
142.5532855597031
 51
232.8116314160015
  0
LINE
  5
129
330
1E
100
AcDbEntity
  8
IMAGE
100
AcDbLine
 10
2.357329322234382
 20
6.336031327892044
 30
0.0
 11
2.364214102405806
 21
6.284992716542472
 31
0.0
  0
ARC
  5
12A
330
1E
100
AcDbEntity
  8
IMAGE
100
AcDbCircle
 10
2.40620466185364
 20
6.31393892550356
 30
0.0
 40
0.0363347932812923
100
AcDbArc
 50
142.5532855597031
 51
232.8116314160015
  0
LINE
  5
12B
330
1E
100
AcDbEntity
  8
IMAGE
100
AcDbLine
 10
2.377357773641933
 20
6.336031327892044
 30
0.0
 11
2.384242553813256
 21
6.284992716542472
 31
0.0
  0
ARC
  5
12C
330
1E
100
AcDbEntity
  8
IMAGE
100
AcDbCircle
 10
2.425607224154693
 20
6.31393892550356
 30
0.0
 40
0.0363347932812923
100
AcDbArc
 50
142.5532855597031
 51
232.8116314160015
  0
LINE
  5
12D
330
1E
100
AcDbEntity
  8
IMAGE
100
AcDbLine
 10
2.396760335942883
 20
6.336031327892044
 30
0.0
 11
2.403645116114195
 21
6.284992716542472
 31
0.0
  0
ARC
  5
12E
330
1E
100
AcDbEntity
  8
IMAGE
100
AcDbCircle
 10
2.444383897349241
 20
6.31393892550356
 30
0.0
 40
0.0363347932812923
100
AcDbArc
 50
142.5532855597031
 51
232.8116314160015
  0
LINE
  5
12F
330
1E
100
AcDbEntity
  8
IMAGE
100
AcDbLine
 10
2.415537009137319
 20
6.336031327892044
 30
0.0
 11
2.422421789308743
 21
6.284992716542472
 31
0.0
  0
ARC
  5
130
330
1E
100
AcDbEntity
  8
IMAGE
100
AcDbCircle
 10
2.464412348756582
 20
6.31393892550356
 30
0.0
 40
0.0363347932812923
100
AcDbArc
 50
142.5532855597031
 51
232.8116314160015
  0
LINE
  5
131
330
1E
100
AcDbEntity
  8
IMAGE
100
AcDbLine
 10
2.435565460544979
 20
6.336031327892044
 30
0.0
 11
2.442450240716085
 21
6.284992716542472
 31
0.0
  0
ARC
  5
132
330
1E
100
AcDbEntity
  8
IMAGE
100
AcDbCircle
 10
2.483814911057527
 20
6.31393892550356
 30
0.0
 40
0.0363347932812923
100
AcDbArc
 50
142.5532855597031
 51
232.8116314160015
  0
LINE
  5
133
330
1E
100
AcDbEntity
  8
IMAGE
100
AcDbLine
 10
2.454968022845924
 20
6.336031327892044
 30
0.0
 11
2.46185280301703
 21
6.284992716542472
 31
0.0
  0
ARC
  5
134
330
1E
100
AcDbEntity
  8
IMAGE
100
AcDbCircle
 10
2.503217473358479
 20
6.31393892550356
 30
0.0
 40
0.0363347932812923
100
AcDbArc
 50
142.5532855597031
 51
232.8116314160015
  0
LINE
  5
135
330
1E
100
AcDbEntity
  8
IMAGE
100
AcDbLine
 10
2.474370585146876
 20
6.336031327892044
 30
0.0
 11
2.481255365318191
 21
6.284992716542472
 31
0.0
  0
ARC
  5
136
330
1E
100
AcDbEntity
  8
IMAGE
100
AcDbCircle
 10
2.52262003565952
 20
6.31393892550356
 30
0.0
 40
0.0363347932812923
100
AcDbArc
 50
142.5532855597031
 51
232.8116314160015
  0
LINE
  5
137
330
1E
100
AcDbEntity
  8
IMAGE
100
AcDbLine
 10
2.493773147447821
 20
6.336031327892044
 30
0.0
 11
2.500657927619136
 21
6.284992716542472
 31
0.0
  0
ARC
  5
138
330
1E
100
AcDbEntity
  8
IMAGE
100
AcDbCircle
 10
2.541396708854075
 20
6.31393892550356
 30
0.0
 40
0.0363347932812923
100
AcDbArc
 50
142.5532855597031
 51
232.8116314160015
  0
LINE
  5
139
330
1E
100
AcDbEntity
  8
IMAGE
100
AcDbLine
 10
2.512549820642369
 20
6.336031327892044
 30
0.0
 11
2.519434600813583
 21
6.284992716542472
 31
0.0
  0
ARC
  5
13A
330
1E
100
AcDbEntity
  8
IMAGE
100
AcDbCircle
 10
2.56079927115502
 20
6.31393892550356
 30
0.0
 40
0.0363347932812923
100
AcDbArc
 50
142.5532855597031
 51
232.8116314160015
  0
LINE
  5
13B
330
1E
100
AcDbEntity
  8
IMAGE
100
AcDbLine
 10
2.531952382943427
 20
6.336031327892044
 30
0.0
 11
2.538837163114522
 21
6.284992716542472
 31
0.0
  0
LINE
  5
13C
330
1E
100
AcDbEntity
  8
IMAGE
100
AcDbLine
 10
2.734922616940203
 20
6.353044198341899
 30
0.0
 11
2.734922616940203
 21
6.267979846092725
 31
0.0
  0
LINE
  5
13D
330
1E
100
AcDbEntity
  8
IMAGE
100
AcDbLine
 10
2.628339305341865
 20
6.336031327892044
 30
0.0
 11
2.63522408551296
 21
6.284992716542472
 31
0.0
  0
ARC
  5
13E
330
1E
100
AcDbEntity
  8
IMAGE
100
AcDbCircle
 10
2.657186193553457
 20
6.31393892550356
 30
0.0
 40
0.0363347932812923
100
AcDbArc
 50
142.5532855597031
 51
232.8116314160015
  0
LINE
  5
13F
330
1E
100
AcDbEntity
  8
IMAGE
100
AcDbLine
 10
2.608936743040806
 20
6.336031327892044
 30
0.0
 11
2.61582152321202
 21
6.284992716542472
 31
0.0
  0
ARC
  5
140
330
1E
100
AcDbEntity
  8
IMAGE
100
AcDbCircle
 10
2.637783631252513
 20
6.31393892550356
 30
0.0
 40
0.0363347932812923
100
AcDbArc
 50
142.5532855597031
 51
232.8116314160015
  0
LINE
  5
141
330
1E
100
AcDbEntity
  8
IMAGE
100
AcDbLine
 10
2.590160069846258
 20
6.336031327892044
 30
0.0
 11
2.597044850017574
 21
6.284992716542472
 31
0.0
  0
ARC
  5
142
330
1E
100
AcDbEntity
  8
IMAGE
100
AcDbCircle
 10
2.619006958057958
 20
6.31393892550356
 30
0.0
 40
0.0363347932812923
100
AcDbArc
 50
142.5532855597031
 51
232.8116314160015
  0
LINE
  5
143
330
1E
100
AcDbEntity
  8
IMAGE
100
AcDbLine
 10
2.570757507545313
 20
6.336031327892044
 30
0.0
 11
2.577642287716629
 21
6.284992716542472
 31
0.0
  0
ARC
  5
144
330
1E
100
AcDbEntity
  8
IMAGE
100
AcDbCircle
 10
2.599604395756917
 20
6.31393892550356
 30
0.0
 40
0.0363347932812923
100
AcDbArc
 50
142.5532855597031
 51
232.8116314160015
  0
LINE
  5
145
330
1E
100
AcDbEntity
  8
IMAGE
100
AcDbLine
 10
2.551354945244361
 20
6.336031327892044
 30
0.0
 11
2.558239725415467
 21
6.284992716542472
 31
0.0
  0
ARC
  5
146
330
1E
100
AcDbEntity
  8
IMAGE
100
AcDbCircle
 10
2.580201833455965
 20
6.31393892550356
 30
0.0
 40
0.0363347932812923
100
AcDbArc
 50
142.5532855597031
 51
232.8116314160015
  0
ARC
  5
147
330
1E
100
AcDbEntity
  8
IMAGE
100
AcDbCircle
 10
2.676588755854363
 20
6.313938925503629
 30
0.0
 40
0.0363347932812923
100
AcDbArc
 50
142.5532855597031
 51
232.8116314160015
  0
LINE
  5
148
330
1E
100
AcDbEntity
  8
IMAGE
100
AcDbLine
 10
2.647741867642662
 20
6.336031327892111
 30
0.0
 11
2.654626647813979
 21
6.284992716542541
 31
0.0
  0
ARC
  5
149
330
1E
100
AcDbEntity
  8
IMAGE
100
AcDbCircle
 10
2.695365429048917
 20
6.313938925503629
 30
0.0
 40
0.0363347932812923
100
AcDbArc
 50
142.5532855597031
 51
232.8116314160015
  0
LINE
  5
14A
330
1E
100
AcDbEntity
  8
IMAGE
100
AcDbLine
 10
2.666518540837212
 20
6.336031327892111
 30
0.0
 11
2.673403321008426
 21
6.284992716542541
 31
0.0
  0
ARC
  5
14B
330
1E
100
AcDbEntity
  8
IMAGE
100
AcDbCircle
 10
2.714767991349863
 20
6.313938925503629
 30
0.0
 40
0.0363347932812923
100
AcDbArc
 50
142.5532855597031
 51
232.8116314160015
  0
LINE
  5
14C
330
1E
100
AcDbEntity
  8
IMAGE
100
AcDbLine
 10
2.68592110313827
 20
6.336031327892111
 30
0.0
 11
2.692805883309365
 21
6.284992716542541
 31
0.0
  0
ARC
  5
14D
330
1E
100
AcDbEntity
  8
IMAGE
100
AcDbCircle
 10
2.734170553650803
 20
6.313938925503634
 30
0.0
 40
0.0363347932812923
100
AcDbArc
 50
142.5532855597031
 51
232.8116314160015
  0
LINE
  5
14E
330
1E
100
AcDbEntity
  8
IMAGE
100
AcDbLine
 10
2.70532366543921
 20
6.336031327892118
 30
0.0
 11
2.712208445610305
 21
6.284992716542546
 31
0.0
  0
ARC
  5
14F
330
1E
100
AcDbEntity
  8
IMAGE
100
AcDbCircle
 10
2.75357311595174
 20
6.31393892550364
 30
0.0
 40
0.0363347932812923
100
AcDbArc
 50
142.5532855597031
 51
232.8116314160015
  0
LINE
  5
150
330
1E
100
AcDbEntity
  8
IMAGE
100
AcDbLine
 10
2.724726227740148
 20
6.336031327892124
 30
0.0
 11
2.731611007911243
 21
6.284992716542552
 31
0.0
  0
LINE
  5
151
330
1E
100
AcDbEntity
  8
IMAGE
100
AcDbLine
 10
2.251830910513434
 20
6.267979846092725
 30
0.0
 11
2.251830910513434
 21
5.46267426402762
 31
0.0
  0
LINE
  5
152
330
1E
100
AcDbEntity
  8
IMAGE
100
AcDbLine
 10
2.251830910513434
 20
6.454061077306871
 30
0.0
 11
2.46582645215319
 21
6.454061077306871
 31
0.0
  0
LINE
  5
153
330
1E
100
AcDbEntity
  8
IMAGE
100
AcDbLine
 10
2.465826452153192
 20
6.267979846092725
 30
0.0
 11
2.465826452153192
 21
5.46267426402762
 31
0.0
  0
LINE
  5
154
330
1E
100
AcDbEntity
  8
IMAGE
100
AcDbLine
 10
2.237311901261546
 20
5.461316659969848
 30
0.0
 11
2.228763225878776
 21
5.451477904665078
 31
0.0
  0
LINE
  5
155
330
1E
100
AcDbEntity
  8
IMAGE
100
AcDbLine
 10
2.236027663589607
 20
5.462432505483943
 30
0.0
 11
2.227093733255476
 21
5.452150356433887
 31
0.0
  0
ARC
  5
156
330
1E
100
AcDbEntity
  8
IMAGE
100
AcDbCircle
 10
2.293544622686659
 20
5.423568991189282
 30
0.0
 40
0.0363347932812923
100
AcDbArc
 50
142.5532855597031
 51
232.8116314160015
  0
LINE
  5
157
330
1E
100
AcDbEntity
  8
IMAGE
100
AcDbLine
 10
2.264697734474846
 20
5.445661393577766
 30
0.0
 11
2.27158251464627
 21
5.394622782228194
 31
0.0
  0
ARC
  5
158
330
1E
100
AcDbEntity
  8
IMAGE
100
AcDbCircle
 10
2.311695406774595
 20
5.423568991189282
 30
0.0
 40
0.0363347932812923
100
AcDbArc
 50
142.5532855597031
 51
232.8116314160015
  0
LINE
  5
159
330
1E
100
AcDbEntity
  8
IMAGE
100
AcDbLine
 10
2.282848518563004
 20
5.445661393577766
 30
0.0
 11
2.28973329873411
 21
5.394622782228194
 31
0.0
  0
ARC
  5
15A
330
1E
100
AcDbEntity
  8
IMAGE
100
AcDbCircle
 10
2.329846190862753
 20
5.423568991189282
 30
0.0
 40
0.0363347932812923
100
AcDbArc
 50
142.5532855597031
 51
232.8116314160015
  0
LINE
  5
15B
330
1E
100
AcDbEntity
  8
IMAGE
100
AcDbLine
 10
2.300999302650837
 20
5.445661393577766
 30
0.0
 11
2.307884082822256
 21
5.394622782228194
 31
0.0
  0
ARC
  5
15C
330
1E
100
AcDbEntity
  8
IMAGE
100
AcDbCircle
 10
2.348622864057092
 20
5.423568991189282
 30
0.0
 40
0.0363347932812923
100
AcDbArc
 50
142.5532855597031
 51
232.8116314160015
  0
LINE
  5
15D
330
1E
100
AcDbEntity
  8
IMAGE
100
AcDbLine
 10
2.31977597584538
 20
5.445661393577766
 30
0.0
 11
2.326660756016702
 21
5.394622782228194
 31
0.0
  0
ARC
  5
15E
330
1E
100
AcDbEntity
  8
IMAGE
100
AcDbCircle
 10
2.243598225077922
 20
5.381082690570074
 30
0.0
 40
0.0101391053531439
100
AcDbArc
 50
221.6972960676141
 51
316.4458918268223
  0
LINE
  5
15F
330
1E
100
AcDbEntity
  8
IMAGE
100
AcDbLine
 10
2.236027663589607
 20
5.374338207186522
 30
0.0
 11
2.227093733255476
 21
5.384620356236578
 31
0.0
  0
LINE
  5
160
330
1E
100
AcDbEntity
  8
IMAGE
100
AcDbLine
 10
2.237311901261546
 20
5.375454052700624
 30
0.0
 11
2.228763225878776
 21
5.385292808005394
 31
0.0
  0
ARC
  5
161
330
1E
100
AcDbEntity
  8
IMAGE
100
AcDbCircle
 10
2.243598225077922
 20
5.381082690570074
 30
0.0
 40
0.0084378183081614
100
AcDbArc
 50
221.6972960676141
 51
330.5572729070301
  0
CIRCLE
  5
162
330
1E
100
AcDbEntity
  8
IMAGE
100
AcDbCircle
 10
2.214463766972699
 20
5.418385356335213
 30
0.0
 40
0.0360498443820563
  0
LWPOLYLINE
  5
163
330
1E
100
AcDbEntity
  8
IMAGE
100
AcDbPolyline
 90
        2
 70
     0
 43
0.0
 10
2.222551229418093
 20
5.395871025250531
 10
2.214463766972699
 20
5.391201726630701
  0
LWPOLYLINE
  5
167
330
1E
100
AcDbEntity
  8
IMAGE
100
AcDbPolyline
 90
        5
 70
     0
 43
0.0
 10
2.206376304527414
 20
5.440899687419941
 10
2.214463766972699
 20
5.445568986039829
 10
2.238005480864081
 20
5.431977171187467
 10
2.238005480864081
 20
5.404793541483005
 10
2.229918018418573
 20
5.400124242863068
  0
ARC
  5
16E
330
1E
100
AcDbEntity
  8
IMAGE
100
AcDbCircle
 10
2.214463766972699
 20
5.418385356335213
 30
0.0
 40
0.019416878360384
100
AcDbArc
 50
132.6530910809695
 51
287.3469089190293
  0
LWPOLYLINE
  5
16F
330
1E
100
AcDbEntity
  8
IMAGE
100
AcDbPolyline
 90
        4
 70
     0
 43
0.0
 10
2.214463766972699
 20
5.391201726630701
 10
2.190922053081636
 20
5.404793541483005
 10
2.190922053081636
 20
5.431977171187467
 10
2.199009515526928
 20
5.436646469807406
  0
LINE
  5
175
330
1E
100
AcDbEntity
  8
IMAGE
100
AcDbLine
 10
2.206376304527414
 20
5.44089968741994
 30
0.0
 11
2.229918018418573
 21
5.400124242863067
 31
0.0
  0
LINE
  5
176
330
1E
100
AcDbEntity
  8
IMAGE
100
AcDbLine
 10
2.199009515526928
 20
5.436646469807405
 30
0.0
 11
2.222551229418093
 21
5.395871025250531
 31
0.0
  0
ARC
  5
177
330
1E
100
AcDbEntity
  8
IMAGE
100
AcDbCircle
 10
2.214463766972699
 20
5.418385356335213
 30
0.0
 40
0.019416878360384
100
AcDbArc
 50
312.6530910809717
 51
107.3469089190281
  0
CIRCLE
  5
178
330
1E
100
AcDbEntity
  8
IMAGE
100
AcDbCircle
 10
2.214463766972699
 20
5.418385356335213
 30
0.0
 40
0.0322956548274434
  0
ARC
  5
179
330
1E
100
AcDbEntity
  8
IMAGE
100
AcDbCircle
 10
2.243598225077922
 20
5.455688022100399
 30
0.0
 40
0.0084378183081614
100
AcDbArc
 50
29.4427270929698
 51
138.3027039323858
  0
ARC
  5
17A
330
1E
100
AcDbEntity
  8
IMAGE
100
AcDbCircle
 10
2.243598225077922
 20
5.455688022100399
 30
0.0
 40
0.0101391053531439
100
AcDbArc
 50
43.55410817317756
 51
138.3027039323858
  0
LINE
  5
17B
330
1E
100
AcDbEntity
  8
IMAGE
100
AcDbLine
 10
2.714455486482266
 20
5.377609911778447
 30
0.0
 11
2.250946277955882
 21
5.377609911778447
 31
0.0
  0
LINE
  5
17C
330
1E
100
AcDbEntity
  8
IMAGE
100
AcDbLine
 10
2.714455486482266
 20
5.462674264027621
 30
0.0
 11
2.250946277955882
 21
5.462674264027621
 31
0.0
  0
ARC
  5
17D
330
1E
100
AcDbEntity
  8
IMAGE
100
AcDbCircle
 10
2.38617621044619
 20
5.423568991189282
 30
0.0
 40
0.0363347932812923
100
AcDbArc
 50
142.5532855597031
 51
232.8116314160015
  0
ARC
  5
17E
330
1E
100
AcDbEntity
  8
IMAGE
100
AcDbCircle
 10
2.367399537251743
 20
5.423568991189282
 30
0.0
 40
0.0363347932812923
100
AcDbArc
 50
142.5532855597031
 51
232.8116314160015
  0
LINE
  5
17F
330
1E
100
AcDbEntity
  8
IMAGE
100
AcDbLine
 10
2.338552649039935
 20
5.445661393577766
 30
0.0
 11
2.345437429211256
 21
5.394622782228194
 31
0.0
  0
LINE
  5
180
330
1E
100
AcDbEntity
  8
IMAGE
100
AcDbLine
 10
2.377357773641933
 20
5.445661393577766
 30
0.0
 11
2.384242553813256
 21
5.394622782228194
 31
0.0
  0
ARC
  5
181
330
1E
100
AcDbEntity
  8
IMAGE
100
AcDbCircle
 10
2.425607224154693
 20
5.423568991189282
 30
0.0
 40
0.0363347932812923
100
AcDbArc
 50
142.5532855597031
 51
232.8116314160015
  0
LINE
  5
182
330
1E
100
AcDbEntity
  8
IMAGE
100
AcDbLine
 10
2.396760335942883
 20
5.445661393577766
 30
0.0
 11
2.403645116114195
 21
5.394622782228194
 31
0.0
  0
ARC
  5
183
330
1E
100
AcDbEntity
  8
IMAGE
100
AcDbCircle
 10
2.444383897349241
 20
5.423568991189282
 30
0.0
 40
0.0363347932812923
100
AcDbArc
 50
142.5532855597031
 51
232.8116314160015
  0
LINE
  5
184
330
1E
100
AcDbEntity
  8
IMAGE
100
AcDbLine
 10
2.415537009137319
 20
5.445661393577766
 30
0.0
 11
2.422421789308743
 21
5.394622782228194
 31
0.0
  0
LINE
  5
185
330
1E
100
AcDbEntity
  8
IMAGE
100
AcDbLine
 10
2.357329322234382
 20
5.445661393577766
 30
0.0
 11
2.364214102405806
 21
5.394622782228194
 31
0.0
  0
ARC
  5
186
330
1E
100
AcDbEntity
  8
IMAGE
100
AcDbCircle
 10
2.40620466185364
 20
5.423568991189282
 30
0.0
 40
0.0363347932812923
100
AcDbArc
 50
142.5532855597031
 51
232.8116314160015
  0
ARC
  5
187
330
1E
100
AcDbEntity
  8
IMAGE
100
AcDbCircle
 10
2.599604395756917
 20
5.423568991189282
 30
0.0
 40
0.0363347932812923
100
AcDbArc
 50
142.5532855597031
 51
232.8116314160015
  0
ARC
  5
188
330
1E
100
AcDbEntity
  8
IMAGE
100
AcDbCircle
 10
2.464412348756582
 20
5.423568991189282
 30
0.0
 40
0.0363347932812923
100
AcDbArc
 50
142.5532855597031
 51
232.8116314160015
  0
LINE
  5
189
330
1E
100
AcDbEntity
  8
IMAGE
100
AcDbLine
 10
2.435565460544979
 20
5.445661393577766
 30
0.0
 11
2.442450240716085
 21
5.394622782228194
 31
0.0
  0
ARC
  5
18A
330
1E
100
AcDbEntity
  8
IMAGE
100
AcDbCircle
 10
2.483814911057527
 20
5.423568991189282
 30
0.0
 40
0.0363347932812923
100
AcDbArc
 50
142.5532855597031
 51
232.8116314160015
  0
LINE
  5
18B
330
1E
100
AcDbEntity
  8
IMAGE
100
AcDbLine
 10
2.454968022845924
 20
5.445661393577766
 30
0.0
 11
2.46185280301703
 21
5.394622782228194
 31
0.0
  0
ARC
  5
18C
330
1E
100
AcDbEntity
  8
IMAGE
100
AcDbCircle
 10
2.503217473358479
 20
5.423568991189282
 30
0.0
 40
0.0363347932812923
100
AcDbArc
 50
142.5532855597031
 51
232.8116314160015
  0
LINE
  5
18D
330
1E
100
AcDbEntity
  8
IMAGE
100
AcDbLine
 10
2.474370585146876
 20
5.445661393577766
 30
0.0
 11
2.481255365318191
 21
5.394622782228194
 31
0.0
  0
ARC
  5
18E
330
1E
100
AcDbEntity
  8
IMAGE
100
AcDbCircle
 10
2.52262003565952
 20
5.423568991189282
 30
0.0
 40
0.0363347932812923
100
AcDbArc
 50
142.5532855597031
 51
232.8116314160015
  0
LINE
  5
18F
330
1E
100
AcDbEntity
  8
IMAGE
100
AcDbLine
 10
2.493773147447821
 20
5.445661393577766
 30
0.0
 11
2.500657927619136
 21
5.394622782228194
 31
0.0
  0
ARC
  5
190
330
1E
100
AcDbEntity
  8
IMAGE
100
AcDbCircle
 10
2.541396708854075
 20
5.423568991189282
 30
0.0
 40
0.0363347932812923
100
AcDbArc
 50
142.5532855597031
 51
232.8116314160015
  0
LINE
  5
191
330
1E
100
AcDbEntity
  8
IMAGE
100
AcDbLine
 10
2.512549820642369
 20
5.445661393577766
 30
0.0
 11
2.519434600813583
 21
5.394622782228194
 31
0.0
  0
ARC
  5
192
330
1E
100
AcDbEntity
  8
IMAGE
100
AcDbCircle
 10
2.56079927115502
 20
5.423568991189282
 30
0.0
 40
0.0363347932812923
100
AcDbArc
 50
142.5532855597031
 51
232.8116314160015
  0
LINE
  5
193
330
1E
100
AcDbEntity
  8
IMAGE
100
AcDbLine
 10
2.531952382943427
 20
5.445661393577766
 30
0.0
 11
2.538837163114522
 21
5.394622782228194
 31
0.0
  0
LINE
  5
194
330
1E
100
AcDbEntity
  8
IMAGE
100
AcDbLine
 10
2.551354945244361
 20
5.445661393577766
 30
0.0
 11
2.558239725415467
 21
5.394622782228194
 31
0.0
  0
ARC
  5
195
330
1E
100
AcDbEntity
  8
IMAGE
100
AcDbCircle
 10
2.580201833455965
 20
5.423568991189282
 30
0.0
 40
0.0363347932812923
100
AcDbArc
 50
142.5532855597031
 51
232.8116314160015
  0
LINE
  5
196
330
1E
100
AcDbEntity
  8
IMAGE
100
AcDbLine
 10
2.714455486482266
 20
5.462674264027621
 30
0.0
 11
2.714455486482266
 21
5.377609911778447
 31
0.0
  0
LINE
  5
197
330
1E
100
AcDbEntity
  8
IMAGE
100
AcDbLine
 10
2.628339305341865
 20
5.445661393577766
 30
0.0
 11
2.63522408551296
 21
5.394622782228194
 31
0.0
  0
ARC
  5
198
330
1E
100
AcDbEntity
  8
IMAGE
100
AcDbCircle
 10
2.657186193553457
 20
5.423568991189282
 30
0.0
 40
0.0363347932812923
100
AcDbArc
 50
142.5532855597031
 51
232.8116314160015
  0
LINE
  5
199
330
1E
100
AcDbEntity
  8
IMAGE
100
AcDbLine
 10
2.608936743040806
 20
5.445661393577766
 30
0.0
 11
2.61582152321202
 21
5.394622782228194
 31
0.0
  0
ARC
  5
19A
330
1E
100
AcDbEntity
  8
IMAGE
100
AcDbCircle
 10
2.637783631252513
 20
5.423568991189282
 30
0.0
 40
0.0363347932812923
100
AcDbArc
 50
142.5532855597031
 51
232.8116314160015
  0
LINE
  5
19B
330
1E
100
AcDbEntity
  8
IMAGE
100
AcDbLine
 10
2.590160069846258
 20
5.445661393577766
 30
0.0
 11
2.597044850017574
 21
5.394622782228194
 31
0.0
  0
ARC
  5
19C
330
1E
100
AcDbEntity
  8
IMAGE
100
AcDbCircle
 10
2.676588755854363
 20
5.423568991189351
 30
0.0
 40
0.0363347932812923
100
AcDbArc
 50
142.5532855597031
 51
232.8116314160015
  0
LINE
  5
19D
330
1E
100
AcDbEntity
  8
IMAGE
100
AcDbLine
 10
2.647741867642662
 20
5.445661393577833
 30
0.0
 11
2.654626647813979
 21
5.394622782228263
 31
0.0
  0
ARC
  5
19E
330
1E
100
AcDbEntity
  8
IMAGE
100
AcDbCircle
 10
2.695365429048917
 20
5.423568991189351
 30
0.0
 40
0.0363347932812923
100
AcDbArc
 50
142.5532855597031
 51
232.8116314160015
  0
LINE
  5
19F
330
1E
100
AcDbEntity
  8
IMAGE
100
AcDbLine
 10
2.666518540837212
 20
5.445661393577833
 30
0.0
 11
2.673403321008426
 21
5.394622782228263
 31
0.0
  0
ARC
  5
1A0
330
1E
100
AcDbEntity
  8
IMAGE
100
AcDbCircle
 10
2.714767991349863
 20
5.423568991189351
 30
0.0
 40
0.0363347932812923
100
AcDbArc
 50
142.5532855597031
 51
232.8116314160015
  0
LINE
  5
1A1
330
1E
100
AcDbEntity
  8
IMAGE
100
AcDbLine
 10
2.68592110313827
 20
5.445661393577833
 30
0.0
 11
2.692805883309365
 21
5.394622782228263
 31
0.0
  0
ARC
  5
1A2
330
1E
100
AcDbEntity
  8
IMAGE
100
AcDbCircle
 10
2.734170553650803
 20
5.423568991189356
 30
0.0
 40
0.0363347932812923
100
AcDbArc
 50
142.5532855597031
 51
232.8116314160015
  0
LINE
  5
1A3
330
1E
100
AcDbEntity
  8
IMAGE
100
AcDbLine
 10
2.70532366543921
 20
5.445661393577839
 30
0.0
 11
2.712208445610305
 21
5.394622782228268
 31
0.0
  0
LINE
  5
1A4
330
1E
100
AcDbEntity
  8
IMAGE
100
AcDbLine
 10
2.570757507545313
 20
5.445661393577766
 30
0.0
 11
2.577642287716629
 21
5.394622782228194
 31
0.0
  0
ARC
  5
1A5
330
1E
100
AcDbEntity
  8
IMAGE
100
AcDbCircle
 10
2.619006958057958
 20
5.423568991189282
 30
0.0
 40
0.0363347932812923
100
AcDbArc
 50
142.5532855597031
 51
232.8116314160015
  0
LINE
  5
1A6
330
1E
100
AcDbEntity
  8
IMAGE
100
AcDbLine
 10
2.707888937367649
 20
5.377609911778447
 30
0.0
 11
2.707888937367651
 21
4.569785928235634
 31
0.0
  0
LINE
  5
1A7
330
1E
100
AcDbEntity
  8
IMAGE
100
AcDbLine
 10
2.465826452153192
 20
5.377609911778447
 30
0.0
 11
2.465826452153192
 21
2.932343040386911
 31
0.0
  0
LINE
  5
1A8
330
1E
100
AcDbEntity
  8
IMAGE
100
AcDbLine
 10
2.488495034201926
 20
5.377609911778447
 30
0.0
 11
2.488495034201927
 21
4.569785928235634
 31
0.0
  0
LINE
  5
1A9
330
1E
100
AcDbEntity
  8
IMAGE
100
AcDbLine
 10
2.251830910513434
 20
5.377609911778447
 30
0.0
 11
2.251830910513432
 21
3.797636482559227
 31
0.0
  0
TEXT
  5
1AA
330
1E
100
AcDbEntity
  8
TEXT_BUBBLES
100
AcDbText
 10
6.18217026
 20
5.10328095
 30
0.0
 40
0.125
  1
1-INCH GALVANIZED STEEL PIPE
  7
SIMPLEX
100
AcDbText
  0
TEXT
  5
1AB
330
1E
100
AcDbEntity
  8
TEXT_BUBBLES
100
AcDbText
 10
6.18217026
 20
4.753280949999999
 30
0.0
 40
0.125
  1
  CLAMPS OR EQUIVALENT
  7
SIMPLEX
100
AcDbText
  0
TEXT
  5
1AC
330
1E
100
AcDbEntity
  8
TEXT_BUBBLES
100
AcDbText
 10
6.18217026
 20
4.578280949999999
 30
0.0
 40
0.125
  1
  SUPPORT SYSTEM
  7
SIMPLEX
100
AcDbText
  0
TEXT
  5
1AE
330
1E
100
AcDbEntity
  8
TEXT_BUBBLES
100
AcDbText
 10
5.860352533630744
 20
6.510245182638219
 30
0.0
 40
0.1
  1
4
  7
ROMANS
 72
     4
 11
5.910352533630744
 21
6.560245182638219
 31
0.0
100
AcDbText
  0
TEXT
  5
1AF
330
1E
100
AcDbEntity
  8
TEXT_BUBBLES
100
AcDbText
 10
6.18217026
 20
7.90328095
 30
0.0
 40
0.125
  1
IMPACT SPRINKLER:
  7
SIMPLEX
100
AcDbText
  0
TEXT
  5
1B0
330
1E
100
AcDbEntity
  8
OPTION-MODEL-TNT
100
AcDbText
 10
6.18217026
 20
7.72828095
 30
0.0
 40
0.125
  1
  RAIN BIRD 35A-TNT
  7
SIMPLEX
100
AcDbText
  0
TEXT
  5
1B2
330
1E
100
AcDbEntity
  8
TEXT_BUBBLES
100
AcDbText
 10
5.862733486011697
 20
6.86024518263822
 30
0.0
 40
0.1
  1
3
  7
ROMANS
 72
     4
 11
5.910352533630744
 21
6.910245182638219
 31
0.0
100
AcDbText
  0
ARC
  5
1B3
330
1E
100
AcDbEntity
  8
IMAGE
100
AcDbCircle
 10
2.993102949921316
 20
5.731494279351649
 30
0.0
 40
0.1818260367492528
100
AcDbArc
 50
116.0563205359582
 51
205.2549940243739
  0
ARC
  5
1B4
330
1E
100
AcDbEntity
  8
IMAGE
100
AcDbCircle
 10
2.748788324248213
 20
5.81726437192301
 30
0.0
 40
0.1818260367492528
100
AcDbArc
 50
296.0563205359582
 51
25.2549940243739
  0
ARC
  5
1B5
330
1E
100
AcDbEntity
  8
IMAGE
100
AcDbCircle
 10
3.099203231877149
 20
6.240775216475336
 30
0.0
 40
0.1818260367492528
100
AcDbArc
 50
116.0563205359582
 51
205.2549940243739
  0
ARC
  5
1B6
330
1E
100
AcDbEntity
  8
IMAGE
100
AcDbCircle
 10
2.854888606204047
 20
6.326545309046696
 30
0.0
 40
0.1818260367492528
100
AcDbArc
 50
296.0563205359582
 51
25.2549940243739
  0
ARC
  5
1B7
330
1E
100
AcDbEntity
  8
IMAGE
100
AcDbCircle
 10
3.307159784510584
 20
6.206823154000424
 30
0.0
 40
0.1818260367492528
100
AcDbArc
 50
116.0563205359582
 51
205.2549940243739
  0
ARC
  5
1B8
330
1E
100
AcDbEntity
  8
IMAGE
100
AcDbCircle
 10
3.062845158837482
 20
6.292593246571784
 30
0.0
 40
0.1818260367492528
100
AcDbArc
 50
296.0563205359582
 51
25.2549940243739
  0
ARC
  5
1B9
330
1E
100
AcDbEntity
  8
IMAGE
100
AcDbCircle
 10
3.61697260782162
 20
6.189847122762968
 30
0.0
 40
0.1818260367492528
100
AcDbArc
 50
116.0563205359582
 51
205.2549940243739
  0
ARC
  5
1BA
330
1E
100
AcDbEntity
  8
IMAGE
100
AcDbCircle
 10
3.372657982148517
 20
6.275617215334328
 30
0.0
 40
0.1818260367492528
100
AcDbArc
 50
296.0563205359582
 51
25.2549940243739
  0
ARC
  5
1BB
330
1E
100
AcDbEntity
  8
IMAGE
100
AcDbCircle
 10
3.549068427369887
 20
5.964914708866673
 30
0.0
 40
0.1818260367492528
100
AcDbArc
 50
116.0563205359582
 51
205.2549940243739
  0
ARC
  5
1BC
330
1E
100
AcDbEntity
  8
IMAGE
100
AcDbCircle
 10
3.304753801696784
 20
6.050684801438033
 30
0.0
 40
0.1818260367492528
100
AcDbArc
 50
296.0563205359582
 51
25.2549940243739
  0
ARC
  5
1BD
330
1E
100
AcDbEntity
  8
IMAGE
100
AcDbCircle
 10
3.052519107816583
 20
5.986134747913493
 30
0.0
 40
0.1818260367492528
100
AcDbArc
 50
116.0563205359582
 51
205.2549940243739
  0
ARC
  5
1BE
330
1E
100
AcDbEntity
  8
IMAGE
100
AcDbCircle
 10
2.80820448214348
 20
6.071904840484853
 30
0.0
 40
0.1818260367492528
100
AcDbArc
 50
296.0563205359582
 51
25.2549940243739
  0
ARC
  5
1BF
330
1E
100
AcDbEntity
  8
IMAGE
100
AcDbCircle
 10
3.438724134135817
 20
5.608418052880091
 30
0.0
 40
0.1818260367492528
100
AcDbArc
 50
116.0563205359582
 51
205.2549940243739
  0
ARC
  5
1C0
330
1E
100
AcDbEntity
  8
IMAGE
100
AcDbCircle
 10
3.194409508462715
 20
5.694188145451452
 30
0.0
 40
0.1818260367492528
100
AcDbArc
 50
296.0563205359582
 51
25.2549940243739
  0
ARC
  5
1C1
330
1E
100
AcDbEntity
  8
IMAGE
100
AcDbCircle
 10
3.464188201805219
 20
5.430169724886801
 30
0.0
 40
0.1818260367492528
100
AcDbArc
 50
116.0563205359582
 51
205.2549940243739
  0
ARC
  5
1C2
330
1E
100
AcDbEntity
  8
IMAGE
100
AcDbCircle
 10
3.219873576132116
 20
5.515939817458161
 30
0.0
 40
0.1818260367492528
100
AcDbArc
 50
296.0563205359582
 51
25.2549940243739
  0
ARC
  5
1C3
330
1E
100
AcDbEntity
  8
IMAGE
100
AcDbCircle
 10
3.659412720603953
 20
5.61690606849882
 30
0.0
 40
0.1818260367492528
100
AcDbArc
 50
116.0563205359582
 51
205.2549940243739
  0
ARC
  5
1C4
330
1E
100
AcDbEntity
  8
IMAGE
100
AcDbCircle
 10
3.415098094930851
 20
5.702676161070179
 30
0.0
 40
0.1818260367492528
100
AcDbArc
 50
296.0563205359582
 51
25.2549940243739
  0
ARC
  5
1C5
330
1E
100
AcDbEntity
  8
IMAGE
100
AcDbCircle
 10
3.180230566169964
 20
6.072220658230435
 30
0.0
 40
0.1818260367492528
100
AcDbArc
 50
143.5307656099477
 51
232.7294390983634
  0
ARC
  5
1C6
330
1E
100
AcDbEntity
  8
IMAGE
100
AcDbCircle
 10
2.923900267150244
 20
6.035602044084762
 30
0.0
 40
0.1818260367492528
100
AcDbArc
 50
323.5307656099477
 51
52.72943909836341
  0
ARC
  5
1C7
330
1E
100
AcDbEntity
  8
IMAGE
100
AcDbCircle
 10
3.078095999670839
 20
5.612615108984374
 30
0.0
 40
0.1818260367492528
100
AcDbArc
 50
143.5307656099477
 51
232.7294390983634
  0
ARC
  5
1C8
330
1E
100
AcDbEntity
  8
IMAGE
100
AcDbCircle
 10
2.821765700651122
 20
5.575996494838702
 30
0.0
 40
0.1818260367492528
100
AcDbArc
 50
323.5307656099477
 51
52.72943909836341
  0
ARC
  5
1C9
330
1E
100
AcDbEntity
  8
IMAGE
100
AcDbCircle
 10
3.027028716421277
 20
5.469626715885601
 30
0.0
 40
0.1818260367492528
100
AcDbArc
 50
143.5307656099477
 51
232.7294390983634
  0
ARC
  5
1CA
330
1E
100
AcDbEntity
  8
IMAGE
100
AcDbCircle
 10
2.770698417401559
 20
5.433008101739927
 30
0.0
 40
0.1818260367492528
100
AcDbArc
 50
323.5307656099477
 51
52.72943909836341
  0
ARC
  5
1CB
330
1E
100
AcDbEntity
  8
IMAGE
100
AcDbCircle
 10
3.200657479469787
 20
5.449199802585775
 30
0.0
 40
0.1818260367492528
100
AcDbArc
 50
143.5307656099477
 51
232.7294390983634
  0
ARC
  5
1CC
330
1E
100
AcDbEntity
  8
IMAGE
100
AcDbCircle
 10
2.944327180450071
 20
5.412581188440103
 30
0.0
 40
0.1818260367492528
100
AcDbArc
 50
323.5307656099477
 51
52.72943909836341
  0
ARC
  5
1CD
330
1E
100
AcDbEntity
  8
IMAGE
100
AcDbCircle
 10
3.292578589318999
 20
5.857738068582273
 30
0.0
 40
0.1818260367492528
100
AcDbArc
 50
143.5307656099477
 51
232.7294390983634
  0
ARC
  5
1CE
330
1E
100
AcDbEntity
  8
IMAGE
100
AcDbCircle
 10
3.036248290299282
 20
5.821119454436601
 30
0.0
 40
0.1818260367492528
100
AcDbArc
 50
323.5307656099477
 51
52.72943909836341
  0
ARC
  5
1CF
330
1E
100
AcDbEntity
  8
IMAGE
100
AcDbCircle
 10
3.455993895717599
 20
6.000726461681048
 30
0.0
 40
0.1818260367492528
100
AcDbArc
 50
143.5307656099477
 51
232.7294390983634
  0
ARC
  5
1D0
330
1E
100
AcDbEntity
  8
IMAGE
100
AcDbCircle
 10
3.199663596697881
 20
5.964107847535374
 30
0.0
 40
0.1818260367492528
100
AcDbArc
 50
323.5307656099477
 51
52.72943909836341
  0
ARC
  5
1D1
330
1E
100
AcDbEntity
  8
IMAGE
100
AcDbCircle
 10
3.690903398665583
 20
5.867951525232186
 30
0.0
 40
0.1818260367492528
100
AcDbArc
 50
143.5307656099477
 51
232.7294390983634
  0
ARC
  5
1D2
330
1E
100
AcDbEntity
  8
IMAGE
100
AcDbCircle
 10
3.434573099645866
 20
5.831332911086513
 30
0.0
 40
0.1818260367492528
100
AcDbArc
 50
323.5307656099477
 51
52.72943909836341
  0
ARC
  5
1D3
330
1E
100
AcDbEntity
  8
IMAGE
100
AcDbCircle
 10
3.54791500556681
 20
5.612615108984374
 30
0.0
 40
0.1818260367492528
100
AcDbArc
 50
143.5307656099477
 51
232.7294390983634
  0
ARC
  5
1D4
330
1E
100
AcDbEntity
  8
IMAGE
100
AcDbCircle
 10
3.291584706547093
 20
5.575996494838702
 30
0.0
 40
0.1818260367492528
100
AcDbArc
 50
323.5307656099477
 51
52.72943909836341
  0
ARC
  5
1D5
330
1E
100
AcDbEntity
  8
IMAGE
100
AcDbCircle
 10
3.33343241591865
 20
5.449199802585775
 30
0.0
 40
0.1818260367492528
100
AcDbArc
 50
143.5307656099477
 51
232.7294390983634
  0
ARC
  5
1D6
330
1E
100
AcDbEntity
  8
IMAGE
100
AcDbCircle
 10
3.077102116898931
 20
5.412581188440103
 30
0.0
 40
0.1818260367492528
100
AcDbArc
 50
323.5307656099477
 51
52.72943909836341
  0
ARC
  5
1D7
330
1E
100
AcDbEntity
  8
IMAGE
100
AcDbCircle
 10
3.629002967349886
 20
5.454875324024435
 30
0.0
 40
0.1818260367492528
100
AcDbArc
 50
143.5307656099477
 51
232.7294390983634
  0
ARC
  5
1D8
330
1E
100
AcDbEntity
  8
IMAGE
100
AcDbCircle
 10
3.372672668330169
 20
5.418256709878763
 30
0.0
 40
0.1818260367492528
100
AcDbArc
 50
323.5307656099477
 51
52.72943909836341
  0
ARC
  5
1D9
330
1E
100
AcDbEntity
  8
IMAGE
100
AcDbCircle
 10
3.180230566169964
 20
6.286703247878595
 30
0.0
 40
0.1818260367492528
100
AcDbArc
 50
143.5307656099477
 51
232.7294390983634
  0
ARC
  5
1DA
330
1E
100
AcDbEntity
  8
IMAGE
100
AcDbCircle
 10
2.923900267150244
 20
6.250084633732923
 30
0.0
 40
0.1818260367492528
100
AcDbArc
 50
323.5307656099477
 51
52.72943909836341
  0
ARC
  5
1DB
330
1E
100
AcDbEntity
  8
IMAGE
100
AcDbCircle
 10
3.417580710067452
 20
5.876377334369312
 30
0.0
 40
0.1818260367492528
100
AcDbArc
 50
159.7199718669747
 51
248.9186453553905
  0
ARC
  5
1DC
330
1E
100
AcDbEntity
  8
IMAGE
100
AcDbCircle
 10
3.181624517546842
 20
5.769743285826344
 30
0.0
 40
0.1818260367492528
100
AcDbArc
 50
339.7199718669747
 51
68.91864535539045
  0
ARC
  5
1DD
330
1E
100
AcDbEntity
  8
IMAGE
100
AcDbCircle
 10
3.346086513518065
 20
5.702748571320801
 30
0.0
 40
0.1818260367492528
100
AcDbArc
 50
159.7199718669747
 51
248.9186453553905
  0
ARC
  5
1DE
330
1E
100
AcDbEntity
  8
IMAGE
100
AcDbCircle
 10
3.110130320997456
 20
5.596114522777832
 30
0.0
 40
0.1818260367492528
100
AcDbArc
 50
339.7199718669747
 51
68.91864535539045
  0
ARC
  5
1DF
330
1E
100
AcDbEntity
  8
IMAGE
100
AcDbCircle
 10
3.138810520666356
 20
5.843328306452777
 30
0.0
 40
0.1818260367492528
100
AcDbArc
 50
159.7199718669747
 51
248.9186453553905
  0
ARC
  5
1E0
330
1E
100
AcDbEntity
  8
IMAGE
100
AcDbCircle
 10
2.902854328145746
 20
5.736694257909809
 30
0.0
 40
0.1818260367492528
100
AcDbArc
 50
339.7199718669747
 51
68.91864535539045
  0
ARC
  5
1E1
330
1E
100
AcDbEntity
  8
IMAGE
100
AcDbCircle
 10
3.417580710067452
 20
6.182781033866684
 30
0.0
 40
0.1818260367492528
100
AcDbArc
 50
159.7199718669747
 51
248.9186453553905
  0
ARC
  5
1E2
330
1E
100
AcDbEntity
  8
IMAGE
100
AcDbCircle
 10
3.181624517546842
 20
6.076146985323717
 30
0.0
 40
0.1818260367492528
100
AcDbArc
 50
339.7199718669747
 51
68.91864535539045
  0
ARC
  5
1E3
330
1E
100
AcDbEntity
  8
IMAGE
100
AcDbCircle
 10
3.601422929765877
 20
6.12150029396721
 30
0.0
 40
0.1818260367492528
100
AcDbArc
 50
159.7199718669747
 51
248.9186453553905
  0
ARC
  5
1E4
330
1E
100
AcDbEntity
  8
IMAGE
100
AcDbCircle
 10
3.365466737245266
 20
6.014866245424243
 30
0.0
 40
0.1818260367492528
100
AcDbArc
 50
339.7199718669747
 51
68.91864535539045
  0
ARC
  5
1E5
330
1E
100
AcDbEntity
  8
IMAGE
100
AcDbCircle
 10
3.284805773618591
 20
6.111286837317297
 30
0.0
 40
0.1818260367492528
100
AcDbArc
 50
159.7199718669747
 51
248.9186453553905
  0
ARC
  5
1E6
330
1E
100
AcDbEntity
  8
IMAGE
100
AcDbCircle
 10
3.04884958109798
 20
6.00465278877433
 30
0.0
 40
0.1818260367492528
100
AcDbArc
 50
339.7199718669747
 51
68.91864535539045
  0
ARC
  5
1E7
330
1E
100
AcDbEntity
  8
IMAGE
100
AcDbCircle
 10
3.35553487503966
 20
5.50196785223146
 30
0.0
 40
0.1818260367492528
100
AcDbArc
 50
278.5307656099478
 51
7.729439098363569
  0
ARC
  5
1E8
330
1E
100
AcDbEntity
  8
IMAGE
100
AcDbCircle
 10
3.562681038080138
 20
5.346608229951101
 30
0.0
 40
0.1818260367492528
100
AcDbArc
 50
98.53076560994793
 51
187.7294390983635
  0
ARC
  5
1E9
330
1E
100
AcDbEntity
  8
IMAGE
100
AcDbCircle
 10
2.957210065693075
 20
5.644956245330234
 30
0.0
 40
0.1818260367492528
100
AcDbArc
 50
278.5307656099478
 51
7.729439098363569
  0
ARC
  5
1EA
330
1E
100
AcDbEntity
  8
IMAGE
100
AcDbCircle
 10
3.164356228733552
 20
5.489596623049876
 30
0.0
 40
0.1818260367492528
100
AcDbArc
 50
98.53076560994793
 51
187.7294390983635
  0
ARC
  5
1EB
330
1E
100
AcDbEntity
  8
IMAGE
100
AcDbCircle
 10
3.334826367295528
 20
5.759529829176432
 30
0.0
 40
0.1818260367492528
100
AcDbArc
 50
339.7199718669747
 51
68.91864535539045
  0
ARC
  5
1EC
330
1E
100
AcDbEntity
  8
IMAGE
100
AcDbCircle
 10
3.570782559816138
 20
5.8661638777194
 30
0.0
 40
0.1818260367492528
100
AcDbArc
 50
159.7199718669747
 51
248.9186453553905
  0
ARC
  5
1ED
330
1E
100
AcDbEntity
  8
IMAGE
100
AcDbCircle
 10
3.232973395240712
 20
6.288404014274718
 30
0.0
 40
0.1818260367492528
100
AcDbArc
 50
278.5307656099478
 51
7.729439098363569
  0
ARC
  5
1EE
330
1E
100
AcDbEntity
  8
IMAGE
100
AcDbCircle
 10
3.440119558281188
 20
6.133044391994359
 30
0.0
 40
0.1818260367492528
100
AcDbArc
 50
98.53076560994793
 51
187.7294390983635
  0
ARC
  5
1EF
330
1E
100
AcDbEntity
  8
IMAGE
100
AcDbCircle
 10
1.949798577754427
 20
5.776810676346609
 30
0.0
 40
0.1818260367492528
100
AcDbArc
 50
116.0563205359582
 51
205.2549940243739
  0
ARC
  5
1F0
330
1E
100
AcDbEntity
  8
IMAGE
100
AcDbCircle
 10
1.705483952081324
 20
5.862580768917969
 30
0.0
 40
0.1818260367492528
100
AcDbArc
 50
296.0563205359582
 51
25.2549940243739
  0
ARC
  5
1F1
330
1E
100
AcDbEntity
  8
IMAGE
100
AcDbCircle
 10
1.478713325870525
 20
6.184235426045558
 30
0.0
 40
0.1818260367492528
100
AcDbArc
 50
116.0563205359582
 51
205.2549940243739
  0
ARC
  5
1F2
330
1E
100
AcDbEntity
  8
IMAGE
100
AcDbCircle
 10
1.234398700197422
 20
6.270005518616918
 30
0.0
 40
0.1818260367492528
100
AcDbArc
 50
296.0563205359582
 51
25.2549940243739
  0
ARC
  5
1F3
330
1E
100
AcDbEntity
  8
IMAGE
100
AcDbCircle
 10
1.78852614918156
 20
6.167259394808102
 30
0.0
 40
0.1818260367492528
100
AcDbArc
 50
116.0563205359582
 51
205.2549940243739
  0
ARC
  5
1F4
330
1E
100
AcDbEntity
  8
IMAGE
100
AcDbCircle
 10
1.544211523508457
 20
6.253029487379462
 30
0.0
 40
0.1818260367492528
100
AcDbArc
 50
296.0563205359582
 51
25.2549940243739
  0
ARC
  5
1F5
330
1E
100
AcDbEntity
  8
IMAGE
100
AcDbCircle
 10
1.720621968729827
 20
5.942326980911807
 30
0.0
 40
0.1818260367492528
100
AcDbArc
 50
116.0563205359582
 51
205.2549940243739
  0
ARC
  5
1F6
330
1E
100
AcDbEntity
  8
IMAGE
100
AcDbCircle
 10
1.476307343056724
 20
6.028097073483167
 30
0.0
 40
0.1818260367492528
100
AcDbArc
 50
296.0563205359582
 51
25.2549940243739
  0
ARC
  5
1F7
330
1E
100
AcDbEntity
  8
IMAGE
100
AcDbCircle
 10
2.094094961214362
 20
5.696174527968691
 30
0.0
 40
0.1818260367492528
100
AcDbArc
 50
116.0563205359582
 51
205.2549940243739
  0
ARC
  5
1F8
330
1E
100
AcDbEntity
  8
IMAGE
100
AcDbCircle
 10
1.84978033554126
 20
5.781944620540052
 30
0.0
 40
0.1818260367492528
100
AcDbArc
 50
296.0563205359582
 51
25.2549940243739
  0
ARC
  5
1F9
330
1E
100
AcDbEntity
  8
IMAGE
100
AcDbCircle
 10
1.610277675495757
 20
5.585830324925225
 30
0.0
 40
0.1818260367492528
100
AcDbArc
 50
116.0563205359582
 51
205.2549940243739
  0
ARC
  5
1FA
330
1E
100
AcDbEntity
  8
IMAGE
100
AcDbCircle
 10
1.365963049822656
 20
5.671600417496586
 30
0.0
 40
0.1818260367492528
100
AcDbArc
 50
296.0563205359582
 51
25.2549940243739
  0
ARC
  5
1FB
330
1E
100
AcDbEntity
  8
IMAGE
100
AcDbCircle
 10
1.635741743165159
 20
5.407581996931935
 30
0.0
 40
0.1818260367492528
100
AcDbArc
 50
116.0563205359582
 51
205.2549940243739
  0
ARC
  5
1FC
330
1E
100
AcDbEntity
  8
IMAGE
100
AcDbCircle
 10
1.391427117492057
 20
5.493352089503295
 30
0.0
 40
0.1818260367492528
100
AcDbArc
 50
296.0563205359582
 51
25.2549940243739
  0
ARC
  5
1FD
330
1E
100
AcDbEntity
  8
IMAGE
100
AcDbCircle
 10
1.830966261963895
 20
5.594318340543954
 30
0.0
 40
0.1818260367492528
100
AcDbArc
 50
116.0563205359582
 51
205.2549940243739
  0
ARC
  5
1FE
330
1E
100
AcDbEntity
  8
IMAGE
100
AcDbCircle
 10
1.586651636290791
 20
5.680088433115313
 30
0.0
 40
0.1818260367492528
100
AcDbArc
 50
296.0563205359582
 51
25.2549940243739
  0
ARC
  5
1FF
330
1E
100
AcDbEntity
  8
IMAGE
100
AcDbCircle
 10
2.138220269573161
 20
5.436825531280822
 30
0.0
 40
0.1818260367492528
100
AcDbArc
 50
143.5307656099477
 51
232.7294390983634
  0
ARC
  5
200
330
1E
100
AcDbEntity
  8
IMAGE
100
AcDbCircle
 10
1.881889970553442
 20
5.400206917135149
 30
0.0
 40
0.1818260367492528
100
AcDbArc
 50
323.5307656099477
 51
52.72943909836341
  0
ARC
  5
201
330
1E
100
AcDbEntity
  8
IMAGE
100
AcDbCircle
 10
2.189287552822721
 20
6.233475149973992
 30
0.0
 40
0.1818260367492528
100
AcDbArc
 50
143.5307656099477
 51
232.7294390983634
  0
ARC
  5
202
330
1E
100
AcDbEntity
  8
IMAGE
100
AcDbCircle
 10
1.932957253803005
 20
6.196856535828319
 30
0.0
 40
0.1818260367492528
100
AcDbArc
 50
323.5307656099477
 51
52.72943909836341
  0
ARC
  5
203
330
1E
100
AcDbEntity
  8
IMAGE
100
AcDbCircle
 10
1.464132130678939
 20
5.835150340627407
 30
0.0
 40
0.1818260367492528
100
AcDbArc
 50
143.5307656099477
 51
232.7294390983634
  0
ARC
  5
204
330
1E
100
AcDbEntity
  8
IMAGE
100
AcDbCircle
 10
1.207801831659223
 20
5.798531726481735
 30
0.0
 40
0.1818260367492528
100
AcDbArc
 50
323.5307656099477
 51
52.72943909836341
  0
ARC
  5
205
330
1E
100
AcDbEntity
  8
IMAGE
100
AcDbCircle
 10
1.627547437077539
 20
5.978138733726182
 30
0.0
 40
0.1818260367492528
100
AcDbArc
 50
143.5307656099477
 51
232.7294390983634
  0
ARC
  5
206
330
1E
100
AcDbEntity
  8
IMAGE
100
AcDbCircle
 10
1.371217138057821
 20
5.941520119580508
 30
0.0
 40
0.1818260367492528
100
AcDbArc
 50
323.5307656099477
 51
52.72943909836341
  0
ARC
  5
207
330
1E
100
AcDbEntity
  8
IMAGE
100
AcDbCircle
 10
1.995231876474386
 20
6.131340583474868
 30
0.0
 40
0.1818260367492528
100
AcDbArc
 50
143.5307656099477
 51
232.7294390983634
  0
ARC
  5
208
330
1E
100
AcDbEntity
  8
IMAGE
100
AcDbCircle
 10
1.738901577454668
 20
6.094721969329194
 30
0.0
 40
0.1818260367492528
100
AcDbArc
 50
323.5307656099477
 51
52.72943909836341
  0
ARC
  5
209
330
1E
100
AcDbEntity
  8
IMAGE
100
AcDbCircle
 10
1.944164593224824
 20
6.029206016975743
 30
0.0
 40
0.1818260367492528
100
AcDbArc
 50
143.5307656099477
 51
232.7294390983634
  0
ARC
  5
20A
330
1E
100
AcDbEntity
  8
IMAGE
100
AcDbCircle
 10
1.687834294205106
 20
5.99258740283007
 30
0.0
 40
0.1818260367492528
100
AcDbArc
 50
323.5307656099477
 51
52.72943909836341
  0
ARC
  5
20B
330
1E
100
AcDbEntity
  8
IMAGE
100
AcDbCircle
 10
1.862456940025523
 20
5.84536379727732
 30
0.0
 40
0.1818260367492528
100
AcDbArc
 50
143.5307656099477
 51
232.7294390983634
  0
ARC
  5
20C
330
1E
100
AcDbEntity
  8
IMAGE
100
AcDbCircle
 10
1.606126641005807
 20
5.808745183131647
 30
0.0
 40
0.1818260367492528
100
AcDbArc
 50
323.5307656099477
 51
52.72943909836341
  0
ARC
  5
20D
330
1E
100
AcDbEntity
  8
IMAGE
100
AcDbCircle
 10
1.71946854692675
 20
5.590027381029508
 30
0.0
 40
0.1818260367492528
100
AcDbArc
 50
143.5307656099477
 51
232.7294390983634
  0
ARC
  5
20E
330
1E
100
AcDbEntity
  8
IMAGE
100
AcDbCircle
 10
1.463138247907033
 20
5.553408766883836
 30
0.0
 40
0.1818260367492528
100
AcDbArc
 50
323.5307656099477
 51
52.72943909836341
  0
ARC
  5
20F
330
1E
100
AcDbEntity
  8
IMAGE
100
AcDbCircle
 10
1.504985957278591
 20
5.426612074630909
 30
0.0
 40
0.1818260367492528
100
AcDbArc
 50
143.5307656099477
 51
232.7294390983634
  0
ARC
  5
210
330
1E
100
AcDbEntity
  8
IMAGE
100
AcDbCircle
 10
1.248655658258871
 20
5.389993460485237
 30
0.0
 40
0.1818260367492528
100
AcDbArc
 50
323.5307656099477
 51
52.72943909836341
  0
ARC
  5
211
330
1E
100
AcDbEntity
  8
IMAGE
100
AcDbCircle
 10
1.842030026725699
 20
5.406185161331085
 30
0.0
 40
0.1818260367492528
100
AcDbArc
 50
143.5307656099477
 51
232.7294390983634
  0
ARC
  5
212
330
1E
100
AcDbEntity
  8
IMAGE
100
AcDbCircle
 10
1.585699727705981
 20
5.369566547185413
 30
0.0
 40
0.1818260367492528
100
AcDbArc
 50
323.5307656099477
 51
52.72943909836341
  0
ARC
  5
213
330
1E
100
AcDbEntity
  8
IMAGE
100
AcDbCircle
 10
2.025872246424122
 20
5.46746590123056
 30
0.0
 40
0.1818260367492528
100
AcDbArc
 50
143.5307656099477
 51
232.7294390983634
  0
ARC
  5
214
330
1E
100
AcDbEntity
  8
IMAGE
100
AcDbCircle
 10
1.769541947404406
 20
5.430847287084887
 30
0.0
 40
0.1818260367492528
100
AcDbArc
 50
323.5307656099477
 51
52.72943909836341
  0
ARC
  5
215
330
1E
100
AcDbEntity
  8
IMAGE
100
AcDbCircle
 10
2.189287552822721
 20
5.835150340627407
 30
0.0
 40
0.1818260367492528
100
AcDbArc
 50
143.5307656099477
 51
232.7294390983634
  0
ARC
  5
216
330
1E
100
AcDbEntity
  8
IMAGE
100
AcDbCircle
 10
1.932957253803005
 20
5.798531726481735
 30
0.0
 40
0.1818260367492528
100
AcDbArc
 50
323.5307656099477
 51
52.72943909836341
  0
ARC
  5
217
330
1E
100
AcDbEntity
  8
IMAGE
100
AcDbCircle
 10
1.88288385332535
 20
6.161980953424605
 30
0.0
 40
0.1818260367492528
100
AcDbArc
 50
143.5307656099477
 51
232.7294390983634
  0
ARC
  5
218
330
1E
100
AcDbEntity
  8
IMAGE
100
AcDbCircle
 10
1.626553554305632
 20
6.125362339278932
 30
0.0
 40
0.1818260367492528
100
AcDbArc
 50
323.5307656099477
 51
52.72943909836341
  0
ARC
  5
219
330
1E
100
AcDbEntity
  8
IMAGE
100
AcDbCircle
 10
2.181514737122313
 20
5.649520473416197
 30
0.0
 40
0.1818260367492528
100
AcDbArc
 50
159.7199718669747
 51
248.9186453553905
  0
ARC
  5
21A
330
1E
100
AcDbEntity
  8
IMAGE
100
AcDbCircle
 10
1.945558544601702
 20
5.54288642487323
 30
0.0
 40
0.1818260367492528
100
AcDbArc
 50
339.7199718669747
 51
68.91864535539045
  0
ARC
  5
21B
330
1E
100
AcDbEntity
  8
IMAGE
100
AcDbCircle
 10
2.007885974073802
 20
5.91507034631392
 30
0.0
 40
0.1818260367492528
100
AcDbArc
 50
159.7199718669747
 51
248.9186453553905
  0
ARC
  5
21C
330
1E
100
AcDbEntity
  8
IMAGE
100
AcDbCircle
 10
1.771929781553191
 20
5.808436297770954
 30
0.0
 40
0.1818260367492528
100
AcDbArc
 50
339.7199718669747
 51
68.91864535539045
  0
ARC
  5
21D
330
1E
100
AcDbEntity
  8
IMAGE
100
AcDbCircle
 10
1.589134251427393
 20
5.853789606414446
 30
0.0
 40
0.1818260367492528
100
AcDbArc
 50
159.7199718669747
 51
248.9186453553905
  0
ARC
  5
21E
330
1E
100
AcDbEntity
  8
IMAGE
100
AcDbCircle
 10
1.353178058906782
 20
5.747155557871478
 30
0.0
 40
0.1818260367492528
100
AcDbArc
 50
339.7199718669747
 51
68.91864535539045
  0
ARC
  5
21F
330
1E
100
AcDbEntity
  8
IMAGE
100
AcDbCircle
 10
1.517640054878006
 20
5.680160843365935
 30
0.0
 40
0.1818260367492528
100
AcDbArc
 50
159.7199718669747
 51
248.9186453553905
  0
ARC
  5
220
330
1E
100
AcDbEntity
  8
IMAGE
100
AcDbCircle
 10
1.281683862357396
 20
5.573526794822966
 30
0.0
 40
0.1818260367492528
100
AcDbArc
 50
339.7199718669747
 51
68.91864535539045
  0
ARC
  5
221
330
1E
100
AcDbEntity
  8
IMAGE
100
AcDbCircle
 10
1.589134251427393
 20
6.160193305911819
 30
0.0
 40
0.1818260367492528
100
AcDbArc
 50
159.7199718669747
 51
248.9186453553905
  0
ARC
  5
222
330
1E
100
AcDbEntity
  8
IMAGE
100
AcDbCircle
 10
1.353178058906782
 20
6.053559257368851
 30
0.0
 40
0.1818260367492528
100
AcDbArc
 50
339.7199718669747
 51
68.91864535539045
  0
ARC
  5
223
330
1E
100
AcDbEntity
  8
IMAGE
100
AcDbCircle
 10
1.772976471125816
 20
6.098912566012344
 30
0.0
 40
0.1818260367492528
100
AcDbArc
 50
159.7199718669747
 51
248.9186453553905
  0
ARC
  5
224
330
1E
100
AcDbEntity
  8
IMAGE
100
AcDbCircle
 10
1.537020278605206
 20
5.992278517469377
 30
0.0
 40
0.1818260367492528
100
AcDbArc
 50
339.7199718669747
 51
68.91864535539045
  0
ARC
  5
225
330
1E
100
AcDbEntity
  8
IMAGE
100
AcDbCircle
 10
2.120233997222839
 20
6.139766392611994
 30
0.0
 40
0.1818260367492528
100
AcDbArc
 50
159.7199718669747
 51
248.9186453553905
  0
ARC
  5
226
330
1E
100
AcDbEntity
  8
IMAGE
100
AcDbCircle
 10
1.884277804702228
 20
6.033132344069026
 30
0.0
 40
0.1818260367492528
100
AcDbArc
 50
339.7199718669747
 51
68.91864535539045
  0
ARC
  5
227
330
1E
100
AcDbEntity
  8
IMAGE
100
AcDbCircle
 10
1.926178320874503
 20
5.608666646816547
 30
0.0
 40
0.1818260367492528
100
AcDbArc
 50
159.7199718669747
 51
248.9186453553905
  0
ARC
  5
228
330
1E
100
AcDbEntity
  8
IMAGE
100
AcDbCircle
 10
1.690222128353892
 20
5.502032598273579
 30
0.0
 40
0.1818260367492528
100
AcDbArc
 50
339.7199718669747
 51
68.91864535539045
  0
ARC
  5
229
330
1E
100
AcDbEntity
  8
IMAGE
100
AcDbCircle
 10
1.987459060773978
 20
5.690374300015847
 30
0.0
 40
0.1818260367492528
100
AcDbArc
 50
159.7199718669747
 51
248.9186453553905
  0
ARC
  5
22A
330
1E
100
AcDbEntity
  8
IMAGE
100
AcDbCircle
 10
1.751502868253367
 20
5.583740251472879
 30
0.0
 40
0.1818260367492528
100
AcDbArc
 50
339.7199718669747
 51
68.91864535539045
  0
ARC
  5
22B
330
1E
100
AcDbEntity
  8
IMAGE
100
AcDbCircle
 10
1.456359314978532
 20
6.088699109362432
 30
0.0
 40
0.1818260367492528
100
AcDbArc
 50
159.7199718669747
 51
248.9186453553905
  0
ARC
  5
22C
330
1E
100
AcDbEntity
  8
IMAGE
100
AcDbCircle
 10
1.220403122457921
 20
5.982065060819464
 30
0.0
 40
0.1818260367492528
100
AcDbArc
 50
339.7199718669747
 51
68.91864535539045
  0
ARC
  5
22D
330
1E
100
AcDbEntity
  8
IMAGE
100
AcDbCircle
 10
1.527088416399601
 20
5.479380124276594
 30
0.0
 40
0.1818260367492528
100
AcDbArc
 50
278.5307656099478
 51
7.729439098363569
  0
ARC
  5
22E
330
1E
100
AcDbEntity
  8
IMAGE
100
AcDbCircle
 10
1.734234579440077
 20
5.324020501996235
 30
0.0
 40
0.1818260367492528
100
AcDbArc
 50
98.53076560994793
 51
187.7294390983635
  0
ARC
  5
22F
330
1E
100
AcDbEntity
  8
IMAGE
100
AcDbCircle
 10
1.904986312446359
 20
6.112614436571165
 30
0.0
 40
0.1818260367492528
100
AcDbArc
 50
278.5307656099478
 51
7.729439098363569
  0
ARC
  5
230
330
1E
100
AcDbEntity
  8
IMAGE
100
AcDbCircle
 10
2.112132475486837
 20
5.957254814290807
 30
0.0
 40
0.1818260367492528
100
AcDbArc
 50
98.53076560994793
 51
187.7294390983635
  0
ARC
  5
231
330
1E
100
AcDbEntity
  8
IMAGE
100
AcDbCircle
 10
1.506379908655469
 20
5.736942101221565
 30
0.0
 40
0.1818260367492528
100
AcDbArc
 50
339.7199718669747
 51
68.91864535539045
  0
ARC
  5
232
330
1E
100
AcDbEntity
  8
IMAGE
100
AcDbCircle
 10
1.742336101176078
 20
5.843576149764534
 30
0.0
 40
0.1818260367492528
100
AcDbArc
 50
159.7199718669747
 51
248.9186453553905
  0
ARC
  5
233
330
1E
100
AcDbEntity
  8
IMAGE
100
AcDbCircle
 10
1.404526936600652
 20
6.265816286319852
 30
0.0
 40
0.1818260367492528
100
AcDbArc
 50
278.5307656099478
 51
7.729439098363569
  0
ARC
  5
234
330
1E
100
AcDbEntity
  8
IMAGE
100
AcDbCircle
 10
1.611673099641128
 20
6.110456664039493
 30
0.0
 40
0.1818260367492528
100
AcDbArc
 50
98.53076560994793
 51
187.7294390983635
  0
ARC
  5
235
330
1E
100
AcDbEntity
  8
IMAGE
100
AcDbCircle
 10
1.779902555764346
 20
6.332100677769638
 30
0.0
 40
0.1818260367492528
100
AcDbArc
 50
278.5307656099478
 51
7.729439098363569
  0
ARC
  5
236
330
1E
100
AcDbEntity
  8
IMAGE
100
AcDbCircle
 10
1.987048718804822
 20
6.17674105548928
 30
0.0
 40
0.1818260367492528
100
AcDbArc
 50
98.53076560994793
 51
187.7294390983635
  0
TEXT
  5
247
330
1E
100
AcDbEntity
  8
TEXT_BUBBLES
100
AcDbText
 10
4.100340378145007
 20
7.490056005290742
 30
0.0
 40
0.1
  1
1
 41
1.25
  7
ROMANS
 72
     4
 11
4.150935616240245
 21
7.540056005290741
 31
0.0
100
AcDbText
  0
TEXT
  5
249
330
1E
100
AcDbEntity
  8
TEXT_BUBBLES
100
AcDbText
 10
4.091411806716436
 20
6.000070333213696
 30
0.0
 40
0.1
  1
3
 41
1.25
  7
ROMANS
 72
     4
 11
4.150935616240245
 21
6.050070333213696
 31
0.0
100
AcDbText
  0
TEXT
  5
24B
330
1E
100
AcDbEntity
  8
TEXT_BUBBLES
100
AcDbText
 10
4.088435616240245
 20
5.360974157566308
 30
0.0
 40
0.1
  1
4
 41
1.25
  7
ROMANS
 72
     4
 11
4.150935616240245
 21
5.410974157566307
 31
0.0
100
AcDbText
  0
TEXT
  5
24D
330
1E
100
AcDbEntity
  8
TEXT_BUBBLES
100
AcDbText
 10
3.183044039159641
 20
4.928548811800714
 30
0.0
 40
0.1
  1
5
 41
1.25
  7
ROMANS
 72
     4
 11
3.24256784868345
 21
4.978548811800714
 31
0.0
100
AcDbText
  0
TEXT
  5
24F
330
1E
100
AcDbEntity
  8
TEXT_BUBBLES
100
AcDbText
 10
3.18006784868345
 20
4.57936116118545
 30
0.0
 40
0.1
  1
6
 41
1.25
  7
ROMANS
 72
     4
 11
3.24256784868345
 21
4.62936116118545
 31
0.0
100
AcDbText
  0
TEXT
  5
251
330
1E
100
AcDbEntity
  8
TEXT_BUBBLES
100
AcDbText
 10
2.624355102559897
 20
3.014673854798095
 30
0.0
 40
0.1
  1
7
 41
1.25
  7
ROMANS
 72
     4
 11
2.683878912083707
 21
3.064673854798094
 31
0.0
100
AcDbText
  0
TEXT
  5
253
330
1E
100
AcDbEntity
  8
TEXT_BUBBLES
100
AcDbText
 10
3.156647371522027
 20
3.014673854798095
 30
0.0
 40
0.1
  1
8
 41
1.25
  7
ROMANS
 72
     4
 11
3.216171181045837
 21
3.064673854798094
 31
0.0
100
AcDbText
  0
TEXT
  5
255
330
1E
100
AcDbEntity
  8
TEXT_BUBBLES
100
AcDbText
 10
3.971027152706902
 20
3.014673854798095
 30
0.0
 40
0.1
  1
9
 41
1.25
  7
ROMANS
 72
     4
 11
4.027574771754521
 21
3.064673854798094
 31
0.0
100
AcDbText
  0
TEXT
  5
257
330
1E
100
AcDbEntity
  8
TEXT_BUBBLES
100
AcDbText
 10
4.650150194684331
 20
3.014673854798095
 30
0.0
 40
0.1
  1
8
 41
1.25
  7
ROMANS
 72
     4
 11
4.709674004208141
 21
3.064673854798094
 31
0.0
100
AcDbText
  0
TEXT
  5
259
330
1E
100
AcDbEntity
  8
TEXT_BUBBLES
100
AcDbText
 10
4.951908273431196
 20
3.014673854798095
 30
0.0
 40
0.1
  1
10
 41
1.25
  7
ROMANS
 72
     4
 11
5.079884463907387
 21
3.064673854798094
 31
0.0
100
AcDbText
  0
TEXT
  5
25B
330
1E
100
AcDbEntity
  8
TEXT_BUBBLES
100
AcDbText
 10
5.290431605528826
 20
3.014673854798095
 30
0.0
 40
0.1
  1
11
 41
1.25
  7
ROMANS
 72
     4
 11
5.400550653147874
 21
3.064673854798094
 31
0.0
100
AcDbText
  0
TEXT
  5
25D
330
1E
100
AcDbEntity
  8
TEXT_BUBBLES
100
AcDbText
 10
6.18217026
 20
6.85328095
 30
0.0
 40
0.125
  1
PLANT MATERIAL
  7
SIMPLEX
100
AcDbText
  0
TEXT
  5
25E
330
1E
100
AcDbEntity
  8
TEXT_BUBBLES
100
AcDbText
 10
6.18217026
 20
6.503280949999999
 30
0.0
 40
0.125
  1
FINISH GRADE/TOP OF MULCH
  7
SIMPLEX
100
AcDbText
  0
TEXT
  5
260
330
1E
100
AcDbEntity
  8
TEXT_BUBBLES
100
AcDbText
 10
5.862733486011697
 20
6.160245182638219
 30
0.0
 40
0.1
  1
5
  7
ROMANS
 72
     4
 11
5.910352533630744
 21
6.210245182638219
 31
0.0
100
AcDbText
  0
TEXT
  5
262
330
1E
100
AcDbEntity
  8
TEXT_BUBBLES
100
AcDbText
 10
5.860352533630744
 20
5.460245182638219
 30
0.0
 40
0.1
  1
6
  7
ROMANS
 72
     4
 11
5.910352533630744
 21
5.510245182638219
 31
0.0
100
AcDbText
  0
TEXT
  5
264
330
1E
100
AcDbEntity
  8
TEXT_BUBBLES
100
AcDbText
 10
5.862733486011697
 20
5.11024518263822
 30
0.0
 40
0.1
  1
7
  7
ROMANS
 72
     4
 11
5.910352533630744
 21
5.160245182638219
 31
0.0
100
AcDbText
  0
TEXT
  5
266
330
1E
100
AcDbEntity
  8
TEXT_BUBBLES
100
AcDbText
 10
5.862733486011697
 20
4.23524518263822
 30
0.0
 40
0.1
  1
8
  7
ROMANS
 72
     4
 11
5.910352533630744
 21
4.285245182638219
 31
0.0
100
AcDbText
  0
TEXT
  5
268
330
1E
100
AcDbEntity
  8
TEXT_BUBBLES
100
AcDbText
 10
5.865114438392649
 20
3.885245182638219
 30
0.0
 40
0.1
  1
9
  7
ROMANS
 72
     4
 11
5.910352533630744
 21
3.935245182638219
 31
0.0
100
AcDbText
  0
TEXT
  5
26A
330
1E
100
AcDbEntity
  8
TEXT_BUBBLES
100
AcDbText
 10
5.807971581249792
 20
3.360245182638219
 30
0.0
 40
0.1
  1
10
  7
ROMANS
 72
     4
 11
5.910352533630744
 21
3.410245182638218
 31
0.0
100
AcDbText
  0
TEXT
  5
26B
330
1E
100
AcDbEntity
  8
TEXT_BUBBLES
100
AcDbText
 10
5.862733486011697
 20
7.385245182638219
 30
0.0
 40
0.1
  1
2
  7
ROMANS
 72
     4
 11
5.910352533630744
 21
7.435245182638219
 31
0.0
100
AcDbText
  0
TEXT
  5
26D
330
1E
100
AcDbEntity
  8
TEXT_BUBBLES
100
AcDbText
 10
6.18217026
 20
4.92828095
 30
0.0
 40
0.125
  1
  WITH STAINLESS STEEL GEAR
  7
SIMPLEX
100
AcDbText
  0
TEXT
  5
26E
330
1E
100
AcDbEntity
  8
TEXT_LEADERS
100
AcDbText
 10
6.18217026
 20
7.90328095
 30
0.0
 40
0.125
  1
IMPACT SPRINKLER:
  7
SIMPLEX
100
AcDbText
  0
TEXT
  5
26F
330
1E
100
AcDbEntity
  8
TEXT_LEADERS
100
AcDbText
 10
6.18217026
 20
6.412330301376319
 30
0.0
 40
0.125
  1
PLANT MATERIAL
  7
SIMPLEX
100
AcDbText
  0
TEXT
  5
270
330
1E
100
AcDbEntity
  8
TEXT_LEADERS
100
AcDbText
 10
6.18217026
 20
2.825676088172754
 30
0.0
 40
0.125
  1
PVC SCH 40 ELL
  7
SIMPLEX
100
AcDbText
  0
TEXT
  5
271
330
1E
100
AcDbEntity
  8
TEXT_LEADERS
100
AcDbText
 10
6.18217026
 20
2.09144067615714
 30
0.0
 40
0.125
  1
  SUPPORT SYSTEM
  7
SIMPLEX
100
AcDbText
  0
TEXT
  5
272
330
1E
100
AcDbEntity
  8
TEXT_LEADERS
100
AcDbText
 10
6.18217026
 20
3.046160552112925
 30
0.0
 40
0.125
  1
PVC LATERAL PIPE
  7
SIMPLEX
100
AcDbText
  0
TEXT
  5
273
330
1E
100
AcDbEntity
  8
TEXT_LEADERS
100
AcDbText
 10
6.18217026
 20
5.777735016420593
 30
0.0
 40
0.125
  1
FINISH GRADE/TOP OF MULCH
  7
SIMPLEX
100
AcDbText
  0
TEXT
  5
274
330
1E
100
AcDbEntity
  8
TEXT_LEADERS
100
AcDbText
 10
6.18217026
 20
5.580367699809072
 30
0.0
 40
0.125
  1
UV RADIATION RESISTANT
  7
SIMPLEX
100
AcDbText
  0
TEXT
  5
275
330
1E
100
AcDbEntity
  8
TEXT_LEADERS
100
AcDbText
 10
6.18217026
 20
5.230367699809072
 30
0.0
 40
0.125
  1
  (LENGTH AS REQUIRED)
  7
SIMPLEX
100
AcDbText
  0
TEXT
  5
276
330
1E
100
AcDbEntity
  8
TEXT_LEADERS
100
AcDbText
 10
6.18217026
 20
5.405367699809072
 30
0.0
 40
0.125
  1
  PVC SCH 80 NIPPLE
  7
SIMPLEX
100
AcDbText
  0
TEXT
  5
277
330
1E
100
AcDbEntity
  8
TEXT_LEADERS
100
AcDbText
 10
6.18217026
 20
2.266440676157141
 30
0.0
 40
0.125
  1
  CLAMPS OR EQUIVALENT
  7
SIMPLEX
100
AcDbText
  0
TEXT
  5
278
330
1E
100
AcDbEntity
  8
TEXT_LEADERS
100
AcDbText
 10
6.18217026
 20
2.441440676157144
 30
0.0
 40
0.125
  1
  WITH STAINLESS STEEL GEAR
  7
SIMPLEX
100
AcDbText
  0
TEXT
  5
279
330
1E
100
AcDbEntity
  8
TEXT_LEADERS
100
AcDbText
 10
6.18217026
 20
2.616440676157144
 30
0.0
 40
0.125
  1
1-INCH GALVANIZED STEEL PIPE
  7
SIMPLEX
100
AcDbText
  0
TEXT
  5
27A
330
1E
100
AcDbEntity
  8
TEXT_LEADERS
100
AcDbText
 10
6.18217026
 20
4.985962726150747
 30
0.0
 40
0.125
  1
PVC SCH 40 STREET ELL
  7
SIMPLEX
100
AcDbText
  0
TEXT
  5
27B
330
1E
100
AcDbEntity
  8
TEXT_LEADERS
100
AcDbText
 10
6.18217026
 20
4.729980796209595
 30
0.0
 40
0.125
  1
PVC SCH 80 NIPPLE
  7
SIMPLEX
100
AcDbText
  0
TEXT
  5
27C
330
1E
100
AcDbEntity
  8
TEXT_LEADERS
100
AcDbText
 10
6.18217026
 20
4.554980796209594
 30
0.0
 40
0.125
  1
  (LENGTH AS REQUIRED)
  7
SIMPLEX
100
AcDbText
  0
TEXT
  5
27D
330
1E
100
AcDbEntity
  8
TEXT_LEADERS
100
AcDbText
 10
6.18217026
 20
3.293820495671196
 30
0.0
 40
0.125
  1
PVC SCH 40 TEE OR ELL
  7
SIMPLEX
100
AcDbText
  0
TEXT
  5
297
330
1E
100
AcDbEntity
  8
TEXT_LEADERS
100
AcDbText
 10
6.18217026
 20
3.581279338888944
 30
0.0
 40
0.125
  1
PVC SCH 40 STREET ELL
  7
SIMPLEX
100
AcDbText
  0
LINE
  5
2A5
330
1E
100
AcDbEntity
  8
IMAGE
100
AcDbLine
 10
2.251830910513432
 20
4.059271459359795
 30
0.0
 11
1.776921885897533
 21
4.059271459359795
 31
0.0
  0
LINE
  5
2A6
330
1E
100
AcDbEntity
  8
IMAGE
100
AcDbLine
 10
2.251830910513432
 20
3.797636482559227
 30
0.0
 11
1.776921885897533
 21
3.797636482559228
 31
0.0
  0
LINE
  5
2DA
330
1E
100
AcDbEntity
  8
IMAGE
100
AcDbLine
 10
2.727064513241046
 20
6.494567715701521
 30
0.0
 11
2.727046729921859
 21
6.353044198341899
 31
0.0
  0
LINE
  5
2DB
330
1E
100
AcDbEntity
  8
IMAGE
100
AcDbLine
 10
2.469375564448879
 20
6.494567715701521
 30
0.0
 11
2.469371202501528
 21
6.353044198341899
 31
0.0
  0
LINE
  5
2DC
330
1E
100
AcDbEntity
  8
IMAGE
100
AcDbLine
 10
2.469375564448879
 20
6.494567715701521
 30
0.0
 11
2.727064513241046
 21
6.494567715701521
 31
0.0
  0
LINE
  5
2DD
330
1E
100
AcDbEntity
  8
IMAGE
100
AcDbLine
 10
2.469364513241045
 20
6.136010934121682
 30
0.0
 11
2.727019458328533
 21
6.136010934121682
 31
0.0
  0
LINE
  5
2DE
330
1E
100
AcDbEntity
  8
IMAGE
100
AcDbLine
 10
2.488495034201927
 20
6.136010934121682
 30
0.0
 11
2.707888937367651
 21
6.136010934121682
 31
0.0
  0
ARC
  5
2DF
330
1E
100
AcDbEntity
  8
OPTION-MODEL-TNT
100
AcDbCircle
 10
3.731436952705048
 20
7.752474299707111
 30
0.0
 40
0.1084717630906447
100
AcDbArc
 50
297.4207969643781
 51
98.78957590351902
  0
LINE
  5
2E0
330
1E
100
AcDbEntity
  8
OPTION-MODEL-TNT
100
AcDbLine
 10
3.714861812068479
 20
7.859672191947939
 30
0.0
 11
3.350094231762455
 21
7.717673707900615
 31
0.0
  0
LINE
  5
2E1
330
1E
100
AcDbEntity
  8
OPTION-MODEL-TNT
100
AcDbLine
 10
3.781390587038577
 20
7.656189525184803
 30
0.0
 11
3.413354930375755
 21
7.543852573951024
 31
0.0
  0
ARC
  5
2E2
330
1E
100
AcDbEntity
  8
OPTION-MODEL-TNT
100
AcDbCircle
 10
3.412358535712953
 20
7.703683473361806
 30
0.0
 40
0.0186207992380313
100
AcDbArc
 50
111.4688007143867
 51
199.9999999999999
  0
ARC
  5
2E3
330
1E
100
AcDbEntity
  8
OPTION-MODEL-TNT
100
AcDbCircle
 10
3.454733831396819
 20
7.587258305327235
 30
0.0
 40
0.0186207992380313
100
AcDbArc
 50
199.9999999999999
 51
286.0396881695418
  0
ARC
  5
2E4
330
1E
100
AcDbEntity
  8
OPTION-MODEL-TNT
100
AcDbCircle
 10
3.594508777737812
 20
7.627442928540972
 30
0.0
 40
0.0186207992380313
100
AcDbArc
 50
286.0396881695413
 51
20.00000000000001
  0
ARC
  5
2E5
330
1E
100
AcDbEntity
  8
OPTION-MODEL-TNT
100
AcDbCircle
 10
3.547425610613352
 20
7.756802867051742
 30
0.0
 40
0.0186207992380313
100
AcDbArc
 50
20.00000000000001
 51
111.4688007143867
  0
LINE
  5
2E6
330
1E
100
AcDbEntity
  8
OPTION-MODEL-TNT
100
AcDbLine
 10
3.571341233334106
 20
7.745538808400743
 30
0.0
 11
3.56492343825052
 21
7.763171555475834
 31
0.0
  0
LINE
  5
2E7
330
1E
100
AcDbEntity
  8
OPTION-MODEL-TNT
100
AcDbLine
 10
3.714871637916056
 20
7.870208931796257
 30
0.0
 11
3.212118937540025
 21
7.67449493428556
 31
0.0
  0
LINE
  5
2E8
330
1E
100
AcDbEntity
  8
OPTION-MODEL-TNT
100
AcDbLine
 10
3.788185701767341
 20
7.648012943780061
 30
0.0
 11
3.27436352962272
 21
7.491177008864346
 31
0.0
  0
LINE
  5
2E9
330
1E
100
AcDbEntity
  8
OPTION-MODEL-TNT
100
AcDbLine
 10
3.434544442680946
 20
7.588284620190288
 30
0.0
 11
3.39486070807565
 21
7.697314784937651
 31
0.0
  0
LINE
  5
2EA
330
1E
100
AcDbEntity
  8
OPTION-MODEL-TNT
100
AcDbLine
 10
3.437236003759644
 20
7.580889616903204
 30
0.0
 11
3.434544442680946
 21
7.588284620190288
 31
0.0
  0
LINE
  5
2EB
330
1E
100
AcDbEntity
  8
OPTION-MODEL-TNT
100
AcDbLine
 10
3.540610499912923
 20
7.774131699395622
 30
0.0
 11
3.405543425012266
 21
7.721012305705826
 31
0.0
  0
LINE
  5
2EC
330
1E
100
AcDbEntity
  8
OPTION-MODEL-TNT
100
AcDbLine
 10
3.612006605374988
 20
7.633811616965134
 30
0.0
 11
3.571341233334106
 21
7.745538808400743
 31
0.0
  0
LINE
  5
2ED
330
1E
100
AcDbEntity
  8
OPTION-MODEL-TNT
100
AcDbLine
 10
3.459878816793772
 20
7.569362403854482
 30
0.0
 11
3.599653763134639
 21
7.609547027067971
 31
0.0
  0
LINE
  5
2EE
330
1E
100
AcDbEntity
  8
OPTION-MODEL-TNT
100
AcDbLine
 10
3.401595379630702
 20
7.576292141993137
 30
0.0
 11
3.346909679051161
 21
7.726539869502211
 31
0.0
  0
LINE
  5
2EF
330
1E
100
AcDbEntity
  8
OPTION-MODEL-TNT
100
AcDbLine
 10
3.416466052595043
 20
7.535435303810748
 30
0.0
 11
3.401595379630702
 21
7.576292141993137
 31
0.0
  0
ARC
  5
2F0
330
1E
100
AcDbEntity
  8
OPTION-MODEL-TNT
100
AcDbCircle
 10
3.732756283373555
 20
7.752916946829241
 30
0.0
 40
0.1186476728798538
100
AcDbArc
 50
297.8511803576108
 51
98.66966403279818
  0
LINE
  5
2F1
330
1E
100
AcDbEntity
  8
OPTION-MODEL-TNT
100
AcDbLine
 10
3.231306902655453
 20
7.621776433404985
 30
0.0
 11
3.211036916669651
 21
7.677467762193638
 31
0.0
  0
ARC
  5
2F2
330
1E
100
AcDbEntity
  8
OPTION-MODEL-TNT
100
AcDbCircle
 10
3.176041261395836
 20
7.664730385345064
 30
0.0
 40
0.0372415984760626
100
AcDbArc
 50
19.99999999999864
 51
108.705209929416
  0
ARC
  5
2F3
330
1E
100
AcDbEntity
  8
OPTION-MODEL-TNT
100
AcDbCircle
 10
3.52745255289201
 20
5.641679792684826
 30
0.0
 40
2.200682390597804
100
AcDbArc
 50
87.16218705428532
 51
96.92131174558431
  0
LINE
  5
2F4
330
1E
100
AcDbEntity
  8
OPTION-MODEL-TNT
100
AcDbLine
 10
2.919468821846405
 20
7.760586260795648
 30
0.0
 11
3.262256908001309
 21
7.826324902128982
 31
0.0
  0
LINE
  5
2F5
330
1E
100
AcDbEntity
  8
OPTION-MODEL-TNT
100
AcDbLine
 10
2.965394314974423
 20
7.632727327943218
 30
0.0
 11
3.164097913556106
 21
7.700004924313475
 31
0.0
  0
LINE
  5
2F6
330
1E
100
AcDbEntity
  8
IMAGE
100
AcDbLine
 10
2.701541476887407
 20
6.494567715701521
 30
0.0
 11
2.701541476887407
 21
6.539013315393539
 31
0.0
  0
LINE
  5
2F7
330
1E
100
AcDbEntity
  8
IMAGE
100
AcDbLine
 10
2.49646164651649
 20
6.494567715701521
 30
0.0
 11
2.49646164651649
 21
6.538937823664952
 31
0.0
  0
LINE
  5
2F8
330
1E
100
AcDbEntity
  8
IMAGE
100
AcDbLine
 10
2.469375564448879
 20
6.494567715701521
 30
0.0
 11
2.727064513241046
 21
6.494567715701521
 31
0.0
  0
LINE
  5
2F9
330
1E
100
AcDbEntity
  8
IMAGE
100
AcDbLine
 10
2.470429841422248
 20
6.539013315393539
 30
0.0
 11
2.723763749528305
 21
6.539013315393539
 31
0.0
  0
LINE
  5
2FA
330
1E
100
AcDbEntity
  8
IMAGE
100
AcDbLine
 10
2.600059438034855
 20
6.705357504040252
 30
0.0
 11
2.452727319566846
 21
6.705357504040252
 31
0.0
  0
LINE
  5
2FB
330
1E
100
AcDbEntity
  8
IMAGE
100
AcDbLine
 10
2.452727319566846
 20
6.705357504040252
 30
0.0
 11
2.452727319566846
 21
6.575883824174049
 31
0.0
  0
ARC
  5
2FC
330
1E
100
AcDbEntity
  8
IMAGE
100
AcDbCircle
 10
2.526974802324756
 20
6.384535233638226
 30
0.0
 40
0.3208808822610547
100
AcDbArc
 50
76.75948008481336
 51
103.37871059599
  0
ARC
  5
2FD
330
1E
100
AcDbEntity
  8
IMAGE
100
AcDbCircle
 10
2.526974802324756
 20
6.897061576316048
 30
0.0
 40
0.3208808822610547
100
AcDbArc
 50
256.621289404138
 51
283.2405199151866
  0
ARC
  5
2FE
330
1E
100
AcDbEntity
  8
IMAGE
100
AcDbCircle
 10
2.672674114834295
 20
6.897061576316048
 30
0.0
 40
0.3208808822610547
100
AcDbArc
 50
256.7594800848133
 51
283.2405199151858
  0
LINE
  5
2FF
330
1E
100
AcDbEntity
  8
IMAGE
100
AcDbLine
 10
2.599589479124461
 20
6.705357504040252
 30
0.0
 11
2.746921597592478
 21
6.705357504040252
 31
0.0
  0
ARC
  5
300
330
1E
100
AcDbEntity
  8
IMAGE
100
AcDbCircle
 10
2.672674114834295
 20
6.384535233638226
 30
0.0
 40
0.3208808822610547
100
AcDbArc
 50
76.62128940401579
 51
103.2405199151866
  0
LINE
  5
301
330
1E
100
AcDbEntity
  8
IMAGE
100
AcDbLine
 10
2.746921597592478
 20
6.705357504040252
 30
0.0
 11
2.746921597592478
 21
6.575883824174049
 31
0.0
  0
LINE
  5
302
330
1E
100
AcDbEntity
  8
IMAGE
100
AcDbLine
 10
2.456059207740254
 20
6.575684995404262
 30
0.0
 11
2.456059207740254
 21
6.538937823664952
 31
0.0
  0
LINE
  5
303
330
1E
100
AcDbEntity
  8
IMAGE
100
AcDbLine
 10
2.456059207740254
 20
6.538937823664952
 30
0.0
 11
2.599179771356445
 21
6.538937823664952
 31
0.0
  0
LINE
  5
304
330
1E
100
AcDbEntity
  8
IMAGE
100
AcDbLine
 10
2.743589709418666
 20
6.538937823664952
 30
0.0
 11
2.600469145802997
 21
6.538937823664952
 31
0.0
  0
LINE
  5
305
330
1E
100
AcDbEntity
  8
IMAGE
100
AcDbLine
 10
2.743589709418666
 20
6.575684995404262
 30
0.0
 11
2.743589709418666
 21
6.538937823664952
 31
0.0
  0
LINE
  5
306
330
1E
100
AcDbEntity
  8
IMAGE
100
AcDbLine
 10
2.746921597592478
 20
6.575883824174049
 30
0.0
 11
2.743589709418666
 21
6.575684995404262
 31
0.0
  0
LINE
  5
307
330
1E
100
AcDbEntity
  8
IMAGE
100
AcDbLine
 10
2.452727319566846
 20
6.575883824174049
 30
0.0
 11
2.456059207740254
 21
6.575684995404262
 31
0.0
  0
LINE
  5
308
330
1E
100
AcDbEntity
  8
IMAGE
100
AcDbLine
 10
2.468871001343015
 20
6.705357504040252
 30
0.0
 11
2.468871001343015
 21
6.716614075012154
 31
0.0
  0
LINE
  5
309
330
1E
100
AcDbEntity
  8
IMAGE
100
AcDbLine
 10
2.468871001343015
 20
6.891245434860278
 30
0.0
 11
2.599555651112775
 21
6.891245434860278
 31
0.0
  0
LINE
  5
30A
330
1E
100
AcDbEntity
  8
IMAGE
100
AcDbLine
 10
2.468871001343015
 20
6.891245434860278
 30
0.0
 11
2.461768574724966
 21
6.891245434860278
 31
0.0
  0
LINE
  5
30B
330
1E
100
AcDbEntity
  8
IMAGE
100
AcDbLine
 10
2.461768574724966
 20
6.891245434860278
 30
0.0
 11
2.461768574724966
 21
6.899768346801753
 31
0.0
  0
LINE
  5
30C
330
1E
100
AcDbEntity
  8
IMAGE
100
AcDbLine
 10
2.461768574724966
 20
6.899768346801753
 30
0.0
 11
2.599555651112775
 21
6.899768346801753
 31
0.0
  0
LINE
  5
30D
330
1E
100
AcDbEntity
  8
IMAGE
100
AcDbLine
 10
2.461768574724966
 20
6.899768346801753
 30
0.0
 11
2.461768574724966
 21
6.916814170684947
 31
0.0
  0
LINE
  5
30E
330
1E
100
AcDbEntity
  8
IMAGE
100
AcDbLine
 10
2.461768574724966
 20
6.916814170684947
 30
0.0
 11
2.599555651112775
 21
6.916814170684947
 31
0.0
  0
LINE
  5
30F
330
1E
100
AcDbEntity
  8
IMAGE
100
AcDbLine
 10
2.737342727500598
 20
6.916814170684947
 30
0.0
 11
2.599555651112775
 21
6.916814170684947
 31
0.0
  0
LINE
  5
310
330
1E
100
AcDbEntity
  8
IMAGE
100
AcDbLine
 10
2.737342727500598
 20
6.899768346801753
 30
0.0
 11
2.737342727500598
 21
6.916814170684947
 31
0.0
  0
LINE
  5
311
330
1E
100
AcDbEntity
  8
IMAGE
100
AcDbLine
 10
2.737342727500598
 20
6.899768346801753
 30
0.0
 11
2.599555651112775
 21
6.899768346801753
 31
0.0
  0
LINE
  5
312
330
1E
100
AcDbEntity
  8
IMAGE
100
AcDbLine
 10
2.737342727500598
 20
6.891245434860278
 30
0.0
 11
2.737342727500598
 21
6.899768346801753
 31
0.0
  0
LINE
  5
313
330
1E
100
AcDbEntity
  8
IMAGE
100
AcDbLine
 10
2.730240300882417
 20
6.891245434860278
 30
0.0
 11
2.737342727500598
 21
6.891245434860278
 31
0.0
  0
LINE
  5
314
330
1E
100
AcDbEntity
  8
IMAGE
100
AcDbLine
 10
2.730240300882417
 20
6.891245434860278
 30
0.0
 11
2.599555651112775
 21
6.891245434860278
 31
0.0
  0
LINE
  5
315
330
1E
100
AcDbEntity
  8
IMAGE
100
AcDbLine
 10
2.730240300882417
 20
6.705357504040252
 30
0.0
 11
2.730240300882417
 21
6.716518684021639
 31
0.0
  0
LINE
  5
316
330
1E
100
AcDbEntity
  8
IMAGE
100
AcDbLine
 10
2.505803619755865
 20
6.916814170684947
 30
0.0
 11
2.505803619755865
 21
6.921125732385412
 31
0.0
  0
LINE
  5
317
330
1E
100
AcDbEntity
  8
IMAGE
100
AcDbLine
 10
2.505803619755865
 20
6.992099892834916
 30
0.0
 11
2.599555651112775
 21
6.992099892834916
 31
0.0
  0
LINE
  5
318
330
1E
100
AcDbEntity
  8
IMAGE
100
AcDbLine
 10
2.693307682469302
 20
6.992099892834916
 30
0.0
 11
2.599555651112775
 21
6.992099892834916
 31
0.0
  0
LINE
  5
319
330
1E
100
AcDbEntity
  8
IMAGE
100
AcDbLine
 10
2.693307682469302
 20
6.918582010211327
 30
0.0
 11
2.693307682469302
 21
6.961264142914501
 31
0.0
  0
LINE
  5
31A
330
1E
100
AcDbEntity
  8
IMAGE
100
AcDbLine
 10
2.505803619755865
 20
6.992099892834916
 30
0.0
 11
2.468871001343015
 21
6.992099892834916
 31
0.0
  0
LINE
  5
31B
330
1E
100
AcDbEntity
  8
IMAGE
100
AcDbLine
 10
2.468871001343015
 20
6.992099892834916
 30
0.0
 11
2.468871001343015
 21
7.16113764634154
 31
0.0
  0
LINE
  5
31C
330
1E
100
AcDbEntity
  8
IMAGE
100
AcDbLine
 10
2.468871001343015
 20
7.16113764634154
 30
0.0
 11
2.599555651112775
 21
7.16113764634154
 31
0.0
  0
LINE
  5
31D
330
1E
100
AcDbEntity
  8
IMAGE
100
AcDbLine
 10
2.730240300882417
 20
7.16113764634154
 30
0.0
 11
2.599555651112775
 21
7.16113764634154
 31
0.0
  0
LINE
  5
31E
330
1E
100
AcDbEntity
  8
IMAGE
100
AcDbLine
 10
2.730240300882417
 20
6.992099892834916
 30
0.0
 11
2.730240300882417
 21
7.16113764634154
 31
0.0
  0
LINE
  5
31F
330
1E
100
AcDbEntity
  8
IMAGE
100
AcDbLine
 10
2.730240300882417
 20
6.992099892834916
 30
0.0
 11
2.693307682469302
 21
6.992099892834916
 31
0.0
  0
LINE
  5
320
330
1E
100
AcDbEntity
  8
IMAGE
100
AcDbLine
 10
2.704008104846912
 20
7.16113764634154
 30
0.0
 11
2.704008104846912
 21
7.27254341297214
 31
0.0
  0
LINE
  5
321
330
1E
100
AcDbEntity
  8
OPTION-MODEL-TNT
100
AcDbLine
 10
3.12332995354055
 20
7.438650409493511
 30
0.0
 11
3.094374456184101
 21
7.518204984649631
 31
0.0
  0
ARC
  5
322
330
1E
100
AcDbEntity
  8
OPTION-MODEL-TNT
100
AcDbCircle
 10
3.132078867359468
 20
7.441834753705467
 30
0.0
 40
0.0093103996190156
100
AcDbArc
 50
200.0
 51
290.0
  0
LINE
  5
323
330
1E
100
AcDbEntity
  8
OPTION-MODEL-TNT
100
AcDbLine
 10
3.203432947865138
 20
7.457897594775698
 30
0.0
 11
3.135263211571807
 21
7.433085839886947
 31
0.0
  0
ARC
  5
324
330
1E
100
AcDbEntity
  8
OPTION-MODEL-TNT
100
AcDbCircle
 10
3.200248603652799
 20
7.466646508594088
 30
0.0
 40
0.0093103996190156
100
AcDbArc
 50
290.0
 51
20.00000000000001
  0
LINE
  5
325
330
1E
100
AcDbEntity
  8
OPTION-MODEL-TNT
100
AcDbLine
 10
3.162772851510948
 20
7.596832078754859
 30
0.0
 11
3.208997517471704
 21
7.46983085280623
 31
0.0
  0
LINE
  5
326
330
1E
100
AcDbEntity
  8
OPTION-MODEL-TNT
100
AcDbLine
 10
3.128190824541141
 20
7.433496818974623
 30
0.0
 11
3.107219718732004
 21
7.437804430488291
 31
0.0
  0
LINE
  5
327
330
1E
100
AcDbEntity
  8
OPTION-MODEL-TNT
100
AcDbLine
 10
3.107219718732004
 20
7.437804430488291
 30
0.0
 11
3.055819180373632
 21
7.419096164500551
 31
0.0
  0
LINE
  5
328
330
1E
100
AcDbEntity
  8
IMAGE
100
AcDbLine
 10
3.056445076139004
 20
7.421448192374853
 30
0.0
 11
3.029102225849365
 21
7.496572056129361
 31
0.0
  0
LINE
  5
329
330
1E
100
AcDbEntity
  8
OPTION-MODEL-TNT
100
AcDbLine
 10
3.107219718732004
 20
7.437804430488291
 30
0.0
 11
3.079876868442108
 21
7.512928294242732
 31
0.0
  0
LINE
  5
32A
330
1E
100
AcDbEntity
  8
OPTION-MODEL-TNT
100
AcDbLine
 10
3.052534018152463
 20
7.588052157997303
 30
0.0
 11
3.079876868442108
 21
7.512928294242732
 31
0.0
  0
LINE
  5
32B
330
1E
100
AcDbEntity
  8
IMAGE
100
AcDbLine
 10
3.001759375559331
 20
7.571695919883996
 30
0.0
 11
3.029102225849365
 21
7.496572056129361
 31
0.0
  0
LINE
  5
32C
330
1E
100
AcDbEntity
  8
OPTION-MODEL-TNT
100
AcDbLine
 10
3.052534018152463
 20
7.588052157997303
 30
0.0
 11
3.001133479793958
 21
7.569343892009694
 31
0.0
  0
LINE
  5
32D
330
1E
100
AcDbEntity
  8
OPTION-MODEL-TNT
100
AcDbLine
 10
3.065829937915593
 20
7.604831946836151
 30
0.0
 11
3.052534018152463
 21
7.588052157997303
 31
0.0
  0
LINE
  5
32E
330
1E
100
AcDbEntity
  8
OPTION-MODEL-TNT
100
AcDbLine
 10
3.162772851510948
 20
7.596832078754859
 30
0.0
 11
3.151086522758415
 21
7.628940003118517
 31
0.0
  0
ARC
  5
32F
330
1E
100
AcDbEntity
  8
OPTION-MODEL-TNT
100
AcDbCircle
 10
3.142337608940033
 20
7.62575565890663
 30
0.0
 40
0.0093103996190156
100
AcDbArc
 50
20.00000000000001
 51
109.9999999999999
  0
ARC
  5
330
330
1E
100
AcDbEntity
  8
OPTION-MODEL-TNT
100
AcDbCircle
 10
3.074167872646047
 20
7.600943904017885
 30
0.0
 40
0.0093103996190156
100
AcDbArc
 50
110.0
 51
199.9999999999999
  0
LINE
  5
331
330
1E
100
AcDbEntity
  8
OPTION-MODEL-TNT
100
AcDbLine
 10
3.065418958827784
 20
7.597759559805609
 30
0.0
 11
3.094374456184101
 21
7.518204984649631
 31
0.0
  0
LINE
  5
332
330
1E
100
AcDbEntity
  8
OPTION-MODEL-TNT
100
AcDbLine
 10
3.139153264727688
 20
7.634504572725026
 30
0.0
 11
3.070983528434224
 21
7.609692817836407
 31
0.0
  0
LINE
  5
333
330
1E
100
AcDbEntity
  8
IMAGE
100
AcDbLine
 10
2.728512326474169
 20
7.307539068246089
 30
0.0
 11
2.907985303403836
 21
7.372861889703713
 31
0.0
  0
ARC
  5
334
330
1E
100
AcDbEntity
  8
IMAGE
100
AcDbCircle
 10
2.741249703323015
 20
7.27254341297214
 30
0.0
 40
0.0372415984760625
100
AcDbArc
 50
109.9999999999998
 51
179.9999999999999
  0
LINE
  5
335
330
1E
100
AcDbEntity
  8
IMAGE
100
AcDbLine
 10
3.063257450062409
 20
7.36762502030203
 30
0.0
 11
2.946564042927916
 21
7.321962382727512
 31
0.0
  0
LINE
  5
336
330
1E
100
AcDbEntity
  8
IMAGE
100
AcDbLine
 10
2.934422425553267
 20
7.327448280936748
 30
0.0
 11
2.919918561434967
 21
7.367297320097335
 31
0.0
  0
LINE
  5
337
330
1E
100
AcDbEntity
  8
IMAGE
100
AcDbLine
 10
3.056445076139004
 20
7.421448192374853
 30
0.0
 11
3.068805639026716
 21
7.378892180513149
 31
0.0
  0
LINE
  5
338
330
1E
100
AcDbEntity
  8
IMAGE
100
AcDbLine
 10
3.001759375559331
 20
7.571695919883996
 30
0.0
 11
2.9983930975304
 21
7.582429650831823
 31
0.0
  0
LINE
  5
339
330
1E
100
AcDbEntity
  8
IMAGE
100
AcDbLine
 10
2.986565129748039
 20
7.588476175047336
 30
0.0
 11
2.983370964797956
 21
7.587411453397278
 31
0.0
  0
ARC
  5
33A
330
1E
100
AcDbEntity
  8
IMAGE
100
AcDbCircle
 10
2.911169647616181
 20
7.364112975885248
 30
0.0
 40
0.0093103996190156
100
AcDbArc
 50
20.00000000000091
 51
110.0000000000002
  0
ARC
  5
33B
330
1E
100
AcDbEntity
  8
IMAGE
100
AcDbCircle
 10
2.943171339371657
 20
7.330632625149149
 30
0.0
 40
0.0093103996190156
100
AcDbArc
 50
199.9999999999967
 51
291.3706222693426
  0
ARC
  5
33C
330
1E
100
AcDbEntity
  8
IMAGE
100
AcDbCircle
 10
3.059864746506546
 20
7.376295262723534
 30
0.0
 40
0.0093103996190156
100
AcDbArc
 50
291.3706222693435
 51
16.19614924040693
  0
ARC
  5
33D
330
1E
100
AcDbEntity
  8
IMAGE
100
AcDbCircle
 10
2.989509336620537
 20
7.579643554430585
 30
0.0
 40
0.0093103996190156
100
AcDbArc
 50
17.41229956793096
 51
108.4349488229219
  0
LINE
  5
33E
330
1E
100
AcDbEntity
  8
IMAGE
100
AcDbLine
 10
2.597485420504061
 20
8.137806098153721
 30
0.0
 11
2.754319412007762
 21
8.137806098153721
 31
0.0
  0
LINE
  5
33F
330
1E
100
AcDbEntity
  8
IMAGE
100
AcDbLine
 10
2.983370964797956
 20
7.587411453397278
 30
0.0
 11
2.966302276598125
 21
7.633667598419819
 31
0.0
  0
LINE
  5
340
330
1E
100
AcDbEntity
  8
IMAGE
100
AcDbLine
 10
2.59545444395511
 20
8.066721918941755
 30
0.0
 11
2.653103043436587
 21
8.066721918941755
 31
0.0
  0
LINE
  5
341
330
1E
100
AcDbEntity
  8
IMAGE
100
AcDbLine
 10
2.763768364069385
 20
8.039996444393683
 30
0.0
 11
2.765991500325275
 21
8.032443871907236
 31
0.0
  0
LINE
  5
342
330
1E
100
AcDbEntity
  8
IMAGE
100
AcDbLine
 10
2.841202606374158
 20
7.506172391440561
 30
0.0
 11
2.692941318303251
 21
7.455397977717725
 31
0.0
  0
LINE
  5
343
330
1E
100
AcDbEntity
  8
IMAGE
100
AcDbLine
 10
2.692941318303251
 20
7.455397977717725
 30
0.0
 11
2.692941318303251
 21
7.496017508695995
 31
0.0
  0
LINE
  5
344
330
1E
100
AcDbEntity
  8
IMAGE
100
AcDbLine
 10
2.692941318303251
 20
7.496017508695995
 30
0.0
 11
2.667296430287361
 21
7.496017508695995
 31
0.0
  0
ARC
  5
345
330
1E
100
AcDbEntity
  8
IMAGE
100
AcDbCircle
 10
2.755167164268097
 20
7.617208634537515
 30
0.0
 40
0.1284174882101326
100
AcDbArc
 50
309.6678411183392
 51
357.003062225674
  0
LINE
  5
346
330
1E
100
AcDbEntity
  8
IMAGE
100
AcDbLine
 10
2.837140653276125
 20
7.518358250734145
 30
0.0
 11
2.835109676727042
 21
7.504141414891805
 31
0.0
  0
LINE
  5
347
330
1E
100
AcDbEntity
  8
IMAGE
100
AcDbLine
 10
2.768087450612664
 20
8.03625727070786
 30
0.0
 11
2.872914134536994
 21
7.74798388991687
 31
0.0
  0
LINE
  5
348
330
1E
100
AcDbEntity
  8
IMAGE
100
AcDbLine
 10
2.919918561434967
 20
7.367297320097335
 30
0.0
 11
2.887915066998898
 21
7.46149090736452
 31
0.0
  0
ARC
  5
349
330
1E
100
AcDbEntity
  8
IMAGE
100
AcDbCircle
 10
2.651593564307402
 20
7.581989740821271
 30
0.0
 40
0.2652693376527218
100
AcDbArc
 50
332.9832542936329
 51
7.608008592140908
  0
ARC
  5
34A
330
1E
100
AcDbEntity
  8
IMAGE
100
AcDbCircle
 10
2.798944390160485
 20
7.575612919704797
 30
0.0
 40
0.1830838858101901
100
AcDbArc
 50
328.4331186109009
 51
4.969740728107719
  0
ARC
  5
34B
330
1E
100
AcDbEntity
  8
IMAGE
100
AcDbCircle
 10
2.72804235401265
 20
8.029480320465456
 30
0.0
 40
0.0372415984760625
100
AcDbArc
 50
16.40204759851894
 51
38.26431209438186
  0
ARC
  5
34C
330
1E
100
AcDbEntity
  8
IMAGE
100
AcDbCircle
 10
2.754319412007761
 20
8.100564499677748
 30
0.0
 40
0.0372415984760625
100
AcDbArc
 50
20.25424690312324
 51
90.0
  0
ARC
  5
34D
330
1E
100
AcDbEntity
  8
IMAGE
100
AcDbCircle
 10
2.444713382098003
 20
8.100564499677748
 30
0.0
 40
0.0372415984760625
100
AcDbArc
 50
90.0
 51
159.7457530968767
  0
LINE
  5
34E
330
1E
100
AcDbEntity
  8
IMAGE
100
AcDbLine
 10
2.601547373601704
 20
8.137806098153721
 30
0.0
 11
2.444713382098002
 21
8.137806098153721
 31
0.0
  0
ARC
  5
34F
330
1E
100
AcDbEntity
  8
IMAGE
100
AcDbCircle
 10
2.470990440093108
 20
8.029480320465456
 30
0.0
 40
0.0372415984760625
100
AcDbArc
 50
90.0
 51
163.597952401481
  0
LINE
  5
350
330
1E
100
AcDbEntity
  8
IMAGE
100
AcDbLine
 10
2.603578350150654
 20
8.066721918941755
 30
0.0
 11
2.470990440093108
 21
8.066721918941755
 31
0.0
  0
LINE
  5
351
330
1E
100
AcDbEntity
  8
IMAGE
100
AcDbLine
 10
2.435264430035857
 20
8.039996444393683
 30
0.0
 11
2.34562742124514
 21
7.735476195350461
 31
0.0
  0
LINE
  5
352
330
1E
100
AcDbEntity
  8
IMAGE
100
AcDbLine
 10
2.495024689258323
 20
7.16113764634154
 30
0.0
 11
2.495024689258323
 21
7.237493886094004
 31
0.0
  0
LINE
  5
353
330
1E
100
AcDbEntity
  8
IMAGE
100
AcDbLine
 10
2.689010395949982
 20
7.518882373714497
 30
0.0
 11
2.689010395949982
 21
7.541288631125022
 31
0.0
  0
LINE
  5
354
330
1E
100
AcDbEntity
  8
IMAGE
100
AcDbLine
 10
2.689010395949982
 20
7.541288631125022
 30
0.0
 11
2.883180733965593
 21
7.607031343996471
 31
0.0
  0
LINE
  5
355
330
1E
100
AcDbEntity
  8
IMAGE
100
AcDbLine
 10
2.689010395949982
 20
7.735476195350461
 30
0.0
 11
2.793572930532711
 21
7.735476195350461
 31
0.0
  0
LINE
  5
356
330
1E
100
AcDbEntity
  8
IMAGE
100
AcDbLine
 10
2.793572930532711
 20
7.735476195350461
 30
0.0
 11
2.849812191754507
 21
7.747683166778466
 31
0.0
  0
LINE
  5
357
330
1E
100
AcDbEntity
  8
IMAGE
100
AcDbLine
 10
2.509862500539999
 20
7.735476195350461
 30
0.0
 11
2.25564876572398
 21
7.735476195350461
 31
0.0
  0
LINE
  5
358
330
1E
100
AcDbEntity
  8
IMAGE
100
AcDbLine
 10
2.117650831979301
 20
7.735476195350461
 30
0.0
 11
1.910002680397978
 21
7.810229529919585
 31
0.0
  0
LINE
  5
359
330
1E
100
AcDbEntity
  8
IMAGE
100
AcDbLine
 10
2.919055525007984
 20
7.761706295227755
 30
0.0
 11
2.789258201503144
 21
8.113457041927041
 31
0.0
  0
LINE
  5
35A
330
1E
100
AcDbEntity
  8
IMAGE
100
AcDbLine
 10
2.944480199496179
 20
7.69280542736525
 30
0.0
 11
2.943936902951238
 21
7.694277761002606
 31
0.0
  0
LINE
  5
35B
330
1E
100
AcDbEntity
  8
IMAGE
100
AcDbLine
 10
2.39320538880972
 20
7.628899218066708
 30
0.0
 11
1.876306459964409
 21
7.628899218066708
 31
0.0
  0
LINE
  5
35C
330
1E
100
AcDbEntity
  8
IMAGE
100
AcDbLine
 10
2.270550031247808
 20
7.736158480656216
 30
0.0
 11
2.409774592602628
 21
8.113457041927041
 31
0.0
  0
LINE
  5
35D
330
1E
100
AcDbEntity
  8
IMAGE
100
AcDbLine
 10
2.85027485408127
 20
7.746111382435545
 30
0.0
 11
2.88340901979274
 21
7.610494636488219
 31
0.0
  0
LINE
  5
35E
330
1E
100
AcDbEntity
  8
IMAGE
100
AcDbLine
 10
2.872914134536994
 20
7.74798388991687
 30
0.0
 11
2.914527747721834
 21
7.617110058175779
 31
0.0
  0
LINE
  5
35F
330
1E
100
AcDbEntity
  8
IMAGE
100
AcDbLine
 10
2.919055525007984
 20
7.761706295227755
 30
0.0
 11
2.966302276598125
 21
7.633667598419819
 31
0.0
  0
ARC
  5
360
330
1E
100
AcDbEntity
  8
IMAGE
100
AcDbCircle
 10
1.877979272031886
 20
7.722178033024761
 30
0.0
 40
0.0932788149579746
100
AcDbArc
 50
66.76295129441235
 51
269.9999999999997
  0
LINE
  5
361
330
1E
100
AcDbEntity
  8
IMAGE
100
AcDbLine
 10
2.080389532194937
 20
7.628899218066708
 30
0.0
 11
2.080389532194937
 21
7.506560205857887
 31
0.0
  0
LINE
  5
362
330
1E
100
AcDbEntity
  8
IMAGE
100
AcDbLine
 10
2.058563073613498
 20
7.506560205857887
 30
0.0
 11
2.192467940714559
 21
7.506560205857887
 31
0.0
  0
LINE
  5
363
330
1E
100
AcDbEntity
  8
IMAGE
100
AcDbLine
 10
2.192467940714559
 20
7.506560205857887
 30
0.0
 11
2.192467940714559
 21
7.628899218066708
 31
0.0
  0
LINE
  5
364
330
1E
100
AcDbEntity
  8
IMAGE
100
AcDbLine
 10
2.058563073613498
 20
7.291747789455548
 30
0.0
 11
2.192467940714559
 21
7.291747789455548
 31
0.0
  0
LINE
  5
365
330
1E
100
AcDbEntity
  8
IMAGE
100
AcDbLine
 10
2.110643585619488
 20
7.255885780009933
 30
0.0
 11
2.192467940714559
 21
7.255885780009933
 31
0.0
  0
LINE
  5
366
330
1E
100
AcDbEntity
  8
IMAGE
100
AcDbLine
 10
2.192467940714559
 20
7.097602015432176
 30
0.0
 11
2.080389532194937
 21
7.097602015432176
 31
0.0
  0
LINE
  5
367
330
1E
100
AcDbEntity
  8
IMAGE
100
AcDbLine
 10
2.080389532194937
 20
7.097602015432176
 30
0.0
 11
2.080389532194937
 21
7.074182646487578
 31
0.0
  0
LINE
  5
368
330
1E
100
AcDbEntity
  8
IMAGE
100
AcDbLine
 10
2.080389532194937
 20
7.074182646487578
 30
0.0
 11
2.192467940714559
 21
7.074182646487578
 31
0.0
  0
LINE
  5
369
330
1E
100
AcDbEntity
  8
IMAGE
100
AcDbLine
 10
2.192467940714559
 20
7.074182646487578
 30
0.0
 11
2.192467940714559
 21
7.097602015432176
 31
0.0
  0
LINE
  5
36A
330
1E
100
AcDbEntity
  8
IMAGE
100
AcDbLine
 10
2.298104363050064
 20
7.485372933537803
 30
0.0
 11
2.525295263710831
 21
7.485372933537803
 31
0.0
  0
LINE
  5
36B
330
1E
100
AcDbEntity
  8
IMAGE
100
AcDbLine
 10
2.192467940714559
 20
7.255885780009933
 30
0.0
 11
2.598570306982869
 21
7.255885780009933
 31
0.0
  0
LINE
  5
36C
330
1E
100
AcDbEntity
  8
IMAGE
100
AcDbLine
 10
2.598570306982869
 20
7.255885780009933
 30
0.0
 11
2.598570306982869
 21
7.23824145628375
 31
0.0
  0
LINE
  5
36D
330
1E
100
AcDbEntity
  8
IMAGE
100
AcDbLine
 10
2.54710409901636
 20
7.772717793826696
 30
0.0
 11
2.54710409901636
 21
7.804446294083298
 31
0.0
  0
LINE
  5
36E
330
1E
100
AcDbEntity
  8
IMAGE
100
AcDbLine
 10
2.54710409901636
 20
8.058811919403883
 30
0.0
 11
2.600634085174817
 21
8.058811919403883
 31
0.0
  0
LINE
  5
36F
330
1E
100
AcDbEntity
  8
IMAGE
100
AcDbLine
 10
2.58056034036544
 20
8.137434086574611
 30
0.0
 11
2.58056034036544
 21
8.177581576193684
 31
0.0
  0
LINE
  5
370
330
1E
100
AcDbEntity
  8
IMAGE
100
AcDbLine
 10
2.58056034036544
 20
8.177581576193684
 30
0.0
 11
2.60230689724217
 21
8.177581576193684
 31
0.0
  0
ARC
  5
371
330
1E
100
AcDbEntity
  8
IMAGE
100
AcDbCircle
 10
2.509862500539998
 20
7.772717793826696
 30
0.0
 40
0.0372415984760625
100
AcDbArc
 50
270.0
 51
335.6585948707891
  0
ARC
  5
372
330
1E
100
AcDbEntity
  8
IMAGE
100
AcDbCircle
 10
2.691405669809642
 20
7.772717793826696
 30
0.0
 40
0.0372415984760625
100
AcDbArc
 50
180.0
 51
270.0
  0
LINE
  5
373
330
1E
100
AcDbEntity
  8
IMAGE
100
AcDbLine
 10
2.654164071333671
 20
7.772717793826696
 30
0.0
 11
2.654164071333671
 21
7.781894309173853
 31
0.0
  0
LINE
  5
374
330
1E
100
AcDbEntity
  8
IMAGE
100
AcDbLine
 10
2.654164071333671
 20
8.058811919403883
 30
0.0
 11
2.600634085174817
 21
8.058811919403883
 31
0.0
  0
LINE
  5
375
330
1E
100
AcDbEntity
  8
IMAGE
100
AcDbLine
 10
2.62070782998445
 20
8.137434086574611
 30
0.0
 11
2.62070782998445
 21
8.177581576193684
 31
0.0
  0
LINE
  5
376
330
1E
100
AcDbEntity
  8
IMAGE
100
AcDbLine
 10
2.62070782998445
 20
8.177581576193684
 30
0.0
 11
2.60230689724217
 21
8.177581576193684
 31
0.0
  0
LINE
  5
377
330
1E
100
AcDbEntity
  8
IMAGE
100
AcDbLine
 10
2.443389750833874
 20
7.645627338741244
 30
0.0
 11
2.207743115817649
 21
7.645627338741244
 31
0.0
  0
LINE
  5
378
330
1E
100
AcDbEntity
  8
IMAGE
100
AcDbLine
 10
2.155446208734614
 20
7.717558257642121
 30
0.0
 11
2.110500149408803
 21
7.717558257642121
 31
0.0
  0
LINE
  5
379
330
1E
100
AcDbEntity
  8
IMAGE
100
AcDbLine
 10
2.110500149408803
 20
7.717558257642121
 30
0.0
 11
1.906417077178929
 21
7.794507612745364
 31
0.0
  0
ARC
  5
37A
330
1E
100
AcDbEntity
  8
IMAGE
100
AcDbCircle
 10
1.878789811873514
 20
7.72262862368078
 30
0.0
 40
0.0770055508205576
100
AcDbArc
 50
68.97533616712879
 51
269.396908805618
  0
LINE
  5
37B
330
1E
100
AcDbEntity
  8
IMAGE
100
AcDbLine
 10
2.174067007972536
 20
7.698937458403941
 30
0.0
 11
2.174067007972536
 21
7.66424813797923
 31
0.0
  0
LINE
  5
37C
330
1E
100
AcDbEntity
  8
IMAGE
100
AcDbLine
 10
2.189122316579734
 20
7.66424813797923
 30
0.0
 11
2.189122316579734
 21
7.716855396112615
 31
0.0
  0
ARC
  5
37D
330
1E
100
AcDbEntity
  8
IMAGE
100
AcDbCircle
 10
2.155446208734614
 20
7.698937458403941
 30
0.0
 40
0.0186207992380313
100
AcDbArc
 50
0.0
 51
90.0
  0
LINE
  5
37E
330
1E
100
AcDbEntity
  8
IMAGE
100
AcDbLine
 10
2.155446208734614
 20
7.645627338741244
 30
0.0
 11
1.877979272031886
 21
7.645627338741244
 31
0.0
  0
LINE
  5
37F
330
1E
100
AcDbEntity
  8
IMAGE
100
AcDbLine
 10
2.170501517341414
 20
7.735476195350461
 30
0.0
 11
2.117650831979301
 21
7.735476195350461
 31
0.0
  0
ARC
  5
380
330
1E
100
AcDbEntity
  8
IMAGE
100
AcDbCircle
 10
2.170501517341413
 20
7.716855396112615
 30
0.0
 40
0.0186207992380313
100
AcDbArc
 50
0.0
 51
90.0
  0
ARC
  5
381
330
1E
100
AcDbEntity
  8
IMAGE
100
AcDbCircle
 10
2.155446208734614
 20
7.66424813797923
 30
0.0
 40
0.0186207992380313
100
AcDbArc
 50
270.0
 51
0.0
  0
ARC
  5
382
330
1E
100
AcDbEntity
  8
IMAGE
100
AcDbCircle
 10
2.207743115817649
 20
7.66424813797923
 30
0.0
 40
0.0186207992380313
100
AcDbArc
 50
180.0
 51
269.9999999999999
  0
LINE
  5
383
330
1E
100
AcDbEntity
  8
IMAGE
100
AcDbLine
 10
2.25564876572398
 20
7.735476195350461
 30
0.0
 11
2.172335500744603
 21
7.735476195350461
 31
0.0
  0
LINE
  5
384
330
1E
100
AcDbEntity
  8
IMAGE
100
AcDbLine
 10
2.39320538880972
 20
7.628899218066708
 30
0.0
 11
2.415576381550443
 21
7.628899218066708
 31
0.0
  0
LINE
  5
385
330
1E
100
AcDbEntity
  8
IMAGE
100
AcDbLine
 10
2.443389750833874
 20
7.645627338741244
 30
0.0
 11
2.462772358322972
 21
7.645627338741244
 31
0.0
  0
LINE
  5
386
330
1E
100
AcDbEntity
  8
IMAGE
100
AcDbLine
 10
2.080389532194937
 20
7.291968952591219
 30
0.0
 11
2.080389532194937
 21
7.291747789455548
 31
0.0
  0
LINE
  5
387
330
1E
100
AcDbEntity
  8
IMAGE
100
AcDbLine
 10
2.689010395949982
 20
7.518882373714497
 30
0.0
 11
2.667296430287361
 21
7.518882373714497
 31
0.0
  0
ARC
  5
388
330
1E
100
AcDbEntity
  8
IMAGE
100
AcDbCircle
 10
2.46868986112201
 20
7.55580766592271
 30
0.0
 40
0.2489591201752846
100
AcDbArc
 50
162.927078845958
 51
191.4091240184918
  0
LINE
  5
389
330
1E
100
AcDbEntity
  8
IMAGE
100
AcDbLine
 10
2.303259777404035
 20
7.291747789455548
 30
0.0
 11
2.303259777404035
 21
7.255885780009933
 31
0.0
  0
LINE
  5
38A
330
1E
100
AcDbEntity
  8
IMAGE
100
AcDbLine
 10
2.31611898189338
 20
7.291747789455548
 30
0.0
 11
2.31611898189338
 21
7.255885780009933
 31
0.0
  0
LINE
  5
38B
330
1E
100
AcDbEntity
  8
IMAGE
100
AcDbLine
 10
2.779994352356033
 20
7.69414107521392
 30
0.0
 11
2.449494217201551
 21
7.782610059295699
 31
0.0
  0
LINE
  5
38C
330
1E
100
AcDbEntity
  8
IMAGE
100
AcDbLine
 10
2.784209971411976
 20
7.707401737410508
 30
0.0
 11
2.450787338021352
 21
7.796588861568483
 31
0.0
  0
LINE
  5
38D
330
1E
100
AcDbEntity
  8
IMAGE
100
AcDbLine
 10
2.654526078819531
 20
7.767537791023922
 30
0.0
 11
2.774909046016677
 21
7.756459603858758
 31
0.0
  0
LINE
  5
38E
330
1E
100
AcDbEntity
  8
IMAGE
100
AcDbLine
 10
2.774909046016677
 20
7.756459603858758
 30
0.0
 11
2.453925376270035
 21
7.824074219476557
 31
0.0
  0
LINE
  5
38F
330
1E
100
AcDbEntity
  8
IMAGE
100
AcDbLine
 10
2.450787338021352
 20
7.796588861568483
 30
0.0
 11
2.54710409901636
 21
7.789298831493244
 31
0.0
  0
LINE
  5
390
330
1E
100
AcDbEntity
  8
IMAGE
100
AcDbLine
 10
2.774909046016677
 20
7.772056713945199
 30
0.0
 11
2.45256877089596
 21
7.838158751930693
 31
0.0
  0
LINE
  5
391
330
1E
100
AcDbEntity
  8
IMAGE
100
AcDbLine
 10
2.45256877089596
 20
7.838158751930693
 30
0.0
 11
2.54710409901636
 21
7.841870300609855
 31
0.0
  0
LINE
  5
392
330
1E
100
AcDbEntity
  8
IMAGE
100
AcDbLine
 10
2.522867664079643
 20
7.777308115915104
 30
0.0
 11
2.54710409901636
 21
7.775584185396628
 31
0.0
  0
LINE
  5
393
330
1E
100
AcDbEntity
  8
IMAGE
100
AcDbLine
 10
2.654164071333671
 20
7.781195668450829
 30
0.0
 11
2.659340718754363
 21
7.780803857981046
 31
0.0
  0
LINE
  5
394
330
1E
100
AcDbEntity
  8
IMAGE
100
AcDbLine
 10
2.654164071333671
 20
7.84607357896874
 30
0.0
 11
2.777153404142506
 21
7.850902259471597
 31
0.0
  0
LINE
  5
395
330
1E
100
AcDbEntity
  8
IMAGE
100
AcDbLine
 10
2.654164071333671
 20
7.832868629313683
 30
0.0
 11
2.774166326488787
 21
7.838158751930693
 31
0.0
  0
LINE
  5
396
330
1E
100
AcDbEntity
  8
IMAGE
100
AcDbLine
 10
2.769710009321087
 20
7.903518070388376
 30
0.0
 11
2.451826051368328
 21
7.948081242064041
 31
0.0
  0
LINE
  5
397
330
1E
100
AcDbEntity
  8
IMAGE
100
AcDbLine
 10
2.776793144329157
 20
7.850888115321851
 30
0.0
 11
2.45256877089596
 21
7.912430704723329
 31
0.0
  0
LINE
  5
398
330
1E
100
AcDbEntity
  8
IMAGE
100
AcDbLine
 10
2.45256877089596
 20
7.912430704723329
 30
0.0
 11
2.54710409901636
 21
7.914423252623002
 31
0.0
  0
LINE
  5
399
330
1E
100
AcDbEntity
  8
IMAGE
100
AcDbLine
 10
2.769710009321087
 20
7.919115180474822
 30
0.0
 11
2.451083331840446
 21
7.963678352150607
 31
0.0
  0
LINE
  5
39A
330
1E
100
AcDbEntity
  8
IMAGE
100
AcDbLine
 10
2.451083331840446
 20
7.963678352150607
 30
0.0
 11
2.54710409901636
 21
7.968434097694633
 31
0.0
  0
LINE
  5
39B
330
1E
100
AcDbEntity
  8
IMAGE
100
AcDbLine
 10
2.54710409901636
 20
7.818772474965982
 30
0.0
 11
2.54710409901636
 21
7.879641577550376
 31
0.0
  0
LINE
  5
39C
330
1E
100
AcDbEntity
  8
IMAGE
100
AcDbLine
 10
2.54710409901636
 20
7.894605436053108
 30
0.0
 11
2.54710409901636
 21
7.934724506412416
 31
0.0
  0
LINE
  5
39D
330
1E
100
AcDbEntity
  8
IMAGE
100
AcDbLine
 10
2.654164071333671
 20
7.796817780182042
 30
0.0
 11
2.654164071333671
 21
7.860171852210935
 31
0.0
  0
LINE
  5
39E
330
1E
100
AcDbEntity
  8
IMAGE
100
AcDbLine
 10
2.654164071333671
 20
7.916679785997493
 30
0.0
 11
2.672992261935005
 21
7.917076633105974
 31
0.0
  0
LINE
  5
39F
330
1E
100
AcDbEntity
  8
IMAGE
100
AcDbLine
 10
2.654164071333671
 20
7.901348193618634
 30
0.0
 11
2.769710009321087
 21
7.903518070388376
 31
0.0
  0
LINE
  5
3A0
330
1E
100
AcDbEntity
  8
IMAGE
100
AcDbLine
 10
2.509470250209618
 20
7.82649001538931
 30
0.0
 11
2.546877470660006
 21
7.828139057590201
 31
0.0
  0
LINE
  5
3A1
330
1E
100
AcDbEntity
  8
IMAGE
100
AcDbLine
 10
2.717144379495637
 20
7.84871837174418
 30
0.0
 11
2.45256877089596
 21
7.896833594636964
 31
0.0
  0
LINE
  5
3A2
330
1E
100
AcDbEntity
  8
IMAGE
100
AcDbLine
 10
2.523847557025853
 20
7.898900935133875
 30
0.0
 11
2.54710409901636
 21
7.899337677706594
 31
0.0
  0
LINE
  5
3A3
330
1E
100
AcDbEntity
  8
IMAGE
100
AcDbLine
 10
2.53057463539461
 20
7.952890618035102
 30
0.0
 11
2.54710409901636
 21
7.953752343626662
 31
0.0
  0
LINE
  5
3A4
330
1E
100
AcDbEntity
  8
IMAGE
100
AcDbLine
 10
2.654164071333671
 20
7.935275451522009
 30
0.0
 11
2.654164071333671
 21
7.977790023181078
 31
0.0
  0
LINE
  5
3A5
330
1E
100
AcDbEntity
  8
IMAGE
100
AcDbLine
 10
2.54710409901636
 20
7.950309400647757
 30
0.0
 11
2.54710409901636
 21
7.988930816100079
 31
0.0
  0
LINE
  5
3A6
330
1E
100
AcDbEntity
  8
IMAGE
100
AcDbLine
 10
2.434000782697781
 20
8.115193135847743
 30
0.0
 11
2.762282814041968
 21
8.115193135847743
 31
0.0
  0
LINE
  5
3A7
330
1E
100
AcDbEntity
  8
IMAGE
100
AcDbLine
 10
2.654164071333671
 20
7.973736596323618
 30
0.0
 11
2.675386187107504
 21
7.974787691680154
 31
0.0
  0
LINE
  5
3A8
330
1E
100
AcDbEntity
  8
IMAGE
100
AcDbLine
 10
2.654164071333671
 20
7.959333669197629
 30
0.0
 11
2.765996411681786
 21
7.965163791206379
 31
0.0
  0
LINE
  5
3A9
330
1E
100
AcDbEntity
  8
IMAGE
100
AcDbLine
 10
2.765996411681786
 20
7.965163791206379
 30
0.0
 11
2.45256877089596
 21
7.999328889491055
 31
0.0
  0
LINE
  5
3AA
330
1E
100
AcDbEntity
  8
IMAGE
100
AcDbLine
 10
2.764510972625888
 20
8.017154158161346
 30
0.0
 11
2.451826051368328
 21
8.038693024471319
 31
0.0
  0
LINE
  5
3AB
330
1E
100
AcDbEntity
  8
IMAGE
100
AcDbLine
 10
2.763025533569858
 20
8.0528046955018
 30
0.0
 11
2.454668136735254
 21
8.090045927003632
 31
0.0
  0
LINE
  5
3AC
330
1E
100
AcDbEntity
  8
IMAGE
100
AcDbLine
 10
2.765365148810189
 20
7.979347094903189
 30
0.0
 11
2.451826051368328
 21
8.01492599957762
 31
0.0
  0
LINE
  5
3AD
330
1E
100
AcDbEntity
  8
IMAGE
100
AcDbLine
 10
2.451826051368328
 20
8.01492599957762
 30
0.0
 11
2.546882377844647
 21
8.0203320465809
 31
0.0
  0
LINE
  5
3AE
330
1E
100
AcDbEntity
  8
IMAGE
100
AcDbLine
 10
2.765253692153513
 20
8.032751268247785
 30
0.0
 11
2.451826051368328
 21
8.0528046955018
 31
0.0
  0
LINE
  5
3AF
330
1E
100
AcDbEntity
  8
IMAGE
100
AcDbLine
 10
2.451826051368328
 20
8.0528046955018
 30
0.0
 11
2.54710409901636
 21
8.057568597884301
 31
0.0
  0
LINE
  5
3B0
330
1E
100
AcDbEntity
  8
IMAGE
100
AcDbLine
 10
2.762815697034767
 20
8.068512782993698
 30
0.0
 11
2.458219244171179
 21
8.103999748375997
 31
0.0
  0
LINE
  5
3B1
330
1E
100
AcDbEntity
  8
IMAGE
100
AcDbLine
 10
2.654164071333671
 20
8.010848620944514
 30
0.0
 11
2.764510972625888
 21
8.017154158161346
 31
0.0
  0
LINE
  5
3B2
330
1E
100
AcDbEntity
  8
IMAGE
100
AcDbLine
 10
2.654164071333671
 20
8.04785644721853
 30
0.0
 11
2.763025533569858
 21
8.0528046955018
 31
0.0
  0
LINE
  5
3B3
330
1E
100
AcDbEntity
  8
IMAGE
100
AcDbLine
 10
2.53166126894629
 20
8.005866684107683
 30
0.0
 11
2.54710409901636
 21
8.006749131540203
 31
0.0
  0
LINE
  5
3B4
330
1E
100
AcDbEntity
  8
IMAGE
100
AcDbLine
 10
2.54710409901636
 20
8.014183280049543
 30
0.0
 11
2.54710409901636
 21
8.032165585148639
 31
0.0
  0
LINE
  5
3B5
330
1E
100
AcDbEntity
  8
IMAGE
100
AcDbLine
 10
2.54710409901636
 20
8.004114306227288
 30
0.0
 11
2.54710409901636
 21
8.014183280049543
 31
0.0
  0
LINE
  5
3B6
330
1E
100
AcDbEntity
  8
IMAGE
100
AcDbLine
 10
2.654164071333671
 20
7.99196565688643
 30
0.0
 11
2.654164071333671
 21
8.024755251124441
 31
0.0
  0
LINE
  5
3B7
330
1E
100
AcDbEntity
  8
IMAGE
100
AcDbLine
 10
2.654164071333671
 20
8.039858898015914
 30
0.0
 11
2.654164071333671
 21
8.058811919403883
 31
0.0
  0
LINE
  5
3B8
330
1E
100
AcDbEntity
  8
IMAGE
100
AcDbLine
 10
2.54710409901636
 20
8.046862939278252
 30
0.0
 11
2.54710409901636
 21
8.058811919403883
 31
0.0
  0
LINE
  5
3B9
330
1E
100
AcDbEntity
  8
IMAGE
100
AcDbLine
 10
2.546151431414839
 20
8.093755221706654
 30
0.0
 11
2.546151431414839
 21
8.115193135847743
 31
0.0
  0
LINE
  5
3BA
330
1E
100
AcDbEntity
  8
IMAGE
100
AcDbLine
 10
2.654588482492477
 20
8.081121778862822
 30
0.0
 11
2.654588482492477
 21
8.11445041631979
 31
0.0
  0
ARC
  5
3BB
330
1E
100
AcDbEntity
  8
IMAGE
100
AcDbCircle
 10
2.758580453921988
 20
8.060600760883371
 30
0.0
 40
0.00897426144654
100
AcDbArc
 50
299.6904749881143
 51
61.84020771027801
  0
ARC
  5
3BC
330
1E
100
AcDbEntity
  8
IMAGE
100
AcDbCircle
 10
2.762485048515888
 20
8.025066869579404
 30
0.0
 40
0.0081679477524441
100
AcDbArc
 50
284.3611712576872
 51
70.18620675450574
  0
ARC
  5
3BD
330
1E
100
AcDbEntity
  8
IMAGE
100
AcDbCircle
 10
2.761902395690647
 20
7.972087277144133
 30
0.0
 40
0.0080433590288374
100
AcDbArc
 50
300.5967983237887
 51
64.50001470819097
  0
ARC
  5
3BE
330
1E
100
AcDbEntity
  8
IMAGE
100
AcDbCircle
 10
2.459782837963373
 20
8.096173057502094
 30
0.0
 40
0.0079813478634904
100
AcDbArc
 50
101.2976632281976
 51
230.1461164898265
  0
LINE
  5
3BF
330
1E
100
AcDbEntity
  8
IMAGE
100
AcDbLine
 10
2.748913862539121
 20
8.107023221040545
 30
0.0
 11
2.700637093223972
 21
8.107023221040545
 31
0.0
  0
LINE
  5
3C0
330
1E
100
AcDbEntity
  8
IMAGE
100
AcDbLine
 10
2.700637093223972
 20
8.107023221040545
 30
0.0
 11
2.700637093223972
 21
8.089940671898215
 31
0.0
  0
LINE
  5
3C1
330
1E
100
AcDbEntity
  8
IMAGE
100
AcDbLine
 10
2.700637093223972
 20
8.089940671898215
 30
0.0
 11
2.748913862539121
 21
8.089940671898215
 31
0.0
  0
LINE
  5
3C2
330
1E
100
AcDbEntity
  8
IMAGE
100
AcDbLine
 10
2.459995966175455
 20
7.710410993127263
 30
0.0
 11
2.520898967465444
 21
7.710410993127263
 31
0.0
  0
LINE
  5
3C3
330
1E
100
AcDbEntity
  8
IMAGE
100
AcDbLine
 10
2.520898967465444
 20
7.710410993127263
 30
0.0
 11
2.520898967465444
 21
7.692585724456716
 31
0.0
  0
LINE
  5
3C4
330
1E
100
AcDbEntity
  8
IMAGE
100
AcDbLine
 10
2.520898967465444
 20
7.692585724456716
 30
0.0
 11
2.460613185597973
 21
7.692585724456716
 31
0.0
  0
ARC
  5
3C5
330
1E
100
AcDbEntity
  8
IMAGE
100
AcDbCircle
 10
2.74891386253912
 20
8.098481946469341
 30
0.0
 40
0.0085412745711705
100
AcDbArc
 50
270.0
 51
90.00000000000003
  0
ARC
  5
3C6
330
1E
100
AcDbEntity
  8
IMAGE
100
AcDbCircle
 10
2.770040208924905
 20
7.911350033020525
 30
0.0
 40
0.0078389202349685
100
AcDbArc
 50
267.5858099772507
 51
97.86681201058431
  0
ARC
  5
3C7
330
1E
100
AcDbEntity
  8
IMAGE
100
AcDbCircle
 10
2.775402723477434
 20
7.844590779830559
 30
0.0
 40
0.0065497832344463
100
AcDbArc
 50
259.1190383125036
 51
74.4970305123563
  0
ARC
  5
3C8
330
1E
100
AcDbEntity
  8
IMAGE
100
AcDbCircle
 10
2.774891764804952
 20
7.76424129801828
 30
0.0
 40
0.0078154350325109
100
AcDbArc
 50
264.6740685022613
 51
89.87330950989768
  0
ARC
  5
3C9
330
1E
100
AcDbEntity
  8
IMAGE
100
AcDbCircle
 10
2.454584871456669
 20
7.831245340826059
 30
0.0
 40
0.0072013828234038
100
AcDbArc
 50
106.2578292083121
 51
264.7455233655514
  0
ARC
  5
3CA
330
1E
100
AcDbEntity
  8
IMAGE
100
AcDbCircle
 10
2.45256877089596
 20
7.904649833478526
 30
0.0
 40
0.0078162388415278
100
AcDbArc
 50
84.54737801215902
 51
269.9999999999679
  0
ARC
  5
3CB
330
1E
100
AcDbEntity
  8
IMAGE
100
AcDbCircle
 10
2.451826051368328
 20
7.955879797107222
 30
0.0
 40
0.007798555043241
100
AcDbArc
 50
90.0
 51
269.9999999999999
  0
ARC
  5
3CC
330
1E
100
AcDbEntity
  8
IMAGE
100
AcDbCircle
 10
2.452988097824409
 20
8.007165096281511
 30
0.0
 40
0.0078474181700849
100
AcDbArc
 50
98.51568181692371
 51
266.9369401709079
  0
ARC
  5
3CD
330
1E
100
AcDbEntity
  8
IMAGE
100
AcDbCircle
 10
2.451826051368328
 20
8.045748859986424
 30
0.0
 40
0.0070558355153137
100
AcDbArc
 50
90.0
 51
269.9999999999999
  0
ARC
  5
3CE
330
1E
100
AcDbEntity
  8
IMAGE
100
AcDbCircle
 10
2.74891386253912
 20
8.098853306233294
 30
0.0
 40
0.0111407929189161
100
AcDbArc
 50
233.1301029376212
 51
132.8334278476237
  0
ARC
  5
3CF
330
1E
100
AcDbEntity
  8
IMAGE
100
AcDbCircle
 10
2.458510527119425
 20
8.099596025761302
 30
0.0
 40
0.0123613165283808
100
AcDbArc
 50
13.91116701526151
 51
299.573172725483
  0
ARC
  5
3D0
330
1E
100
AcDbEntity
  8
IMAGE
100
AcDbCircle
 10
2.777879924128207
 20
7.702241078319936
 30
0.0
 40
0.0131400498101305
100
AcDbArc
 50
198.6466700354495
 51
134.7670628459139
  0
ARC
  5
3D1
330
1E
100
AcDbEntity
  8
IMAGE
100
AcDbCircle
 10
2.46073868570308
 20
7.702241078319936
 30
0.0
 40
0.0119066998102537
100
AcDbArc
 50
43.3269930624449
 51
304.6951535312333
  0
LINE
  5
3D2
330
1E
100
AcDbEntity
  8
IMAGE
100
AcDbLine
 10
2.600106035405808
 20
6.697102689472259
 30
0.0
 11
2.600106035405808
 21
6.584625401484633
 31
0.0
  0
TEXT
  5
3D3
330
1E
100
AcDbEntity
  8
IMAGE
100
AcDbText
 10
1.869776206737123
 20
7.664992963498379
 30
0.0
 40
0.0372053973385404
  1
RAIN BIRD
 41
1.25
  7
SIMPLEX
100
AcDbText
  0
TEXT
  5
3D4
330
1E
100
AcDbEntity
  8
IMAGE
100
AcDbText
 10
1.849507096230107
 20
7.732798894725704
 30
0.0
 40
0.0223449590856375
  1
R
 41
1.25
  7
SIMPLEX
100
AcDbText
  0
CIRCLE
  5
3D5
330
1E
100
AcDbEntity
  8
IMAGE
100
AcDbCircle
 10
1.858469599194003
 20
7.741761397689824
 30
0.0
 40
0.02688750889276
  0
LINE
  5
3D6
330
1E
100
AcDbEntity
  8
IMAGE
100
AcDbLine
 10
2.459436982679688
 20
6.716518684021639
 30
0.0
 11
2.740789903800641
 21
6.716518684021639
 31
0.0
  0
LINE
  5
3D7
330
1E
100
AcDbEntity
  8
IMAGE
100
AcDbLine
 10
2.740789903800641
 20
6.716518684021639
 30
0.0
 11
2.93456480607294
 21
6.670752326089036
 31
0.0
  0
LINE
  5
3D8
330
1E
100
AcDbEntity
  8
IMAGE
100
AcDbLine
 10
2.458051007698649
 20
6.735922333754105
 30
0.0
 11
2.74217587878168
 21
6.735922333754105
 31
0.0
  0
LINE
  5
3D9
330
1E
100
AcDbEntity
  8
IMAGE
100
AcDbLine
 10
2.456665032718126
 20
6.759483908429306
 30
0.0
 11
2.74217587878168
 21
6.759483908429306
 31
0.0
  0
LINE
  5
3DA
330
1E
100
AcDbEntity
  8
IMAGE
100
AcDbLine
 10
2.74217587878168
 20
6.759483908429306
 30
0.0
 11
2.964556253548883
 21
6.779219614568615
 31
0.0
  0
LINE
  5
3DB
330
1E
100
AcDbEntity
  8
IMAGE
100
AcDbLine
 10
2.456665032718126
 20
6.80383510781783
 30
0.0
 11
2.739403928819477
 21
6.80383510781783
 31
0.0
  0
LINE
  5
3DC
330
1E
100
AcDbEntity
  8
IMAGE
100
AcDbLine
 10
2.739403928819477
 20
6.80383510781783
 30
0.0
 11
2.869697146723073
 21
6.770801104352047
 31
0.0
  0
LINE
  5
3DD
330
1E
100
AcDbEntity
  8
IMAGE
100
AcDbLine
 10
2.936200936900358
 20
6.753940008505672
 30
0.0
 11
2.943445682796798
 21
6.761184754402307
 31
0.0
  0
LINE
  5
3DE
330
1E
100
AcDbEntity
  8
IMAGE
100
AcDbLine
 10
2.914327317034238
 20
6.77476192116028
 30
0.0
 11
2.740789903800641
 21
6.826010707511787
 31
0.0
  0
LINE
  5
3DF
330
1E
100
AcDbEntity
  8
IMAGE
100
AcDbLine
 10
2.740789903800641
 20
6.826010707511787
 30
0.0
 11
2.458051007698649
 21
6.826010707511787
 31
0.0
  0
LINE
  5
3E0
330
1E
100
AcDbEntity
  8
IMAGE
100
AcDbLine
 10
2.458051007698649
 20
6.846800332225363
 30
0.0
 11
2.740789903800641
 21
6.846800332225363
 31
0.0
  0
LINE
  5
3E1
330
1E
100
AcDbEntity
  8
IMAGE
100
AcDbLine
 10
2.740789903800641
 20
6.846800332225363
 30
0.0
 11
2.951446661689972
 21
6.884221656709453
 31
0.0
  0
LINE
  5
3E2
330
1E
100
AcDbEntity
  8
IMAGE
100
AcDbLine
 10
2.951446661689972
 20
6.884221656709453
 30
0.0
 11
2.958376536594121
 21
6.86897593191958
 31
0.0
  0
LINE
  5
3E3
330
1E
100
AcDbEntity
  8
IMAGE
100
AcDbLine
 10
2.958376536594121
 20
6.86897593191958
 30
0.0
 11
2.740789903800641
 21
6.82739668249296
 31
0.0
  0
ARC
  5
3E4
330
1E
100
AcDbEntity
  8
IMAGE
100
AcDbCircle
 10
2.458863770804693
 20
6.8148287982525
 30
0.0
 40
0.0112114084107364
100
AcDbArc
 50
94.15726372402088
 51
258.6900675259793
  0
ARC
  5
3E5
330
1E
100
AcDbEntity
  8
IMAGE
100
AcDbCircle
 10
2.457339034249576
 20
6.836405519868803
 30
0.0
 40
0.0104191664792734
100
AcDbArc
 50
86.08175113591975
 51
273.91824886406
  0
ARC
  5
3E6
330
1E
100
AcDbEntity
  8
IMAGE
100
AcDbCircle
 10
2.456642364902665
 20
6.747661023720716
 30
0.0
 40
0.011822906438776
100
AcDbArc
 50
89.89014791423272
 51
276.8427734126303
  0
LINE
  5
3E7
330
1E
100
AcDbEntity
  8
IMAGE
100
AcDbLine
 10
2.74217587878168
 20
6.735922333754105
 30
0.0
 11
2.94420255763989
 21
6.682374320625998
 31
0.0
  0
LINE
  5
3E8
330
1E
100
AcDbEntity
  8
IMAGE
100
AcDbLine
 10
2.730240300882417
 20
6.846800332225363
 30
0.0
 11
2.730240300882417
 21
6.891245434860278
 31
0.0
  0
LINE
  5
3E9
330
1E
100
AcDbEntity
  8
IMAGE
100
AcDbLine
 10
2.730240300882417
 20
6.759483908429306
 30
0.0
 11
2.730240300882417
 21
6.80383510781783
 31
0.0
  0
LINE
  5
3EA
330
1E
100
AcDbEntity
  8
IMAGE
100
AcDbLine
 10
2.468871001343015
 20
6.846800332225363
 30
0.0
 11
2.468871001343015
 21
6.891245434860278
 31
0.0
  0
LINE
  5
3EB
330
1E
100
AcDbEntity
  8
IMAGE
100
AcDbLine
 10
2.468871001343015
 20
6.759730802757722
 30
0.0
 11
2.468871001343015
 21
6.80383510781783
 31
0.0
  0
LINE
  5
3EC
330
1E
100
AcDbEntity
  8
IMAGE
100
AcDbLine
 10
2.74217587878168
 20
6.735922333754105
 30
0.0
 11
2.964556253549265
 21
6.763834452011471
 31
0.0
  0
ARC
  5
3ED
330
1E
100
AcDbEntity
  8
IMAGE
100
AcDbCircle
 10
2.734799828599292
 20
6.83668959440231
 30
0.0
 40
0.011751936871934
100
AcDbArc
 50
297.9465009480676
 51
59.35551081782779
  0
ARC
  5
3EE
330
1E
100
AcDbEntity
  8
IMAGE
100
AcDbCircle
 10
2.736420755363777
 20
6.747868698147275
 30
0.0
 40
0.0129628143336963
100
AcDbArc
 50
292.8407591538867
 51
63.64242935810609
  0
LINE
  5
3EF
330
1E
100
AcDbEntity
  8
IMAGE
100
AcDbLine
 10
2.94420255763989
 20
6.682374320625998
 30
0.0
 11
2.93456480607294
 21
6.670752326089036
 31
0.0
  0
ARC
  5
3F0
330
1E
100
AcDbEntity
  8
IMAGE
100
AcDbCircle
 10
2.457054345327417
 20
6.726099819611883
 30
0.0
 40
0.0098729488985983
100
AcDbArc
 50
84.20619063184155
 51
283.9650429278988
  0
LINE
  5
3F1
330
1E
100
AcDbEntity
  8
IMAGE
100
AcDbLine
 10
2.495024689258323
 20
7.255885780009933
 30
0.0
 11
2.495024689258323
 21
7.308575395948256
 31
0.0
  0
ARC
  5
3F2
330
1E
100
AcDbEntity
  8
IMAGE
100
AcDbCircle
 10
2.460613011604035
 20
7.70149835879199
 30
0.0
 40
0.0089126343351278
100
AcDbArc
 50
89.99888146252761
 51
270.0011185374723
  0
ARC
  5
3F3
330
1E
100
AcDbEntity
  8
IMAGE
100
AcDbCircle
 10
2.45144574277624
 20
7.789478743536086
 30
0.0
 40
0.0071405374628789
100
AcDbArc
 50
95.29056452857238
 51
255.8893738514848
  0
ARC
  5
3F4
330
1E
100
AcDbEntity
  8
IMAGE
100
AcDbCircle
 10
2.509862500539998
 20
7.772717793826696
 30
0.0
 40
0.0372415984760625
100
AcDbArc
 50
357.1064511458359
 51
0.0
  0
ARC
  5
3F5
330
1E
100
AcDbEntity
  8
IMAGE
100
AcDbCircle
 10
2.782534472218694
 20
7.700633973078552
 30
0.0
 40
0.0069720823000433
100
AcDbArc
 50
248.6338110398958
 51
76.0948399531927
  0
LINE
  5
3F6
330
1E
100
AcDbEntity
  8
IMAGE
100
AcDbLine
 10
2.654164071333671
 20
7.874164930103397
 30
0.0
 11
2.654164071333671
 21
7.919716099078263
 31
0.0
  0
LINE
  5
3F7
330
1E
100
AcDbEntity
  8
IMAGE
100
AcDbLine
 10
2.769428944954415
 20
8.020765977824748
 30
0.0
 11
2.85027485408127
 21
7.746111382435545
 31
0.0
  0
LINE
  5
3F8
330
1E
100
AcDbEntity
  8
IMAGE
100
AcDbLine
 10
2.964556253549265
 20
6.779219614568615
 30
0.0
 11
2.964556253549265
 21
6.763834452011471
 31
0.0
  0
LINE
  5
3F9
330
1E
100
AcDbEntity
  8
IMAGE
100
AcDbLine
 10
2.919487040884784
 20
6.758177580558756
 30
0.0
 11
2.936200936900358
 21
6.753940008505672
 31
0.0
  0
LINE
  5
3FA
330
1E
100
AcDbEntity
  8
IMAGE
100
AcDbLine
 10
2.415576381550443
 20
7.628899218066708
 30
0.0
 11
2.415576381550443
 21
7.516675392453972
 31
0.0
  0
LINE
  5
3FB
330
1E
100
AcDbEntity
  8
IMAGE
100
AcDbLine
 10
2.421777281106867
 20
7.510474492897548
 30
0.0
 11
2.437602385606288
 21
7.510474492897548
 31
0.0
  0
LINE
  5
3FC
330
1E
100
AcDbEntity
  8
IMAGE
100
AcDbLine
 10
2.450188680748261
 20
7.607658416923182
 30
0.0
 11
2.450188680748261
 21
7.52306078803952
 31
0.0
  0
LINE
  5
3FD
330
1E
100
AcDbEntity
  8
IMAGE
100
AcDbLine
 10
2.460677251738166
 20
7.607658416923182
 30
0.0
 11
2.460677251738166
 21
7.52306078803952
 31
0.0
  0
ARC
  5
3FE
330
1E
100
AcDbEntity
  8
IMAGE
100
AcDbCircle
 10
2.437602385606288
 20
7.52306078803952
 30
0.0
 40
0.012586295141973
100
AcDbArc
 50
270.0
 51
0.0
  0
ARC
  5
3FF
330
1E
100
AcDbEntity
  8
IMAGE
100
AcDbCircle
 10
2.47326354688014
 20
7.52306078803952
 30
0.0
 40
0.012586295141973
100
AcDbArc
 50
180.0
 51
270.0
  0
LINE
  5
400
330
1E
100
AcDbEntity
  8
IMAGE
100
AcDbLine
 10
2.192467940714559
 20
7.291747789455548
 30
0.0
 11
2.449139824119649
 21
7.291747789455548
 31
0.0
  0
LINE
  5
401
330
1E
100
AcDbEntity
  8
IMAGE
100
AcDbLine
 10
2.449139824119649
 20
7.291747789455548
 30
0.0
 11
2.663230572191721
 21
7.37026245548755
 31
0.0
  0
LINE
  5
402
330
1E
100
AcDbEntity
  8
IMAGE
100
AcDbLine
 10
2.667296430287361
 20
7.376084203787639
 30
0.0
 11
2.667296430287361
 21
7.606705544995623
 31
0.0
  0
LINE
  5
403
330
1E
100
AcDbEntity
  8
IMAGE
100
AcDbLine
 10
2.661095530730938
 20
7.612906444552045
 30
0.0
 11
2.523175845037609
 21
7.612906444552045
 31
0.0
  0
LINE
  5
404
330
1E
100
AcDbEntity
  8
IMAGE
100
AcDbLine
 10
2.512578738841426
 20
7.511215337425888
 30
0.0
 11
2.512578738841426
 21
7.612906444552045
 31
0.0
  0
LINE
  5
405
330
1E
100
AcDbEntity
  8
IMAGE
100
AcDbLine
 10
2.512578738841426
 20
7.612906444552045
 30
0.0
 11
2.505003407399352
 21
7.612906444552045
 31
0.0
  0
LINE
  5
406
330
1E
100
AcDbEntity
  8
IMAGE
100
AcDbLine
 10
2.498802507842928
 20
7.606705544995623
 30
0.0
 11
2.498802507842928
 21
7.51741623698231
 31
0.0
  0
LINE
  5
407
330
1E
100
AcDbEntity
  8
IMAGE
100
AcDbLine
 10
2.523175845037609
 20
7.612906444552045
 30
0.0
 11
2.512578738841426
 21
7.612906444552045
 31
0.0
  0
ARC
  5
408
330
1E
100
AcDbEntity
  8
IMAGE
100
AcDbCircle
 10
2.52529526371083
 20
7.498294135481845
 30
0.0
 40
0.0129212019440412
100
AcDbArc
 50
269.9999999999993
 51
90.00000000000062
  0
LINE
  5
409
330
1E
100
AcDbEntity
  8
IMAGE
100
AcDbLine
 10
2.538216465654872
 20
7.498294135481845
 30
0.0
 11
2.538216465654872
 21
7.612906444552045
 31
0.0
  0
LINE
  5
40A
330
1E
100
AcDbEntity
  8
IMAGE
100
AcDbLine
 10
2.437602385606288
 20
7.510474492897548
 30
0.0
 11
2.498802507842928
 21
7.510474492897548
 31
0.0
  0
ARC
  5
40B
330
1E
100
AcDbEntity
  8
IMAGE
100
AcDbCircle
 10
2.421777281106868
 20
7.516675392453972
 30
0.0
 40
0.0062008995564234
100
AcDbArc
 50
180.0
 51
270.0000000000007
  0
LINE
  5
40C
330
1E
100
AcDbEntity
  8
IMAGE
100
AcDbLine
 10
2.525295263710831
 20
7.511215337425888
 30
0.0
 11
2.505003407399352
 21
7.511215337425888
 31
0.0
  0
ARC
  5
40D
330
1E
100
AcDbEntity
  8
IMAGE
100
AcDbCircle
 10
2.661095530730937
 20
7.606705544995623
 30
0.0
 40
0.0062008995564234
100
AcDbArc
 50
0.0
 51
90.0
  0
ARC
  5
40E
330
1E
100
AcDbEntity
  8
IMAGE
100
AcDbCircle
 10
2.505003407399351
 20
7.606705544995623
 30
0.0
 40
0.0062008995564234
100
AcDbArc
 50
90.0
 51
180.0
  0
ARC
  5
40F
330
1E
100
AcDbEntity
  8
IMAGE
100
AcDbCircle
 10
2.505003407399351
 20
7.51741623698231
 30
0.0
 40
0.0062008995564234
100
AcDbArc
 50
180.0
 51
269.9999999999993
  0
LINE
  5
410
330
1E
100
AcDbEntity
  8
IMAGE
100
AcDbLine
 10
2.315981379301816
 20
7.628899218066678
 30
0.0
 11
2.315981379301816
 21
7.600195054558165
 31
0.0
  0
LINE
  5
411
330
1E
100
AcDbEntity
  8
IMAGE
100
AcDbLine
 10
2.315981379301816
 20
7.600195054558165
 30
0.0
 11
2.415576381550443
 21
7.544053090635117
 31
0.0
  0
LWPOLYLINE
  5
412
330
1E
100
AcDbEntity
  8
IMAGE
100
AcDbPolyline
 90
        2
 70
     0
 43
0.0
 10
2.277323073662691
 20
7.553586633130528
 42
0.1168272813079917
 10
2.386473221936616
 20
7.485372933537803
 42
-1.006134919215998
  0
LWPOLYLINE
  5
416
330
1E
100
AcDbEntity
  8
IMAGE
100
AcDbPolyline
 90
        2
 70
     0
 43
0.0
 10
2.277323073662691
 20
7.553586633130528
 42
0.077538470467283
 10
2.438399027543328
 20
7.485372933537803
  0
LINE
  5
41A
330
1E
100
AcDbEntity
  8
IMAGE
100
AcDbLine
 10
2.192467940714559
 20
7.506560205857887
 30
0.0
 11
2.288173122431843
 21
7.506560205857887
 31
0.0
  0
ARC
  5
41B
330
1E
100
AcDbEntity
  8
IMAGE
100
AcDbCircle
 10
2.298104363050064
 20
7.498294135481845
 30
0.0
 40
0.0129212019440412
100
AcDbArc
 50
140.2283692956695
 51
270.0000000000006
  0
ARC
  5
41C
330
1E
100
AcDbEntity
  8
IMAGE
100
AcDbCircle
 10
2.21839120250653
 20
7.398180512254317
 30
0.0
 40
0.0251725800524486
100
AcDbArc
 50
90.0
 51
270.0
  0
ARC
  5
41D
330
1E
100
AcDbEntity
  8
IMAGE
100
AcDbCircle
 10
2.454512082768104
 20
7.398180512254317
 30
0.0
 40
0.0251725800524486
100
AcDbArc
 50
270.0
 51
90.0
  0
LINE
  5
41E
330
1E
100
AcDbEntity
  8
IMAGE
100
AcDbLine
 10
2.21839120250653
 20
7.423353092306765
 30
0.0
 11
2.454512082768104
 21
7.423353092306765
 31
0.0
  0
LINE
  5
41F
330
1E
100
AcDbEntity
  8
IMAGE
100
AcDbLine
 10
2.454512082768104
 20
7.373007932201868
 30
0.0
 11
2.21839120250653
 21
7.373007932201868
 31
0.0
  0
CIRCLE
  5
420
330
1E
100
AcDbEntity
  8
IMAGE
100
AcDbCircle
 10
2.130236028452445
 20
7.398180512254317
 30
0.0
 40
0.0220260051402542
  0
LINE
  5
421
330
1E
100
AcDbEntity
  8
IMAGE
100
AcDbLine
 10
2.242424164332676
 20
7.291747789455548
 30
0.0
 11
2.242424164332676
 21
7.255885780009933
 31
0.0
  0
LINE
  5
422
330
1E
100
AcDbEntity
  8
IMAGE
100
AcDbLine
 10
2.275301914088204
 20
7.291747789455548
 30
0.0
 11
2.275301914088204
 21
7.255885780009933
 31
0.0
  0
LINE
  5
423
330
1E
100
AcDbEntity
  8
IMAGE
100
AcDbLine
 10
2.052362174057075
 20
7.482714982575281
 30
0.0
 11
2.052362174057075
 21
7.29794868901197
 31
0.0
  0
ARC
  5
424
330
1E
100
AcDbEntity
  8
IMAGE
100
AcDbCircle
 10
2.058563073613498
 20
7.500359306301465
 30
0.0
 40
0.0062008995564234
100
AcDbArc
 50
90.0
 51
180.0
  0
ARC
  5
425
330
1E
100
AcDbEntity
  8
IMAGE
100
AcDbCircle
 10
2.058563073613498
 20
7.29794868901197
 30
0.0
 40
0.0062008995564234
100
AcDbArc
 50
180.0
 51
270.0
  0
LINE
  5
426
330
1E
100
AcDbEntity
  8
IMAGE
100
AcDbLine
 10
2.192467940714559
 20
7.23824145628375
 30
0.0
 11
2.598570306982869
 21
7.23824145628375
 31
0.0
  0
LINE
  5
427
330
1E
100
AcDbEntity
  8
IMAGE
100
AcDbLine
 10
2.110643585619488
 20
7.23824145628375
 30
0.0
 11
2.192467940714559
 21
7.23824145628375
 31
0.0
  0
LINE
  5
428
330
1E
100
AcDbEntity
  8
IMAGE
100
AcDbLine
 10
1.999407826524318
 20
7.192316063840813
 30
0.0
 11
1.999407826524318
 21
7.16921516042073
 31
0.0
  0
LINE
  5
429
330
1E
100
AcDbEntity
  8
IMAGE
100
AcDbLine
 10
2.553663352566259
 20
7.16113764634154
 30
0.0
 11
2.553663352566259
 21
7.23824145628375
 31
0.0
  0
LINE
  5
42A
330
1E
100
AcDbEntity
  8
IMAGE
100
AcDbLine
 10
2.585435958496256
 20
7.16113764634154
 30
0.0
 11
2.585435958496256
 21
7.23824145628375
 31
0.0
  0
ARC
  5
42B
330
1E
100
AcDbEntity
  8
IMAGE
100
AcDbCircle
 10
2.569549655531258
 20
7.296720439113975
 30
0.0
 40
0.0158863029649983
100
AcDbArc
 50
0.0
 51
180.0
  0
LINE
  5
42C
330
1E
100
AcDbEntity
  8
IMAGE
100
AcDbLine
 10
2.553663352566259
 20
7.255885780009933
 30
0.0
 11
2.553663352566259
 21
7.296720439113975
 31
0.0
  0
LINE
  5
42D
330
1E
100
AcDbEntity
  8
IMAGE
100
AcDbLine
 10
2.585435958496256
 20
7.255885780009933
 30
0.0
 11
2.585435958496256
 21
7.296720439113975
 31
0.0
  0
LINE
  5
42E
330
1E
100
AcDbEntity
  8
IMAGE
100
AcDbLine
 10
2.242424164332676
 20
7.210263262474345
 30
0.0
 11
2.275301914088204
 21
7.210263262474345
 31
0.0
  0
LINE
  5
42F
330
1E
100
AcDbEntity
  8
IMAGE
100
AcDbLine
 10
2.303259777404035
 20
7.210263262474345
 30
0.0
 11
2.31611898189338
 21
7.210263262474345
 31
0.0
  0
LWPOLYLINE
  5
430
330
1E
100
AcDbEntity
  8
IMAGE
100
AcDbPolyline
 90
        2
 70
     0
 43
0.0
 10
2.257118996339434
 20
7.210263262474345
 10
2.257118996339434
 20
7.187325638424084
  0
LINE
  5
434
330
1E
100
AcDbEntity
  8
IMAGE
100
AcDbLine
 10
2.242424164332676
 20
7.23824145628375
 30
0.0
 11
2.242424164332676
 21
7.210263262474345
 31
0.0
  0
LINE
  5
435
330
1E
100
AcDbEntity
  8
IMAGE
100
AcDbLine
 10
2.275301914088204
 20
7.23824145628375
 30
0.0
 11
2.275301914088204
 21
7.210263262474345
 31
0.0
  0
LINE
  5
436
330
1E
100
AcDbEntity
  8
IMAGE
100
AcDbLine
 10
2.31611898189338
 20
7.23824145628375
 30
0.0
 11
2.31611898189338
 21
7.210263262474345
 31
0.0
  0
LINE
  5
437
330
1E
100
AcDbEntity
  8
IMAGE
100
AcDbLine
 10
2.303259777404035
 20
7.23824145628375
 30
0.0
 11
2.303259777404035
 21
7.210263262474345
 31
0.0
  0
LINE
  5
438
330
1E
100
AcDbEntity
  8
IMAGE
100
AcDbLine
 10
2.052362174057075
 20
7.482714982575281
 30
0.0
 11
2.052362174057075
 21
7.500359306301465
 31
0.0
  0
ARC
  5
439
330
1E
100
AcDbEntity
  8
IMAGE
100
AcDbCircle
 10
2.661095530730937
 20
7.376084203787639
 30
0.0
 40
0.0062008995564234
100
AcDbArc
 50
290.1397771040176
 51
0.0
  0
LINE
  5
43A
330
1E
100
AcDbEntity
  8
IMAGE
100
AcDbLine
 10
2.110643585619488
 20
7.123289767977793
 30
0.0
 11
2.291893139644031
 21
7.123289767977793
 31
0.0
  0
LINE
  5
43B
330
1E
100
AcDbEntity
  8
IMAGE
100
AcDbLine
 10
2.308308201910024
 20
7.106874705711801
 30
0.0
 11
2.308308201910024
 21
7.032738370138753
 31
0.0
  0
LINE
  5
43C
330
1E
100
AcDbEntity
  8
IMAGE
100
AcDbLine
 10
2.305793303923877
 20
7.024006835211277
 30
0.0
 11
2.263285393661574
 21
6.956336380847094
 31
0.0
  0
LINE
  5
43D
330
1E
100
AcDbEntity
  8
IMAGE
100
AcDbLine
 10
2.256131324058511
 20
6.950103141275491
 30
0.0
 11
2.080604496141549
 21
6.870975948312036
 31
0.0
  0
LINE
  5
43E
330
1E
100
AcDbEntity
  8
IMAGE
100
AcDbLine
 10
2.290663878183841
 20
7.096344094916974
 30
0.0
 11
2.290663878183841
 21
7.03782037170829
 31
0.0
  0
LINE
  5
43F
330
1E
100
AcDbEntity
  8
IMAGE
100
AcDbLine
 10
2.288148980197694
 20
7.029088836780815
 30
0.0
 11
2.251177814122197
 21
6.97023260058232
 31
0.0
  0
LINE
  5
440
330
1E
100
AcDbEntity
  8
IMAGE
100
AcDbLine
 10
2.244023744519134
 20
6.963999361010717
 30
0.0
 11
2.073353212141778
 21
6.887061377747057
 31
0.0
  0
LINE
  5
441
330
1E
100
AcDbEntity
  8
IMAGE
100
AcDbLine
 10
2.110643585619488
 20
7.10564544425161
 30
0.0
 11
2.281362528849206
 21
7.10564544425161
 31
0.0
  0
LINE
  5
442
330
1E
100
AcDbEntity
  8
IMAGE
100
AcDbLine
 10
2.025892127847606
 20
7.192316063840813
 30
0.0
 11
2.025892127847606
 21
7.16921516042073
 31
0.0
  0
ARC
  5
443
330
1E
100
AcDbEntity
  8
IMAGE
100
AcDbCircle
 10
2.291893139644031
 20
7.106874705711801
 30
0.0
 40
0.0164150622659924
100
AcDbArc
 50
0.0
 51
90.0
  0
ARC
  5
444
330
1E
100
AcDbEntity
  8
IMAGE
100
AcDbCircle
 10
2.274248815917848
 20
7.03782037170829
 30
0.0
 40
0.0164150622659924
100
AcDbArc
 50
327.864582191878
 51
0.0
  0
ARC
  5
445
330
1E
100
AcDbEntity
  8
IMAGE
100
AcDbCircle
 10
2.291893139644031
 20
7.032738370138753
 30
0.0
 40
0.0164150622659924
100
AcDbArc
 50
327.864582191878
 51
0.0
  0
ARC
  5
446
330
1E
100
AcDbEntity
  8
IMAGE
100
AcDbCircle
 10
2.237277649842351
 20
6.978964135509796
 30
0.0
 40
0.0164150622659924
100
AcDbArc
 50
294.2657700034601
 51
327.864582191878
  0
ARC
  5
447
330
1E
100
AcDbEntity
  8
IMAGE
100
AcDbCircle
 10
2.249385229381728
 20
6.96506791577457
 30
0.0
 40
0.0164150622659924
100
AcDbArc
 50
294.2657700034601
 51
327.864582191878
  0
ARC
  5
448
330
1E
100
AcDbEntity
  8
IMAGE
100
AcDbCircle
 10
2.281362528849205
 20
7.096344094916974
 30
0.0
 40
0.0093013493346351
100
AcDbArc
 50
0.0
 51
89.99999999999992
  0
LINE
  5
449
330
1E
100
AcDbEntity
  8
IMAGE
100
AcDbLine
 10
2.080604496141549
 20
6.870975948312036
 30
0.0
 11
2.073353212141778
 21
6.887061377747057
 31
0.0
  0
ARC
  5
44A
330
1E
100
AcDbEntity
  8
IMAGE
100
AcDbCircle
 10
2.089461844016728
 20
7.192316063840813
 30
0.0
 40
0.0635697161691213
100
AcDbArc
 50
89.99999999999991
 51
180.0
  0
ARC
  5
44B
330
1E
100
AcDbEntity
  8
IMAGE
100
AcDbCircle
 10
2.089461844016728
 20
7.16921516042073
 30
0.0
 40
0.0635697161691213
100
AcDbArc
 50
180.0
 51
269.9999999999999
  0
LINE
  5
44C
330
1E
100
AcDbEntity
  8
IMAGE
100
AcDbLine
 10
2.04353645157379
 20
7.192316063840813
 30
0.0
 11
2.04353645157379
 21
7.16921516042073
 31
0.0
  0
ARC
  5
44D
330
1E
100
AcDbEntity
  8
IMAGE
100
AcDbCircle
 10
2.089461844016728
 20
7.192316063840813
 30
0.0
 40
0.0459253924429378
100
AcDbArc
 50
89.99999999999991
 51
180.0
  0
ARC
  5
44E
330
1E
100
AcDbEntity
  8
IMAGE
100
AcDbCircle
 10
2.089461844016728
 20
7.16921516042073
 30
0.0
 40
0.0459253924429378
100
AcDbArc
 50
180.0
 51
269.9999999999999
  0
LINE
  5
44F
330
1E
100
AcDbEntity
  8
IMAGE
100
AcDbLine
 10
2.110643585619488
 20
7.255885780009933
 30
0.0
 11
2.0841592842962
 21
7.255885780009933
 31
0.0
  0
LINE
  5
450
330
1E
100
AcDbEntity
  8
IMAGE
100
AcDbLine
 10
2.110643585619488
 20
7.10564544425161
 30
0.0
 11
2.0841592842962
 21
7.10564544425161
 31
0.0
  0
ARC
  5
451
330
1E
100
AcDbEntity
  8
IMAGE
100
AcDbCircle
 10
2.062977542693439
 20
7.192316063840813
 30
0.0
 40
0.0635697161691213
100
AcDbArc
 50
89.99999999999991
 51
180.0
  0
ARC
  5
452
330
1E
100
AcDbEntity
  8
IMAGE
100
AcDbCircle
 10
2.062977542693439
 20
7.16921516042073
 30
0.0
 40
0.0635697161691213
100
AcDbArc
 50
180.0
 51
269.9999999999999
  0
LINE
  5
453
330
1E
100
AcDbEntity
  8
IMAGE
100
AcDbLine
 10
2.223148996041948
 20
6.971133800601652
 30
0.0
 11
2.052478463664592
 21
6.894195817337992
 31
0.0
  0
LINE
  5
454
330
1E
100
AcDbEntity
  8
IMAGE
100
AcDbLine
 10
2.074405840688967
 20
6.884726345466203
 30
0.0
 11
2.059729747664363
 21
6.878110387902971
 31
0.0
  0
LINE
  5
455
330
1E
100
AcDbEntity
  8
IMAGE
100
AcDbLine
 10
2.059729747664363
 20
6.878110387902971
 30
0.0
 11
2.052478463664592
 21
6.894195817337992
 31
0.0
  0
ARC
  5
456
330
1E
100
AcDbEntity
  8
IMAGE
100
AcDbCircle
 10
2.216402901365166
 20
6.986098575100731
 30
0.0
 40
0.0164150622659924
100
AcDbArc
 50
294.2657700034601
 51
327.864582191878
  0
LINE
  5
457
330
1E
100
AcDbEntity
  8
IMAGE
100
AcDbLine
 10
2.267274231720508
 20
7.03622327637175
 30
0.0
 11
2.230303065645011
 21
6.977367040173255
 31
0.0
  0
LINE
  5
458
330
1E
100
AcDbEntity
  8
IMAGE
100
AcDbLine
 10
2.267274231720508
 20
7.096344094916974
 30
0.0
 11
2.267274231720508
 21
7.03622327637175
 31
0.0
  0
LINE
  5
459
330
1E
100
AcDbEntity
  8
IMAGE
100
AcDbLine
 10
2.105424238672631
 20
7.065966406370156
 30
0.0
 11
2.105424238672631
 21
7.074182646487578
 31
0.0
  0
LINE
  5
45A
330
1E
100
AcDbEntity
  8
IMAGE
100
AcDbLine
 10
2.167433234236865
 20
7.065966406370156
 30
0.0
 11
2.167433234236865
 21
7.074182646487578
 31
0.0
  0
LINE
  5
45B
330
1E
100
AcDbEntity
  8
IMAGE
100
AcDbLine
 10
2.080389532194937
 20
7.261728779834918
 30
0.0
 11
2.192467940714559
 21
7.261728779834918
 31
0.0
  0
LINE
  5
45C
330
1E
100
AcDbEntity
  8
IMAGE
100
AcDbLine
 10
2.080389532194937
 20
7.285148148779514
 30
0.0
 11
2.080389532194937
 21
7.261728779834918
 31
0.0
  0
LINE
  5
45D
330
1E
100
AcDbEntity
  8
IMAGE
100
AcDbLine
 10
2.192467940714559
 20
7.261728779834918
 30
0.0
 11
2.192467940714559
 21
7.285148148779514
 31
0.0
  0
LINE
  5
45E
330
1E
100
AcDbEntity
  8
IMAGE
100
AcDbLine
 10
2.192467940714559
 20
7.285148148779514
 30
0.0
 11
2.080389532194937
 21
7.285148148779514
 31
0.0
  0
LINE
  5
45F
330
1E
100
AcDbEntity
  8
IMAGE
100
AcDbLine
 10
2.118678173281744
 20
7.052712471761044
 30
0.0
 11
2.154179299627752
 21
7.052712471761044
 31
0.0
  0
LINE
  5
460
330
1E
100
AcDbEntity
  8
IMAGE
100
AcDbLine
 10
2.105424238672631
 20
7.285148148779514
 30
0.0
 11
2.105424238672631
 21
7.291747789455548
 31
0.0
  0
LINE
  5
461
330
1E
100
AcDbEntity
  8
IMAGE
100
AcDbLine
 10
2.167433234236864
 20
7.285148148779514
 30
0.0
 11
2.167433234236864
 21
7.291747789455548
 31
0.0
  0
LINE
  5
462
330
1E
100
AcDbEntity
  8
IMAGE
100
AcDbLine
 10
2.105424238672631
 20
7.255671152281054
 30
0.0
 11
2.105424238672631
 21
7.261728779834918
 31
0.0
  0
LINE
  5
463
330
1E
100
AcDbEntity
  8
IMAGE
100
AcDbLine
 10
2.167433234236864
 20
7.255885780009933
 30
0.0
 11
2.167433234236864
 21
7.261728779834918
 31
0.0
  0
LINE
  5
464
330
1E
100
AcDbEntity
  8
IMAGE
100
AcDbLine
 10
2.167433234236865
 20
7.123289767977793
 30
0.0
 11
2.167433234236864
 21
7.23824145628375
 31
0.0
  0
LINE
  5
465
330
1E
100
AcDbEntity
  8
IMAGE
100
AcDbLine
 10
2.167433234236865
 20
7.097602015432176
 30
0.0
 11
2.167433234236865
 21
7.10564544425161
 31
0.0
  0
LINE
  5
466
330
1E
100
AcDbEntity
  8
IMAGE
100
AcDbLine
 10
2.105424238672631
 20
7.097602015432176
 30
0.0
 11
2.105424238672631
 21
7.105860071980488
 31
0.0
  0
LINE
  5
467
330
1E
100
AcDbEntity
  8
IMAGE
100
AcDbLine
 10
2.105424238672631
 20
7.123587317073866
 30
0.0
 11
2.105424238672631
 21
7.237943907187679
 31
0.0
  0
ARC
  5
468
330
1E
100
AcDbEntity
  8
IMAGE
100
AcDbCircle
 10
2.118678173281743
 20
7.065966406370156
 30
0.0
 40
0.0132539346091131
100
AcDbArc
 50
180.0000000000003
 51
270.0
  0
ARC
  5
469
330
1E
100
AcDbEntity
  8
IMAGE
100
AcDbCircle
 10
2.154179299627752
 20
7.065966406370156
 30
0.0
 40
0.0132539346091131
100
AcDbArc
 50
270.0000000000001
 51
0.0000000000003689
  0
CIRCLE
  5
46A
330
1E
100
AcDbEntity
  8
IMAGE
100
AcDbCircle
 10
2.071778772988572
 20
7.14799181654237
 30
0.0
 40
0.0141211634143343
  0
LWPOLYLINE
  5
46B
330
1E
100
AcDbEntity
  8
IMAGE
100
AcDbPolyline
 90
        4
 70
     0
 43
0.0093013493346351
 10
2.071778772988572
 20
7.14799181654237
 10
2.071778772988572
 20
7.053090857762214
 42
0.3179137414927484
 10
2.082117667538243
 20
7.038473761859622
 10
2.255558990968313
 20
6.977207213683671
 42
-0.297418577408423
  0
ARC
  5
471
330
1E
100
AcDbEntity
  8
IMAGE
100
AcDbCircle
 10
2.257972882385873
 20
7.096344094916974
 30
0.0
 40
0.0093013493346351
100
AcDbArc
 50
0.0
 51
89.99999999999992
  0
LINE
  5
472
330
1E
100
AcDbEntity
  8
IMAGE
100
AcDbLine
 10
2.089461844016728
 20
7.255885780009933
 30
0.0
 11
2.06297754269344
 21
7.255885780009933
 31
0.0
  0
LINE
  5
473
330
1E
100
AcDbEntity
  8
IMAGE
100
AcDbLine
 10
2.110643585619488
 20
7.23824145628375
 30
0.0
 11
2.089461844016728
 21
7.23824145628375
 31
0.0
  0
LINE
  5
474
330
1E
100
AcDbEntity
  8
IMAGE
100
AcDbLine
 10
2.110643585619488
 20
7.123289767977793
 30
0.0
 11
2.089461844016728
 21
7.123289767977793
 31
0.0
  0
LINE
  5
475
330
1E
100
AcDbEntity
  8
IMAGE
100
AcDbLine
 10
2.0841592842962
 20
7.10564544425161
 30
0.0
 11
2.062977542693439
 21
7.10564544425161
 31
0.0
  0
LINE
  5
476
330
1E
100
AcDbEntity
  8
OPTION-MODEL-TNT
100
AcDbLine
 10
3.041600931221693
 20
7.546558384481549
 30
0.0
 11
3.056886867984489
 21
7.504560618390421
 31
0.0
  0
LINE
  5
477
330
1E
100
AcDbEntity
  8
OPTION-MODEL-TNT
100
AcDbLine
 10
3.074361162598006
 20
7.456550388519255
 30
0.0
 11
3.056886867984519
 21
7.504560618390339
 31
0.0
  0
LINE
  5
478
330
1E
100
AcDbEntity
  8
IMAGE
100
AcDbLine
 10
2.462772358322972
 20
7.645627338741244
 30
0.0
 11
2.492601608286505
 21
7.645627338741244
 31
0.0
  0
LINE
  5
479
330
1E
100
AcDbEntity
  8
IMAGE
100
AcDbLine
 10
2.505003407399352
 20
7.612906444552045
 30
0.0
 11
2.505003407399352
 21
7.633225539628398
 31
0.0
  0
ARC
  5
47A
330
1E
100
AcDbEntity
  8
IMAGE
100
AcDbCircle
 10
2.492601608286505
 20
7.633225539628398
 30
0.0
 40
0.0124017991128468
100
AcDbArc
 50
0.0
 51
90.0
  0
LINE
  5
47B
330
1E
100
AcDbEntity
  8
IMAGE
100
AcDbLine
 10
2.415576381550443
 20
7.628899218066708
 30
0.0
 11
2.437602385606288
 21
7.620244712065154
 31
0.0
  0
ARC
  5
47C
330
1E
100
AcDbEntity
  8
IMAGE
100
AcDbCircle
 10
2.47326354688014
 20
7.607658416923182
 30
0.0
 40
0.012586295141973
100
AcDbArc
 50
90.0
 51
180.0
  0
ARC
  5
47D
330
1E
100
AcDbEntity
  8
IMAGE
100
AcDbCircle
 10
2.437602385606288
 20
7.607658416923182
 30
0.0
 40
0.012586295141973
100
AcDbArc
 50
0.0
 51
90.0
  0
LINE
  5
47E
330
1E
100
AcDbEntity
  8
IMAGE
100
AcDbLine
 10
2.47326354688014
 20
7.620244712065154
 30
0.0
 11
2.437602385606288
 21
7.620244712065154
 31
0.0
  0
ARC
  5
47F
330
1E
100
AcDbEntity
  8
IMAGE
100
AcDbCircle
 10
2.471310758588242
 20
7.624468320295257
 30
0.0
 40
0.0045057536473645
100
AcDbArc
 50
250.5527283824914
 51
78.6856306177464
  0
LINE
  5
480
330
1E
100
AcDbEntity
  8
IMAGE
100
AcDbLine
 10
2.47389498501311
 20
7.628896632877506
 30
0.0
 11
2.40707430534145
 21
7.645133769632899
 31
0.0
  0
LINE
  5
481
330
1E
100
AcDbEntity
  8
IMAGE
100
AcDbLine
 10
2.071778772988572
 20
7.162112979956704
 30
0.0
 11
2.04408893686175
 21
7.162112979956704
 31
0.0
  0
LINE
  5
482
330
1E
100
AcDbEntity
  8
IMAGE
100
AcDbLine
 10
2.071778772988572
 20
7.133870653128036
 30
0.0
 11
2.060137664995405
 21
7.133870653128036
 31
0.0
  0
LINE
  5
483
330
1E
100
AcDbEntity
  8
IMAGE
100
AcDbLine
 10
2.656646211321462
 20
7.376084203787639
 30
0.0
 11
2.656646211321462
 21
7.606705544995623
 31
0.0
  0
ARC
  5
484
330
1E
100
AcDbEntity
  8
IMAGE
100
AcDbCircle
 10
2.650445311765039
 20
7.606705544995623
 30
0.0
 40
0.0062008995564234
100
AcDbArc
 50
0.0
 51
90.0
  0
ARC
  5
485
330
1E
100
AcDbEntity
  8
IMAGE
100
AcDbCircle
 10
2.639634219875571
 20
7.379485680261684
 30
0.0
 40
0.0173487145102618
100
AcDbArc
 50
304.8017285925366
 51
348.6930527882747
  0
LWPOLYLINE
  5
486
330
1E
100
AcDbEntity
  8
IMAGE
100
AcDbPolyline
 90
        3
 70
     0
 43
0.0093013493346351
 10
2.271046719884362
 20
6.968692021684855
 42
-0.2062793241158146
 10
2.288100423817821
 20
6.936073767938088
 10
2.301716053634332
 20
6.723361869896255
  0
LWPOLYLINE
  5
48B
330
1E
100
AcDbEntity
  8
IMAGE
100
AcDbPolyline
 90
        2
 70
     0
 43
0.0093013493346351
 10
2.321968749637818
 20
6.723418201489693
 42
-0.6585101325420833
 10
2.301716053634332
 20
6.723361869896255
 42
11.49201715959656
  0
LWPOLYLINE
  5
48F
330
1E
100
AcDbEntity
  8
IMAGE
100
AcDbPolyline
 90
        4
 70
     0
 43
0.0093013493346351
 10
2.272611756640277
 20
6.971183481455891
 10
2.277927404334704
 20
6.969305777924136
 42
-0.297418577408423
 10
2.308813732198534
 20
6.928934124439516
 10
2.321968749637818
 20
6.723418201489693
  0
LINE
  5
495
330
1E
100
AcDbEntity
  8
IMAGE
100
AcDbLine
 10
2.21839120250653
 20
7.398180512254317
 30
0.0
 11
2.454512082768104
 21
7.398180512254317
 31
0.0
  0
LINE
  5
496
330
1E
100
AcDbEntity
  8
OPTION-MODEL-TNT
100
AcDbLine
 10
3.27436352962272
 20
7.491177008864346
 30
0.0
 11
3.231306902655453
 21
7.621776433404985
 31
0.0
  0
LINE
  5
497
330
1E
100
AcDbEntity
  8
OPTION-MODEL-TNT
100
AcDbLine
 10
2.990642109094318
 20
7.66788696468367
 30
0.0
 11
3.14803555217415
 21
7.721177658009976
 31
0.0
  0
ARC
  5
498
330
1E
100
AcDbEntity
  8
OPTION-MODEL-TNT
100
AcDbCircle
 10
3.181286144194749
 20
7.507447711992488
 30
0.0
 40
0.2163009285563948
100
AcDbArc
 50
79.09073823730986
 51
98.84278602090821
  0
LINE
  5
499
330
1E
100
AcDbEntity
  8
OPTION-MODEL-TNT
100
AcDbLine
 10
3.226782679593815
 20
7.720180999125098
 30
0.0
 11
3.323824995970375
 21
7.754486988970985
 31
0.0
  0
LINE
  5
49A
330
1E
100
AcDbEntity
  8
OPTION-MODEL-TNT
100
AcDbLine
 10
2.953417611585626
 20
7.742437990723217
 30
0.0
 11
2.978849813560915
 21
7.67351672337091
 31
0.0
  0
ARC
  5
49B
330
1E
100
AcDbEntity
  8
OPTION-MODEL-TNT
100
AcDbCircle
 10
3.22387374031538
 20
7.728409597310028
 30
0.0
 40
0.0087276431993203
100
AcDbArc
 50
259.0907382373085
 51
289.4693049516046
  0
ARC
  5
49C
330
1E
100
AcDbEntity
  8
OPTION-MODEL-TNT
100
AcDbCircle
 10
2.98763799077997
 20
7.676759593193477
 30
0.0
 40
0.0093674043106734
100
AcDbArc
 50
200.2542469033188
 51
288.7052099294372
  0
LWPOLYLINE
  5
49D
330
1E
100
AcDbEntity
  8
IMAGE
100
AcDbPolyline
 90
        5
 70
     0
 43
0.0
 10
2.48676998195195
 20
6.990618745692847
 42
0.2441778521320248
 10
2.489142450573677
 20
6.98808300603089
 42
0.0421516201204366
 10
2.519960076244544
 20
6.980035989444704
 42
0.0181320226406599
 10
2.553700904591712
 20
6.975456506955367
 42
0.0129144870796952
 10
2.601373188574877
 20
6.971979182095395
 42
0.0129144870796964
  0
LWPOLYLINE
  5
4A4
330
1E
100
AcDbEntity
  8
IMAGE
100
AcDbPolyline
 90
        5
 70
     0
 43
0.0
 10
2.48743812944639
 20
6.979761447754434
 42
0.3308663119352428
 10
2.489946123173453
 20
6.97603242088131
 42
0.0421516201204366
 10
2.520763748844319
 20
6.967985404295124
 42
0.0181320226406599
 10
2.554504577191487
 20
6.963405921805787
 42
0.0129144870796952
 10
2.602176861174652
 20
6.959928596945815
 42
0.0129144870796964
  0
LWPOLYLINE
  5
4AB
330
1E
100
AcDbEntity
  8
IMAGE
100
AcDbPolyline
 90
        5
 70
     0
 43
0.0
 10
2.486171770810709
 20
6.962994259272914
 42
0.3308663119352428
 10
2.487980659147454
 20
6.958880429312809
 42
0.0421516201204366
 10
2.516889106350997
 20
6.945509482891258
 42
0.0181320226406599
 10
2.54928798082187
 20
6.935034365209638
 42
0.0129144870796952
 10
2.595593605305931
 20
6.923179931883051
 42
0.0129144870796964
  0
LWPOLYLINE
  5
4B2
330
1E
100
AcDbEntity
  8
IMAGE
100
AcDbPolyline
 90
        6
 70
     0
 43
0.0
 10
2.48930825513668
 20
6.976327335516469
 42
0.3102203890139923
 10
2.486171770810709
 20
6.973438100745319
 42
0.3308663119352428
 10
2.487980659147454
 20
6.969324270785216
 42
0.0421516201204366
 10
2.516889106350997
 20
6.955953324363662
 42
0.0181320226406599
 10
2.54928798082187
 20
6.945478206682045
 42
0.0129144870796952
 10
2.595593605305931
 20
6.933623773355456
 42
0.0129144870796964
  0
LWPOLYLINE
  5
4BA
330
1E
100
AcDbEntity
  8
IMAGE
100
AcDbPolyline
 90
        7
 70
     0
 43
0.0
 10
2.505803619755865
 20
6.943279090687736
 42
0.0227455627350285
 10
2.488938577920579
 20
6.939856639479431
 42
0.3308663119352122
 10
2.486091742679261
 20
6.936379398753764
 42
0.3308663119352428
 10
2.488599736406323
 20
6.93265037188064
 42
0.0421516201204366
 10
2.519417362077189
 20
6.924603355294452
 42
0.0181320226406599
 10
2.553158190424357
 20
6.920023872805119
 42
0.0114644435032773
 10
2.595470178711289
 20
6.916814170684947
 42
0.0129144870796964
  0
LWPOLYLINE
  5
4C3
330
1E
100
AcDbEntity
  8
IMAGE
100
AcDbPolyline
 90
        4
 70
     0
 43
0.0
 10
2.486091742679261
 20
6.930029555009502
 42
0.3308663119352428
 10
2.488599736406323
 20
6.92630052813638
 42
0.0421516201204366
 10
2.519417362077189
 20
6.918253511550192
 42
0.0047610671228577
 10
2.528244341967742
 20
6.916814170684947
 42
0.0129144870796952
  0
LWPOLYLINE
  5
4C9
330
1E
100
AcDbEntity
  8
IMAGE
100
AcDbPolyline
 90
        3
 70
     0
 43
0.0
 10
2.505803619755865
 20
6.936929246943476
 42
0.0227455627350285
 10
2.488938577920579
 20
6.933506795735171
 42
0.0808566685898066
 10
2.487826952452864
 20
6.933027531249759
 42
0.3308663119352428
  0
LINE
  5
4CE
330
1E
100
AcDbEntity
  8
IMAGE
100
AcDbLine
 10
2.486091742679261
 20
6.936379398753764
 30
0.0
 11
2.486091742679261
 21
6.930029555009502
 31
0.0
  0
LWPOLYLINE
  5
4CF
330
1E
100
AcDbEntity
  8
IMAGE
100
AcDbPolyline
 90
        2
 70
     0
 43
0.0
 10
2.505803619755865
 20
6.986446164195635
 42
0.009966417160284
 10
2.498384501745828
 20
6.985081799407792
 42
0.3308663119352122
  0
LWPOLYLINE
  5
4D3
330
1E
100
AcDbEntity
  8
IMAGE
100
AcDbPolyline
 90
        2
 70
     0
 43
0.0
 10
2.505803619755865
 20
6.966318926427426
 42
0.0158789571617769
 10
2.493787921132554
 20
6.966151813485673
 42
0.3308663119352122
  0
LINE
  5
4D7
330
1E
100
AcDbEntity
  8
IMAGE
100
AcDbLine
 10
2.48676998195195
 20
6.990618745692847
 30
0.0
 11
2.48743812944639
 21
6.979761447754434
 31
0.0
  0
LINE
  5
4D8
330
1E
100
AcDbEntity
  8
IMAGE
100
AcDbLine
 10
2.486171770810709
 20
6.973438100745319
 30
0.0
 11
2.486171770810709
 21
6.962994259272914
 31
0.0
  0
LINE
  5
4D9
330
1E
100
AcDbEntity
  8
IMAGE
100
AcDbLine
 10
2.717466666192809
 20
6.980958212353828
 30
0.0
 11
2.718270338792583
 21
6.968907627204245
 31
0.0
  0
LWPOLYLINE
  5
4DA
330
1E
100
AcDbEntity
  8
IMAGE
100
AcDbPolyline
 90
        7
 70
     0
 43
0.0
 10
2.601373188574877
 20
6.971979182095395
 42
0.0129144870796964
 10
2.649161427599444
 20
6.970967915916503
 42
0.0181320226406586
 10
2.68318309678951
 20
6.972361179331887
 42
0.0421516201204322
 10
2.71461983095149
 20
6.97748097162816
 42
0.3308663119352264
 10
2.717466666192809
 20
6.980958212353828
 42
0.3308663119352181
 10
2.714958672465746
 20
6.98468723922695
 42
0.0297885595466617
 10
2.693307682469302
 20
6.990915612101964
 42
0.0181320226406562
  0
LWPOLYLINE
  5
4E3
330
1E
100
AcDbEntity
  8
IMAGE
100
AcDbPolyline
 90
        6
 70
     0
 43
0.0
 10
2.602176861174652
 20
6.959928596945815
 42
0.0129144870796964
 10
2.649965100199219
 20
6.958917330766922
 42
0.0181320226406586
 10
2.683986769389285
 20
6.960310594182304
 42
0.0421516201204322
 10
2.715423503551265
 20
6.96543038647858
 42
0.3308663119352264
 10
2.718270338792583
 20
6.968907627204245
 42
0.0568505046551125
 10
2.718213514573373
 20
6.969759672044824
 42
0.0299168931654418
  0
LINE
  5
4EB
330
1E
100
AcDbEntity
  8
IMAGE
100
AcDbLine
 10
2.711444866041382
 20
6.921927452745395
 30
0.0
 11
2.711444866041382
 21
6.916814170684947
 31
0.0
  0
LWPOLYLINE
  5
4EC
330
1E
100
AcDbEntity
  8
IMAGE
100
AcDbPolyline
 90
        7
 70
     0
 43
0.0
 10
2.595593605305931
 20
6.933623773355456
 42
0.0129144870796964
 10
2.642449535490522
 20
6.924176008810839
 42
0.0181320226406586
 10
2.676181239607489
 20
6.919529795859602
 42
0.0421516201204322
 10
2.708027885338645
 20
6.91900856308791
 42
0.3308663119352264
 10
2.711444866041382
 20
6.921927452745395
 42
0.3308663119352181
 10
2.709635977704637
 20
6.926041282705497
 42
0.0241970092680092
 10
2.693307682469302
 20
6.93431684561793
 42
0.0181320226406562
  0
LWPOLYLINE
  5
4F5
330
1E
100
AcDbEntity
  8
IMAGE
100
AcDbPolyline
 90
        2
 70
     0
 43
0.0
 10
2.595593605305931
 20
6.923179931883051
 42
0.0083220506105934
 10
2.625733158287612
 20
6.916814170684947
 42
0.0181320226406586
  0
LWPOLYLINE
  5
4F9
330
1E
100
AcDbEntity
  8
IMAGE
100
AcDbPolyline
 90
        2
 70
     0
 43
0.0
 10
2.70652029389337
 20
6.975637860700469
 42
0.0180309326674567
 10
2.693307682469302
 20
6.979043371855194
 42
0.0181320226406562
  0
LINE
  5
4FD
330
1E
100
AcDbEntity
  8
IMAGE
100
AcDbLine
 10
2.505803619755865
 20
6.927475576129674
 30
0.0
 11
2.505803619755865
 21
6.949943853364782
 31
0.0
  0
LINE
  5
4FE
330
1E
100
AcDbEntity
  8
IMAGE
100
AcDbLine
 10
2.505803619755865
 20
6.960387694837187
 30
0.0
 11
2.505803619755866
 21
6.971199076297283
 31
0.0
  0
LINE
  5
4FF
330
1E
100
AcDbEntity
  8
IMAGE
100
AcDbLine
 10
2.505803619755866
 20
6.98304458049221
 30
0.0
 11
2.505803619755865
 21
6.992099892834916
 31
0.0
  0
LINE
  5
500
330
1E
100
AcDbEntity
  8
IMAGE
100
AcDbLine
 10
2.693307682469302
 20
6.973418855346027
 30
0.0
 11
2.693307682469302
 21
6.992099892834916
 31
0.0
  0
CIRCLE
  5
501
330
1E
100
AcDbEntity
  8
OPTION-MODEL-PJDA-TNT
100
AcDbCircle
 10
3.605605315804492
 20
7.706250303105122
 30
0.0
 40
0.0297525025539914
  0
LINE
  5
502
330
1E
100
AcDbEntity
  8
OPTION-MODEL-PJDA-TNT
100
AcDbLine
 10
3.367682938187962
 20
7.67353747145213
 30
0.0
 11
3.347089355127275
 21
7.730117875896858
 31
0.0
  0
LINE
  5
503
330
1E
100
AcDbEntity
  8
OPTION-MODEL-PJDA-TNT
100
AcDbLine
 10
3.421646813788063
 20
7.5252729417737
 30
0.0
 11
3.402221275396074
 21
7.578644169867438
 31
0.0
  0
LINE
  5
504
330
1E
100
AcDbEntity
  8
OPTION-MODEL-PJDA-TNT
100
AcDbLine
 10
3.231932798420826
 20
7.624128461279287
 30
0.0
 11
3.215566280147231
 21
7.669095100671079
 31
0.0
  0
LINE
  5
505
330
1E
100
AcDbEntity
  8
OPTION-MODEL-PJDA-TNT
100
AcDbLine
 10
3.262517248063062
 20
7.527796062310963
 30
0.0
 11
3.282335342581246
 21
7.473346295125068
 31
0.0
  0
LINE
  5
506
330
1E
100
AcDbEntity
  8
OPTION-MODEL-PJDA-TNT
100
AcDbLine
 10
3.123955849305923
 20
7.441002437367814
 30
0.0
 11
3.095000351949473
 21
7.520557012523934
 31
0.0
  0
ARC
  5
507
330
1E
100
AcDbEntity
  8
OPTION-MODEL-PJDA-TNT
100
AcDbCircle
 10
3.132704763124841
 20
7.444186781579769
 30
0.0
 40
0.0093103996190156
100
AcDbArc
 50
200.0
 51
290.0
  0
LINE
  5
508
330
1E
100
AcDbEntity
  8
OPTION-MODEL-PJDA-TNT
100
AcDbLine
 10
3.204058843630511
 20
7.46024962265
 30
0.0
 11
3.13588910733718
 21
7.435437867761249
 31
0.0
  0
ARC
  5
509
330
1E
100
AcDbEntity
  8
OPTION-MODEL-PJDA-TNT
100
AcDbCircle
 10
3.200874499418172
 20
7.46899853646839
 30
0.0
 40
0.0093103996190156
100
AcDbArc
 50
290.0
 51
20.00000000000001
  0
LINE
  5
50A
330
1E
100
AcDbEntity
  8
OPTION-MODEL-PJDA-TNT
100
AcDbLine
 10
3.198416783612502
 20
7.502972842522398
 30
0.0
 11
3.209623413237077
 21
7.472182880680533
 31
0.0
  0
LINE
  5
50B
330
1E
100
AcDbEntity
  8
OPTION-MODEL-PJDA-TNT
100
AcDbLine
 10
3.128816720306513
 20
7.435848846848925
 30
0.0
 11
3.107845614497376
 21
7.440156458362594
 31
0.0
  0
LINE
  5
50C
330
1E
100
AcDbEntity
  8
OPTION-MODEL-PJDA-TNT
100
AcDbLine
 10
3.107845614497376
 20
7.440156458362594
 30
0.0
 11
3.056445076139004
 21
7.421448192374853
 31
0.0
  0
LINE
  5
50D
330
1E
100
AcDbEntity
  8
OPTION-MODEL-PJDA-TNT
100
AcDbLine
 10
3.107845614497376
 20
7.440156458362594
 30
0.0
 11
3.080502764207481
 21
7.515280322117034
 31
0.0
  0
LINE
  5
50E
330
1E
100
AcDbEntity
  8
OPTION-MODEL-PJDA-TNT
100
AcDbLine
 10
3.112269520553926
 20
7.473110361731556
 30
0.0
 11
3.66071978608625
 21
7.672729933360839
 31
0.0
  0
LINE
  5
50F
330
1E
100
AcDbEntity
  8
OPTION-MODEL-PJDA-TNT
100
AcDbLine
 10
3.053159913917836
 20
7.590404185871605
 30
0.0
 11
3.080502764207481
 21
7.515280322117034
 31
0.0
  0
LINE
  5
510
330
1E
100
AcDbEntity
  8
OPTION-MODEL-PJDA-TNT
100
AcDbLine
 10
3.053159913917836
 20
7.590404185871605
 30
0.0
 11
3.001759375559331
 21
7.571695919883994
 31
0.0
  0
LINE
  5
511
330
1E
100
AcDbEntity
  8
OPTION-MODEL-PJDA-TNT
100
AcDbLine
 10
3.066455833680965
 20
7.607183974710453
 30
0.0
 11
3.053159913917836
 21
7.590404185871605
 31
0.0
  0
LINE
  5
512
330
1E
100
AcDbEntity
  8
OPTION-MODEL-PJDA-TNT
100
AcDbLine
 10
3.077731183345689
 20
7.568003663316309
 30
0.0
 11
3.534680034216053
 21
7.734319443615337
 31
0.0
  0
LINE
  5
513
330
1E
100
AcDbEntity
  8
OPTION-MODEL-PJDA-TNT
100
AcDbLine
 10
3.163398747276321
 20
7.599184106629161
 30
0.0
 11
3.151712418523788
 21
7.631292030992817
 31
0.0
  0
ARC
  5
514
330
1E
100
AcDbEntity
  8
OPTION-MODEL-PJDA-TNT
100
AcDbCircle
 10
3.142963504705406
 20
7.628107686780932
 30
0.0
 40
0.0093103996190156
100
AcDbArc
 50
20.00000000000001
 51
109.9999999999999
  0
ARC
  5
515
330
1E
100
AcDbEntity
  8
OPTION-MODEL-PJDA-TNT
100
AcDbCircle
 10
3.074793768411421
 20
7.603295931892187
 30
0.0
 40
0.0093103996190156
100
AcDbArc
 50
110.0
 51
199.9999999999999
  0
LINE
  5
516
330
1E
100
AcDbEntity
  8
OPTION-MODEL-PJDA-TNT
100
AcDbLine
 10
3.066044854593156
 20
7.600111587679911
 30
0.0
 11
3.095000351949473
 21
7.520557012523934
 31
0.0
  0
LINE
  5
517
330
1E
100
AcDbEntity
  8
OPTION-MODEL-PJDA-TNT
100
AcDbLine
 10
3.13977916049306
 20
7.636856600599328
 30
0.0
 11
3.071609424199597
 21
7.612044845710709
 31
0.0
  0
LINE
  5
518
330
1E
100
AcDbEntity
  8
OPTION-MODEL-PJDA-TNT
100
AcDbLine
 10
3.042226826987065
 20
7.548910412355851
 30
0.0
 11
3.057512763749863
 21
7.506912646264721
 31
0.0
  0
LINE
  5
519
330
1E
100
AcDbEntity
  8
OPTION-MODEL-PJDA-TNT
100
AcDbLine
 10
3.07498705836338
 20
7.458902416393557
 30
0.0
 11
3.057512763749892
 21
7.506912646264639
 31
0.0
  0
LINE
  5
51A
330
1E
100
AcDbEntity
  8
OPTION-MODEL-PJDA-TNT
100
AcDbLine
 10
3.282335342581246
 20
7.473346295125068
 30
0.0
 11
3.519500526861464
 21
7.559667362807379
 31
0.0
  0
LINE
  5
51B
330
1E
100
AcDbEntity
  8
OPTION-MODEL-PJDA-TNT
100
AcDbLine
 10
3.200651441637971
 20
7.676818834218682
 30
0.0
 11
3.420310662668526
 21
7.756768252355938
 31
0.0
  0
LINE
  5
51C
330
1E
100
AcDbEntity
  8
OPTION-MODEL-PJDA-TNT
100
AcDbLine
 10
3.465168124301964
 20
7.754269955504341
 30
0.0
 11
3.520136714494556
 21
7.774276886154035
 31
0.0
  0
LINE
  5
51D
330
1E
100
AcDbEntity
  8
OPTION-MODEL-PJDA-TNT
100
AcDbLine
 10
3.528793100953068
 20
7.579461768842179
 30
0.0
 11
3.643667725376109
 21
7.621272712804701
 31
0.0
  0
LWPOLYLINE
  5
51E
330
1E
100
AcDbEntity
  8
OPTION-MODEL-PJDA-TNT
100
AcDbPolyline
 90
        9
 70
     0
 43
0.0
 10
3.64443102588067
 20
7.62760661796865
 42
-0.0532980038559412
 10
3.645012716117701
 20
7.625402784737481
 42
-0.067150451979839
 10
3.645044362544324
 20
7.623590941035978
 42
-0.1051220626661396
 10
3.644506064751882
 20
7.621999210164457
 42
-0.16925323581754
 10
3.64369389136463
 20
7.62131528799405
 42
-0.1692532358174911
 10
3.642632565565544
 20
7.621284260678329
 42
-0.1051220626661549
 10
3.64117070004306
 20
7.622112705531579
 42
-0.0671504519798502
 10
3.639987240244103
 20
7.623485003603885
 42
-0.0532980038559271
 10
3.638952839835327
 20
7.625516077269947
 42
-0.0532980038559388
  0
LINE
  5
529
330
1E
100
AcDbEntity
  8
OPTION-MODEL-PJDA-TNT
100
AcDbLine
 10
3.657331303268978
 20
7.682039713387499
 30
0.0
 11
3.66071978608625
 21
7.672729933360839
 31
0.0
  0
LINE
  5
52A
330
1E
100
AcDbEntity
  8
OPTION-MODEL-PJDA-TNT
100
AcDbLine
 10
2.919468821846405
 20
7.760586260795648
 30
0.0
 11
2.959639769944908
 21
7.771205862878826
 31
0.0
  0
LINE
  5
52B
330
1E
100
AcDbEntity
  8
OPTION-MODEL-PJDA-TNT
100
AcDbLine
 10
2.959639769944908
 20
7.771205862878826
 30
0.0
 11
3.440735864997934
 21
7.789907601652483
 31
0.0
  0
LINE
  5
52C
330
1E
100
AcDbEntity
  8
OPTION-MODEL-PJDA-TNT
100
AcDbLine
 10
3.455905380913372
 20
7.77971913380669
 30
0.0
 11
3.479711444023458
 21
7.714312512965646
 31
0.0
  0
ARC
  5
52D
330
1E
100
AcDbEntity
  8
OPTION-MODEL-PJDA-TNT
100
AcDbCircle
 10
3.441338032024859
 20
7.774417052419096
 30
0.0
 40
0.0155022488910585
100
AcDbArc
 50
20.0000000000077
 51
92.22614870978363
  0
LINE
  5
52E
330
1E
100
AcDbEntity
  8
OPTION-MODEL-PJDA-TNT
100
AcDbLine
 10
3.514249781231574
 20
7.619419211380877
 30
0.0
 11
3.528765794362384
 21
7.579536793083486
 31
0.0
  0
ARC
  5
52F
330
1E
100
AcDbEntity
  8
OPTION-MODEL-PJDA-TNT
100
AcDbCircle
 10
3.514198445473871
 20
7.574234711695893
 30
0.0
 40
0.0155022488910585
100
AcDbArc
 50
290.0000000000113
 51
20.00000000000753
  0
LINE
  5
530
330
1E
100
AcDbEntity
  8
OPTION-MODEL-PJDA-TNT
100
AcDbLine
 10
2.94236109706915
 20
7.766638068511214
 30
0.0
 11
2.972613093837374
 21
7.67861996635483
 31
0.0
  0
TEXT
  5
531
330
1E
100
AcDbEntity
  8
OPTION-MODEL-PJDA-TNT
100
AcDbText
 10
3.381400797455017
 20
7.597143069277299
 30
0.0
 40
0.0465067466731755
  1
35
 50
21.46890887505935
 41
1.25
  7
ROMANS
100
AcDbText
  0
LINE
  5
532
330
1E
100
AcDbEntity
  8
OPTION-MODEL-PJDA-TNT
100
AcDbLine
 10
2.966302276598126
 20
7.633667598419819
 30
0.0
 11
3.11971871809273
 21
7.672418621414507
 31
0.0
  0
LINE
  5
533
330
1E
100
AcDbEntity
  8
OPTION-MODEL-PJDA-TNT
100
AcDbLine
 10
3.175747523033652
 20
7.670031708293807
 30
0.0
 11
3.200651441637971
 21
7.676818834218682
 31
0.0
  0
LWPOLYLINE
  5
534
330
1E
100
AcDbEntity
  8
OPTION-MODEL-PJDA-TNT
100
AcDbPolyline
 90
        2
 70
     0
 43
0.0
 10
3.11971871809273
 20
7.672418621414507
 42
-0.110055635441643
 10
3.175747523033652
 20
7.670031708293807
 42
0.2128814110670195
  0
ARC
  5
538
330
1E
100
AcDbEntity
  8
OPTION-MODEL-PJDA-TNT
100
AcDbCircle
 10
3.203912401036419
 20
7.664853435561008
 30
0.0
 40
0.0124017991128468
100
AcDbArc
 50
20.00000000000076
 51
105.2447284014043
  0
LINE
  5
539
330
1E
100
AcDbEntity
  8
OPTION-MODEL-PJDA-TNT
100
AcDbLine
 10
2.987378629848543
 20
7.670626879598497
 30
0.0
 11
3.112207192733427
 21
7.702156971573131
 31
0.0
  0
LWPOLYLINE
  5
53A
330
1E
100
AcDbEntity
  8
OPTION-MODEL-PJDA-TNT
100
AcDbPolyline
 90
        2
 70
     0
 43
0.0
 10
3.112207192733427
 20
7.702156971573131
 42
-0.0479352477872392
 10
3.180036234668463
 20
7.708217688818697
  0
ARC
  5
53E
330
1E
100
AcDbEntity
  8
OPTION-MODEL-PJDA-TNT
100
AcDbCircle
 10
2.984341482162951
 20
7.682651036748639
 30
0.0
 40
0.0124017991128468
100
AcDbArc
 50
198.9679476369624
 51
284.1756719652601
  0
LINE
  5
53F
330
1E
100
AcDbEntity
  8
OPTION-MODEL-PJDA-TNT
100
AcDbLine
 10
3.180036234668463
 20
7.708217688818697
 30
0.0
 11
3.415955175708314
 21
7.772702809884583
 31
0.0
  0
ARC
  5
540
330
1E
100
AcDbEntity
  8
OPTION-MODEL-PJDA-TNT
100
AcDbCircle
 10
3.418132919188419
 20
7.76473553112026
 30
0.0
 40
0.0082595458454789
100
AcDbArc
 50
285.2875723875942
 51
105.2875723875942
  0
LINE
  5
541
330
1E
100
AcDbEntity
  8
OPTION-MODEL-PJDA-TNT
100
AcDbLine
 10
3.631834094842055
 20
7.662216401551741
 30
0.0
 11
3.644544617963409
 21
7.627294526286307
 31
0.0
  0
LINE
  5
542
330
1E
100
AcDbEntity
  8
OPTION-MODEL-PJDA-TNT
100
AcDbLine
 10
3.626324848000844
 20
7.660211199688315
 30
0.0
 11
3.638952839835424
 21
7.625516077269695
 31
0.0
  0
LINE
  5
543
330
1E
100
AcDbEntity
  8
OPTION-MODEL-PJDA-TNT
100
AcDbLine
 10
3.493428709991065
 20
7.847656525446023
 30
0.0
 11
3.565829888606902
 21
7.648735922057234
 31
0.0
  0
LINE
  5
544
330
1E
100
AcDbEntity
  8
OPTION-MODEL-PJDA-TNT
100
AcDbLine
 10
3.596735124685709
 20
7.889583416345313
 30
0.0
 11
3.670526791403277
 21
7.686842478295
 31
0.0
  0
LINE
  5
545
330
1E
100
AcDbEntity
  8
OPTION-MODEL-PJDA-TNT
100
AcDbLine
 10
3.507320466082253
 20
7.878011288306099
 30
0.0
 11
3.749322741870162
 21
7.970025918576073
 31
0.0
  0
LINE
  5
546
330
1E
100
AcDbEntity
  8
OPTION-MODEL-PJDA-TNT
100
AcDbLine
 10
3.597283081133963
 20
7.888077918376893
 30
0.0
 11
3.742687495090851
 21
7.943363900073988
 31
0.0
  0
LINE
  5
547
330
1E
100
AcDbEntity
  8
OPTION-MODEL-PJDA-TNT
100
AcDbLine
 10
3.565829888606902
 20
7.648735922057234
 30
0.0
 11
3.670526791403277
 21
7.686842478295
 31
0.0
  0
ARC
  5
548
330
1E
100
AcDbEntity
  8
OPTION-MODEL-PJDA-TNT
100
AcDbCircle
 10
3.732238028256896
 20
7.968016636253102
 30
0.0
 40
0.0129112950836826
100
AcDbArc
 50
290.8179133674253
 51
290.8179133674258
  0
LINE
  5
549
330
1E
100
AcDbEntity
  8
OPTION-MODEL-PJDA-TNT
100
AcDbLine
 10
3.603992670334703
 20
7.905441820111926
 30
0.0
 11
3.75230460861894
 21
7.961833307015989
 31
0.0
  0
ARC
  5
54A
330
1E
100
AcDbEntity
  8
OPTION-MODEL-PJDA-TNT
100
AcDbCircle
 10
3.515770192156361
 20
7.855788159943585
 30
0.0
 40
0.0237753087244772
100
AcDbArc
 50
110.8179133674252
 51
200.0000000000114
  0
ARC
  5
54B
330
1E
100
AcDbEntity
  8
OPTION-MODEL-PJDA-TNT
100
AcDbCircle
 10
3.608407106659512
 20
7.893831670358672
 30
0.0
 40
0.0124210637772606
100
AcDbArc
 50
110.8179133674251
 51
200.0000000000111
  0
LINE
  5
54C
330
1E
100
AcDbEntity
  8
OPTION-MODEL-PJDA-TNT
100
AcDbLine
 10
3.742702662552209
 20
7.95818243425322
 30
0.0
 11
3.745700165701054
 21
7.949946862037034
 31
0.0
  0
ARC
  5
54D
330
1E
100
AcDbEntity
  8
OPTION-MODEL-PJDA-TNT
100
AcDbCircle
 10
3.750813675244552
 20
7.965929612796031
 30
0.0
 40
0.0043591975603859
100
AcDbArc
 50
289.9999999999632
 51
111.6358267348567
  0
ARC
  5
54E
330
1E
100
AcDbEntity
  8
OPTION-MODEL-PJDA-TNT
100
AcDbCircle
 10
3.740855024002197
 20
7.948183374677848
 30
0.0
 40
0.0051560921004183
100
AcDbArc
 50
290.8179133674252
 51
20.0000000000077
  0
CIRCLE
  5
54F
330
1E
100
AcDbEntity
  8
OPTION-MODEL-ADJ-TNT
100
AcDbCircle
 10
3.61559554814379
 20
7.710038168040563
 30
0.0
 40
0.0297525025539914
  0
ARC
  5
550
330
1E
100
AcDbEntity
  8
OPTION-MODEL-ADJ-TNT
100
AcDbCircle
 10
3.732062848470421
 20
7.754826327581413
 30
0.0
 40
0.1084717630906447
100
AcDbArc
 50
297.4207969643781
 51
98.78957590351902
  0
LINE
  5
551
330
1E
100
AcDbEntity
  8
OPTION-MODEL-ADJ-TNT
100
AcDbLine
 10
3.715487707833851
 20
7.862024219822242
 30
0.0
 11
3.350720127527828
 21
7.720025735774919
 31
0.0
  0
LINE
  5
552
330
1E
100
AcDbEntity
  8
OPTION-MODEL-ADJ-TNT
100
AcDbLine
 10
3.78201648280395
 20
7.658541553059107
 30
0.0
 11
3.413980826141127
 21
7.546204601825325
 31
0.0
  0
ARC
  5
553
330
1E
100
AcDbEntity
  8
OPTION-MODEL-ADJ-TNT
100
AcDbCircle
 10
3.412984431478325
 20
7.706035501236108
 30
0.0
 40
0.0186207992380313
100
AcDbArc
 50
111.4688007143867
 51
199.9999999999999
  0
ARC
  5
554
330
1E
100
AcDbEntity
  8
OPTION-MODEL-ADJ-TNT
100
AcDbCircle
 10
3.455359727162192
 20
7.589610333201536
 30
0.0
 40
0.0186207992380313
100
AcDbArc
 50
199.9999999999999
 51
286.0396881695418
  0
ARC
  5
555
330
1E
100
AcDbEntity
  8
OPTION-MODEL-ADJ-TNT
100
AcDbCircle
 10
3.595134673503184
 20
7.629794956415274
 30
0.0
 40
0.0186207992380313
100
AcDbArc
 50
286.0396881695413
 51
20.00000000000001
  0
ARC
  5
556
330
1E
100
AcDbEntity
  8
OPTION-MODEL-ADJ-TNT
100
AcDbCircle
 10
3.548051506378724
 20
7.759154894926043
 30
0.0
 40
0.0186207992380313
100
AcDbArc
 50
20.00000000000001
 51
111.4688007143867
  0
LINE
  5
557
330
1E
100
AcDbEntity
  8
OPTION-MODEL-ADJ-TNT
100
AcDbLine
 10
3.571967129099478
 20
7.747890836275045
 30
0.0
 11
3.565549334015893
 21
7.765523583350136
 31
0.0
  0
LINE
  5
558
330
1E
100
AcDbEntity
  8
OPTION-MODEL-ADJ-TNT
100
AcDbLine
 10
3.715497533681428
 20
7.872560959670559
 30
0.0
 11
3.212744833305397
 21
7.676846962159862
 31
0.0
  0
LINE
  5
559
330
1E
100
AcDbEntity
  8
OPTION-MODEL-ADJ-TNT
100
AcDbLine
 10
3.788811597532713
 20
7.650364971654363
 30
0.0
 11
3.274989425388093
 21
7.493529036738648
 31
0.0
  0
LINE
  5
55A
330
1E
100
AcDbEntity
  8
OPTION-MODEL-ADJ-TNT
100
AcDbLine
 10
3.400632001238082
 20
7.685529949649218
 30
0.0
 11
3.395486603841023
 21
7.699666812811953
 31
0.0
  0
LINE
  5
55B
330
1E
100
AcDbEntity
  8
OPTION-MODEL-ADJ-TNT
100
AcDbLine
 10
3.437861899525016
 20
7.583241644777507
 30
0.0
 11
3.435170338446319
 21
7.59063664806459
 31
0.0
  0
LINE
  5
55C
330
1E
100
AcDbEntity
  8
OPTION-MODEL-ADJ-TNT
100
AcDbLine
 10
3.541236395678295
 20
7.776483727269924
 30
0.0
 11
3.406169320777639
 21
7.723364333580128
 31
0.0
  0
LINE
  5
55D
330
1E
100
AcDbEntity
  8
OPTION-MODEL-ADJ-TNT
100
AcDbLine
 10
3.61263250114036
 20
7.636163644839436
 30
0.0
 11
3.606505466307716
 21
7.652997534690408
 31
0.0
  0
LINE
  5
55E
330
1E
100
AcDbEntity
  8
OPTION-MODEL-ADJ-TNT
100
AcDbLine
 10
3.460504712559145
 20
7.571714431728784
 30
0.0
 11
3.600279658900011
 21
7.611899054942272
 31
0.0
  0
LINE
  5
55F
330
1E
100
AcDbEntity
  8
OPTION-MODEL-ADJ-TNT
100
AcDbLine
 10
3.367682938187962
 20
7.673537471452132
 30
0.0
 11
3.347535574816533
 21
7.728891897376513
 31
0.0
  0
LINE
  5
560
330
1E
100
AcDbEntity
  8
OPTION-MODEL-ADJ-TNT
100
AcDbLine
 10
3.417091948360416
 20
7.53778733168505
 30
0.0
 11
3.402221275396074
 21
7.578644169867439
 31
0.0
  0
ARC
  5
561
330
1E
100
AcDbEntity
  8
OPTION-MODEL-ADJ-TNT
100
AcDbCircle
 10
3.733382179138928
 20
7.755268974703543
 30
0.0
 40
0.1186476728798538
100
AcDbArc
 50
297.8511803576108
 51
98.66966403279818
  0
LINE
  5
562
330
1E
100
AcDbEntity
  8
OPTION-MODEL-ADJ-TNT
100
AcDbLine
 10
3.231932798420825
 20
7.624128461279287
 30
0.0
 11
3.211662812435023
 21
7.67981979006794
 31
0.0
  0
LINE
  5
563
330
1E
100
AcDbEntity
  8
OPTION-MODEL-ADJ-TNT
100
AcDbLine
 10
3.112269520553926
 20
7.473110361731555
 30
0.0
 11
3.672403592408095
 21
7.676982491084926
 31
0.0
  0
LINE
  5
564
330
1E
100
AcDbEntity
  8
OPTION-MODEL-ADJ-TNT
100
AcDbLine
 10
3.672403592408095
 20
7.676982491084926
 30
0.0
 11
3.655614122932108
 21
7.723111179355106
 31
0.0
  0
LINE
  5
565
330
1E
100
AcDbEntity
  8
OPTION-MODEL-ADJ-TNT
100
AcDbLine
 10
3.077731183345689
 20
7.568003663316311
 30
0.0
 11
3.637865255199989
 21
7.771875792669687
 31
0.0
  0
LINE
  5
566
330
1E
100
AcDbEntity
  8
OPTION-MODEL-ADJ-TNT
100
AcDbLine
 10
3.637865255199989
 20
7.771875792669687
 30
0.0
 11
3.654654724676094
 21
7.725747104399365
 31
0.0
  0
ARC
  5
567
330
1E
100
AcDbEntity
  8
OPTION-MODEL-ADJ-TNT
100
AcDbCircle
 10
3.176667157161208
 20
7.667082413219366
 30
0.0
 40
0.0372415984760626
100
AcDbArc
 50
19.99999999999864
 51
108.705209929416
  0
ARC
  5
568
330
1E
100
AcDbEntity
  8
OPTION-MODEL-ADJ-TNT
100
AcDbCircle
 10
3.528078448657383
 20
5.644031820559127
 30
0.0
 40
2.200682390597804
100
AcDbArc
 50
87.16218705428532
 51
96.92131174558431
  0
LINE
  5
569
330
1E
100
AcDbEntity
  8
OPTION-MODEL-ADJ-TNT
100
AcDbLine
 10
2.920094717611777
 20
7.76293828866995
 30
0.0
 11
3.262882803766681
 21
7.828676930003284
 31
0.0
  0
LINE
  5
56A
330
1E
100
AcDbEntity
  8
OPTION-MODEL-ADJ-TNT
100
AcDbLine
 10
2.966020210739795
 20
7.63507935581752
 30
0.0
 11
3.164723809321478
 21
7.702356952187777
 31
0.0
  0
LINE
  5
56B
330
1E
100
AcDbEntity
  8
OPTION-MODEL-ADJ-TNT
100
AcDbLine
 10
3.123955849305922
 20
7.441002437367815
 30
0.0
 11
3.095000351949473
 21
7.520557012523934
 31
0.0
  0
ARC
  5
56C
330
1E
100
AcDbEntity
  8
OPTION-MODEL-ADJ-TNT
100
AcDbCircle
 10
3.132704763124841
 20
7.444186781579771
 30
0.0
 40
0.0093103996190156
100
AcDbArc
 50
200.0
 51
290.0
  0
LINE
  5
56D
330
1E
100
AcDbEntity
  8
OPTION-MODEL-ADJ-TNT
100
AcDbLine
 10
3.204058843630511
 20
7.46024962265
 30
0.0
 11
3.135889107337179
 21
7.435437867761249
 31
0.0
  0
ARC
  5
56E
330
1E
100
AcDbEntity
  8
OPTION-MODEL-ADJ-TNT
100
AcDbCircle
 10
3.200874499418172
 20
7.468998536468388
 30
0.0
 40
0.0093103996190156
100
AcDbArc
 50
290.0
 51
20.00000000000001
  0
LINE
  5
56F
330
1E
100
AcDbEntity
  8
OPTION-MODEL-ADJ-TNT
100
AcDbLine
 10
3.197937084484604
 20
7.504290805044439
 30
0.0
 11
3.209623413237077
 21
7.472182880680533
 31
0.0
  0
LINE
  5
570
330
1E
100
AcDbEntity
  8
OPTION-MODEL-ADJ-TNT
100
AcDbLine
 10
3.128816720306513
 20
7.435848846848925
 30
0.0
 11
3.107845614497376
 21
7.440156458362595
 31
0.0
  0
LINE
  5
571
330
1E
100
AcDbEntity
  8
OPTION-MODEL-ADJ-TNT
100
AcDbLine
 10
3.107845614497376
 20
7.440156458362595
 30
0.0
 11
3.056445076139004
 21
7.421448192374853
 31
0.0
  0
LINE
  5
572
330
1E
100
AcDbEntity
  8
OPTION-MODEL-ADJ-TNT
100
AcDbLine
 10
3.107845614497376
 20
7.440156458362595
 30
0.0
 11
3.08050276420748
 21
7.515280322117034
 31
0.0
  0
LINE
  5
573
330
1E
100
AcDbEntity
  8
OPTION-MODEL-ADJ-TNT
100
AcDbLine
 10
3.053159913917835
 20
7.590404185871605
 30
0.0
 11
3.08050276420748
 21
7.515280322117034
 31
0.0
  0
LINE
  5
574
330
1E
100
AcDbEntity
  8
OPTION-MODEL-ADJ-TNT
100
AcDbLine
 10
3.053159913917835
 20
7.590404185871605
 30
0.0
 11
3.001759375559331
 21
7.571695919883996
 31
0.0
  0
LINE
  5
575
330
1E
100
AcDbEntity
  8
OPTION-MODEL-ADJ-TNT
100
AcDbLine
 10
3.066455833680965
 20
7.607183974710453
 30
0.0
 11
3.053159913917835
 21
7.590404185871605
 31
0.0
  0
LINE
  5
576
330
1E
100
AcDbEntity
  8
OPTION-MODEL-ADJ-TNT
100
AcDbLine
 10
3.16339874727632
 20
7.599184106629161
 30
0.0
 11
3.151712418523787
 21
7.631292030992817
 31
0.0
  0
ARC
  5
577
330
1E
100
AcDbEntity
  8
OPTION-MODEL-ADJ-TNT
100
AcDbCircle
 10
3.142963504705405
 20
7.628107686780932
 30
0.0
 40
0.0093103996190156
100
AcDbArc
 50
20.00000000000001
 51
109.9999999999999
  0
ARC
  5
578
330
1E
100
AcDbEntity
  8
OPTION-MODEL-ADJ-TNT
100
AcDbCircle
 10
3.07479376841142
 20
7.603295931892187
 30
0.0
 40
0.0093103996190156
100
AcDbArc
 50
110.0
 51
199.9999999999999
  0
LINE
  5
579
330
1E
100
AcDbEntity
  8
OPTION-MODEL-ADJ-TNT
100
AcDbLine
 10
3.066044854593156
 20
7.600111587679913
 30
0.0
 11
3.095000351949473
 21
7.520557012523934
 31
0.0
  0
LINE
  5
57A
330
1E
100
AcDbEntity
  8
OPTION-MODEL-ADJ-TNT
100
AcDbLine
 10
3.13977916049306
 20
7.636856600599328
 30
0.0
 11
3.071609424199596
 21
7.612044845710711
 31
0.0
  0
LINE
  5
57B
330
1E
100
AcDbEntity
  8
OPTION-MODEL-ADJ-TNT
100
AcDbLine
 10
3.042226826987066
 20
7.548910412355851
 30
0.0
 11
3.057512763749862
 21
7.506912646264723
 31
0.0
  0
LINE
  5
57C
330
1E
100
AcDbEntity
  8
OPTION-MODEL-ADJ-TNT
100
AcDbLine
 10
3.074987058363379
 20
7.458902416393557
 30
0.0
 11
3.057512763749891
 21
7.506912646264641
 31
0.0
  0
LINE
  5
57D
330
1E
100
AcDbEntity
  8
OPTION-MODEL-ADJ-TNT
100
AcDbLine
 10
3.274989425388093
 20
7.493529036738648
 30
0.0
 11
3.262517248062911
 21
7.527796062310999
 31
0.0
  0
ARC
  5
57E
330
1E
100
AcDbEntity
  8
OPTION-MODEL-ADJ-TNT
100
AcDbCircle
 10
2.988263886545343
 20
7.679111621067779
 30
0.0
 40
0.0093674043106734
100
AcDbArc
 50
200.2542469033188
 51
288.7052099294372
  0
LINE
  5
57F
330
1E
100
AcDbEntity
  8
OPTION-MODEL-ADJ-TNT
100
AcDbLine
 10
2.954043507350998
 20
7.74479001859752
 30
0.0
 11
2.979475709326287
 21
7.675868751245213
 31
0.0
  0
LINE
  5
580
330
1E
100
AcDbEntity
  8
OPTION-MODEL-ADJ-TNT
100
AcDbLine
 10
2.99126800485969
 20
7.670238992557973
 30
0.0
 11
3.148661447939522
 21
7.723529685884278
 31
0.0
  0
LINE
  5
581
330
1E
100
AcDbEntity
  8
OPTION-MODEL-ADJ-TNT
100
AcDbLine
 10
3.227408575359189
 20
7.722533026999402
 30
0.0
 11
3.324450891735747
 21
7.756839016845287
 31
0.0
  0
ARC
  5
582
330
1E
100
AcDbEntity
  8
OPTION-MODEL-ADJ-TNT
100
AcDbCircle
 10
3.181912039960121
 20
7.509799739866791
 30
0.0
 40
0.2163009285563948
100
AcDbArc
 50
79.09073823730986
 51
98.84278602090821
  0
CIRCLE
  5
583
330
1E
100
AcDbEntity
  8
OPTION-MODEL-PJADJ-TNT
100
AcDbCircle
 10
3.605192018966071
 20
7.707370337537229
 30
0.0
 40
0.0297525025539914
  0
LINE
  5
584
330
1E
100
AcDbEntity
  8
OPTION-MODEL-PJADJ-TNT
100
AcDbLine
 10
3.367269641349541
 20
7.674657505884237
 30
0.0
 11
3.346676058288855
 21
7.731237910328967
 31
0.0
  0
LINE
  5
585
330
1E
100
AcDbEntity
  8
OPTION-MODEL-PJADJ-TNT
100
AcDbLine
 10
3.421233516949643
 20
7.526392976205807
 30
0.0
 11
3.401807978557654
 21
7.579764204299545
 31
0.0
  0
LINE
  5
586
330
1E
100
AcDbEntity
  8
OPTION-MODEL-PJADJ-TNT
100
AcDbLine
 10
3.231519501582406
 20
7.625248495711394
 30
0.0
 11
3.215152983308811
 21
7.670215135103187
 31
0.0
  0
LINE
  5
587
330
1E
100
AcDbEntity
  8
OPTION-MODEL-PJADJ-TNT
100
AcDbLine
 10
3.262103951224641
 20
7.528916096743071
 30
0.0
 11
3.281922045742826
 21
7.474466329557175
 31
0.0
  0
LINE
  5
588
330
1E
100
AcDbEntity
  8
OPTION-MODEL-PJADJ-TNT
100
AcDbLine
 10
3.123542552467503
 20
7.442122471799921
 30
0.0
 11
3.094587055111053
 21
7.521677046956041
 31
0.0
  0
ARC
  5
589
330
1E
100
AcDbEntity
  8
OPTION-MODEL-PJADJ-TNT
100
AcDbCircle
 10
3.132291466286421
 20
7.445306816011877
 30
0.0
 40
0.0093103996190156
100
AcDbArc
 50
200.0
 51
290.0
  0
LINE
  5
58A
330
1E
100
AcDbEntity
  8
OPTION-MODEL-PJADJ-TNT
100
AcDbLine
 10
3.20364554679209
 20
7.461369657082107
 30
0.0
 11
3.13547581049876
 21
7.436557902193355
 31
0.0
  0
ARC
  5
58B
330
1E
100
AcDbEntity
  8
OPTION-MODEL-PJADJ-TNT
100
AcDbCircle
 10
3.200461202579751
 20
7.470118570900496
 30
0.0
 40
0.0093103996190156
100
AcDbArc
 50
290.0
 51
20.00000000000001
  0
LINE
  5
58C
330
1E
100
AcDbEntity
  8
OPTION-MODEL-PJADJ-TNT
100
AcDbLine
 10
3.198003486774082
 20
7.504092876954505
 30
0.0
 11
3.209210116398656
 21
7.47330291511264
 31
0.0
  0
LINE
  5
58D
330
1E
100
AcDbEntity
  8
OPTION-MODEL-PJADJ-TNT
100
AcDbLine
 10
3.128403423468093
 20
7.436968881281032
 30
0.0
 11
3.107432317658956
 21
7.441276492794703
 31
0.0
  0
LINE
  5
58E
330
1E
100
AcDbEntity
  8
OPTION-MODEL-PJADJ-TNT
100
AcDbLine
 10
3.107432317658956
 20
7.441276492794703
 30
0.0
 11
3.056031779300584
 21
7.42256822680696
 31
0.0
  0
LINE
  5
58F
330
1E
100
AcDbEntity
  8
OPTION-MODEL-PJADJ-TNT
100
AcDbLine
 10
3.107432317658956
 20
7.441276492794703
 30
0.0
 11
3.08008946736906
 21
7.516400356549141
 31
0.0
  0
LINE
  5
590
330
1E
100
AcDbEntity
  8
OPTION-MODEL-PJADJ-TNT
100
AcDbLine
 10
3.111856223715506
 20
7.474230396163662
 30
0.0
 11
3.66030648924783
 21
7.673849967792946
 31
0.0
  0
LINE
  5
591
330
1E
100
AcDbEntity
  8
OPTION-MODEL-PJADJ-TNT
100
AcDbLine
 10
3.052746617079415
 20
7.591524220303712
 30
0.0
 11
3.08008946736906
 21
7.516400356549141
 31
0.0
  0
LINE
  5
592
330
1E
100
AcDbEntity
  8
OPTION-MODEL-PJADJ-TNT
100
AcDbLine
 10
3.052746617079415
 20
7.591524220303712
 30
0.0
 11
3.001346078720911
 21
7.572815954316101
 31
0.0
  0
LINE
  5
593
330
1E
100
AcDbEntity
  8
OPTION-MODEL-PJADJ-TNT
100
AcDbLine
 10
3.066042536842545
 20
7.60830400914256
 30
0.0
 11
3.052746617079415
 21
7.591524220303712
 31
0.0
  0
LINE
  5
594
330
1E
100
AcDbEntity
  8
OPTION-MODEL-PJADJ-TNT
100
AcDbLine
 10
3.077317886507269
 20
7.569123697748416
 30
0.0
 11
3.625768152039711
 21
7.768743269377704
 31
0.0
  0
LINE
  5
595
330
1E
100
AcDbEntity
  8
OPTION-MODEL-PJADJ-TNT
100
AcDbLine
 10
3.162985450437901
 20
7.600304141061268
 30
0.0
 11
3.151299121685368
 21
7.632412065424924
 31
0.0
  0
ARC
  5
596
330
1E
100
AcDbEntity
  8
OPTION-MODEL-PJADJ-TNT
100
AcDbCircle
 10
3.142550207866985
 20
7.629227721213039
 30
0.0
 40
0.0093103996190156
100
AcDbArc
 50
20.00000000000001
 51
109.9999999999999
  0
ARC
  5
597
330
1E
100
AcDbEntity
  8
OPTION-MODEL-PJADJ-TNT
100
AcDbCircle
 10
3.074380471573
 20
7.604415966324294
 30
0.0
 40
0.0093103996190156
100
AcDbArc
 50
110.0
 51
199.9999999999999
  0
LINE
  5
598
330
1E
100
AcDbEntity
  8
OPTION-MODEL-PJADJ-TNT
100
AcDbLine
 10
3.065631557754736
 20
7.601231622112019
 30
0.0
 11
3.094587055111053
 21
7.521677046956041
 31
0.0
  0
LINE
  5
599
330
1E
100
AcDbEntity
  8
OPTION-MODEL-PJADJ-TNT
100
AcDbLine
 10
3.139365863654639
 20
7.637976635031435
 30
0.0
 11
3.071196127361177
 21
7.613164880142816
 31
0.0
  0
LINE
  5
59A
330
1E
100
AcDbEntity
  8
OPTION-MODEL-PJADJ-TNT
100
AcDbLine
 10
3.041813530148645
 20
7.550030446787959
 30
0.0
 11
3.057099466911442
 21
7.508032680696828
 31
0.0
  0
LINE
  5
59B
330
1E
100
AcDbEntity
  8
OPTION-MODEL-PJADJ-TNT
100
AcDbLine
 10
3.074573761524959
 20
7.460022450825663
 30
0.0
 11
3.057099466911472
 21
7.508032680696748
 31
0.0
  0
LINE
  5
59C
330
1E
100
AcDbEntity
  8
OPTION-MODEL-PJADJ-TNT
100
AcDbLine
 10
3.578723976994115
 20
7.790978028626907
 30
0.0
 11
3.591373213954375
 21
7.756224535705207
 31
0.0
  0
LINE
  5
59D
330
1E
100
AcDbEntity
  8
OPTION-MODEL-PJADJ-TNT
100
AcDbLine
 10
3.281922045742826
 20
7.474466329557175
 30
0.0
 11
3.519087230023044
 21
7.560787397239487
 31
0.0
  0
LINE
  5
59E
330
1E
100
AcDbEntity
  8
OPTION-MODEL-PJADJ-TNT
100
AcDbLine
 10
3.20023814479955
 20
7.677938868650789
 30
0.0
 11
3.419897365830105
 21
7.757888286788045
 31
0.0
  0
LINE
  5
59F
330
1E
100
AcDbEntity
  8
OPTION-MODEL-PJADJ-TNT
100
AcDbLine
 10
3.464754827463544
 20
7.755389989936448
 30
0.0
 11
3.579939706175924
 21
7.797313857225343
 31
0.0
  0
LINE
  5
5A0
330
1E
100
AcDbEntity
  8
OPTION-MODEL-PJADJ-TNT
100
AcDbLine
 10
3.528379804114647
 20
7.580581803274286
 30
0.0
 11
3.643254428537688
 21
7.622392747236808
 31
0.0
  0
LINE
  5
5A1
330
1E
100
AcDbEntity
  8
OPTION-MODEL-PJADJ-TNT
100
AcDbLine
 10
3.584264284631188
 20
7.792897891655073
 30
0.0
 11
3.596882460795585
 21
7.758229737568633
 31
0.0
  0
LINE
  5
5A2
330
1E
100
AcDbEntity
  8
OPTION-MODEL-PJADJ-TNT
100
AcDbLine
 10
3.579655617875237
 20
7.797243509088366
 30
0.0
 11
3.576819271670016
 21
7.796211163495593
 31
0.0
  0
LWPOLYLINE
  5
5A3
330
1E
100
AcDbEntity
  8
OPTION-MODEL-PJADJ-TNT
100
AcDbPolyline
 90
        9
 70
     0
 43
0.0
 10
3.584264284631188
 20
7.792897891655073
 42
0.0532980038559412
 10
3.583293288510073
 20
7.794960029132409
 42
0.067150451979839
 10
3.58215290039732
 20
7.796368323862672
 42
0.1051220626661396
 10
3.580717395482508
 20
7.79724164930044
 42
0.16925323581754
 10
3.579655617875229
 20
7.797243509088364
 42
0.1692532358174911
 10
3.578822651170391
 20
7.796585070317664
 42
0.1051220626661549
 10
3.578235311297281
 20
7.795010775696523
 42
0.0671504519798502
 10
3.578210824692307
 20
7.793198821088598
 42
0.0532980038559271
 10
3.578723976994108
 20
7.790978028626929
 42
0.0532980038559388
  0
LWPOLYLINE
  5
5AE
330
1E
100
AcDbEntity
  8
OPTION-MODEL-PJADJ-TNT
100
AcDbPolyline
 90
        9
 70
     0
 43
0.0
 10
3.64401772904225
 20
7.628726652400755
 42
-0.0532980038559412
 10
3.64459941927928
 20
7.626522819169588
 42
-0.067150451979839
 10
3.644631065705904
 20
7.624710975468085
 42
-0.1051220626661396
 10
3.644092767913462
 20
7.623119244596564
 42
-0.16925323581754
 10
3.64328059452621
 20
7.622435322426159
 42
-0.1692532358174911
 10
3.642219268727123
 20
7.622404295110436
 42
-0.1051220626661549
 10
3.64075740320464
 20
7.623232739963686
 42
-0.0671504519798502
 10
3.639573943405682
 20
7.624605038035992
 42
-0.0532980038559271
 10
3.638539542996906
 20
7.626636111702055
 42
-0.0532980038559388
  0
LINE
  5
5B9
330
1E
100
AcDbEntity
  8
OPTION-MODEL-PJADJ-TNT
100
AcDbLine
 10
3.625768152039711
 20
7.768743269377704
 30
0.0
 11
3.66030648924783
 21
7.673849967792946
 31
0.0
  0
LINE
  5
5BA
330
1E
100
AcDbEntity
  8
OPTION-MODEL-PJADJ-TNT
100
AcDbLine
 10
2.919055525007984
 20
7.761706295227755
 30
0.0
 11
2.959226473106488
 21
7.772325897310933
 31
0.0
  0
LINE
  5
5BB
330
1E
100
AcDbEntity
  8
OPTION-MODEL-PJADJ-TNT
100
AcDbLine
 10
2.959226473106488
 20
7.772325897310933
 30
0.0
 11
3.440322568159514
 21
7.791027636084592
 31
0.0
  0
LINE
  5
5BC
330
1E
100
AcDbEntity
  8
OPTION-MODEL-PJADJ-TNT
100
AcDbLine
 10
3.455492084074951
 20
7.780839168238797
 30
0.0
 11
3.479298147185037
 21
7.715432547397753
 31
0.0
  0
ARC
  5
5BD
330
1E
100
AcDbEntity
  8
OPTION-MODEL-PJADJ-TNT
100
AcDbCircle
 10
3.440924735186438
 20
7.775537086851205
 30
0.0
 40
0.0155022488910585
100
AcDbArc
 50
20.0000000000077
 51
92.22614870978363
  0
LINE
  5
5BE
330
1E
100
AcDbEntity
  8
OPTION-MODEL-PJADJ-TNT
100
AcDbLine
 10
3.513836484393153
 20
7.620539245812985
 30
0.0
 11
3.528352497523964
 21
7.580656827515593
 31
0.0
  0
ARC
  5
5BF
330
1E
100
AcDbEntity
  8
OPTION-MODEL-PJADJ-TNT
100
AcDbCircle
 10
3.51378514863545
 20
7.575354746128001
 30
0.0
 40
0.0155022488910585
100
AcDbArc
 50
290.0000000000113
 51
20.00000000000753
  0
LINE
  5
5C0
330
1E
100
AcDbEntity
  8
OPTION-MODEL-PJADJ-TNT
100
AcDbLine
 10
2.941947800230729
 20
7.767758102943322
 30
0.0
 11
2.972199796998953
 21
7.679740000786937
 31
0.0
  0
TEXT
  5
5C1
330
1E
100
AcDbEntity
  8
OPTION-MODEL-PJADJ-TNT
100
AcDbText
 10
3.380987500616597
 20
7.598263103709404
 30
0.0
 40
0.0465067466731755
  1
35
 50
21.46890887505935
 41
1.25
  7
ROMANS
100
AcDbText
  0
LINE
  5
5C2
330
1E
100
AcDbEntity
  8
OPTION-MODEL-PJADJ-TNT
100
AcDbLine
 10
2.965888979759705
 20
7.634787632851926
 30
0.0
 11
3.11930542125431
 21
7.673538655846614
 31
0.0
  0
LINE
  5
5C3
330
1E
100
AcDbEntity
  8
OPTION-MODEL-PJADJ-TNT
100
AcDbLine
 10
3.175334226195231
 20
7.671151742725914
 30
0.0
 11
3.20023814479955
 21
7.677938868650789
 31
0.0
  0
LWPOLYLINE
  5
5C4
330
1E
100
AcDbEntity
  8
OPTION-MODEL-PJADJ-TNT
100
AcDbPolyline
 90
        2
 70
     0
 43
0.0
 10
3.11930542125431
 20
7.673538655846614
 42
-0.110055635441643
 10
3.175334226195231
 20
7.671151742725914
 42
0.2128814110670195
  0
ARC
  5
5C8
330
1E
100
AcDbEntity
  8
OPTION-MODEL-PJADJ-TNT
100
AcDbCircle
 10
3.203499104197999
 20
7.665973469993115
 30
0.0
 40
0.0124017991128468
100
AcDbArc
 50
20.00000000000076
 51
105.2447284014043
  0
LINE
  5
5C9
330
1E
100
AcDbEntity
  8
OPTION-MODEL-PJADJ-TNT
100
AcDbLine
 10
2.986965333010123
 20
7.671746914030604
 30
0.0
 11
3.111793895895006
 21
7.703277006005238
 31
0.0
  0
LWPOLYLINE
  5
5CA
330
1E
100
AcDbEntity
  8
OPTION-MODEL-PJADJ-TNT
100
AcDbPolyline
 90
        2
 70
     0
 43
0.0
 10
3.111793895895006
 20
7.703277006005238
 42
-0.0479352477872392
 10
3.179622937830043
 20
7.709337723250804
  0
ARC
  5
5CE
330
1E
100
AcDbEntity
  8
OPTION-MODEL-PJADJ-TNT
100
AcDbCircle
 10
2.983928185324531
 20
7.683771071180746
 30
0.0
 40
0.0124017991128468
100
AcDbArc
 50
198.9679476369624
 51
284.1756719652601
  0
LINE
  5
5CF
330
1E
100
AcDbEntity
  8
OPTION-MODEL-PJADJ-TNT
100
AcDbLine
 10
3.179622937830043
 20
7.709337723250804
 30
0.0
 11
3.415541878869894
 21
7.77382284431669
 31
0.0
  0
ARC
  5
5D0
330
1E
100
AcDbEntity
  8
OPTION-MODEL-PJADJ-TNT
100
AcDbCircle
 10
3.417719622349999
 20
7.765855565552367
 30
0.0
 40
0.0082595458454789
100
AcDbArc
 50
285.2875723875942
 51
105.2875723875942
  0
LINE
  5
5D1
330
1E
100
AcDbEntity
  8
OPTION-MODEL-PJADJ-TNT
100
AcDbLine
 10
3.631420798003635
 20
7.663336435983849
 30
0.0
 11
3.644131321124988
 21
7.628414560718416
 31
0.0
  0
LINE
  5
5D2
330
1E
100
AcDbEntity
  8
OPTION-MODEL-PJADJ-TNT
100
AcDbLine
 10
3.625911551162424
 20
7.661331234120423
 30
0.0
 11
3.638539542997003
 21
7.626636111701802
 31
0.0
  0
LINE
  5
5D3
330
1E
100
AcDbEntity
  8
IMAGE
100
AcDbLine
 10
2.727036041051518
 20
6.267979846092725
 30
0.0
 11
2.727019458328533
 21
6.136010934121682
 31
0.0
  0
LINE
  5
5D4
330
1E
100
AcDbEntity
  8
IMAGE
100
AcDbLine
 10
2.469368580702459
 20
6.267979846092725
 30
0.0
 11
2.469364513241045
 21
6.136010934121682
 31
0.0
  0
TEXT
  5
5D5
330
1E
100
AcDbEntity
  8
OPTION-MODEL-PJDA-TNT
100
AcDbText
 10
6.18217026
 20
7.72828095
 30
0.0
 40
0.125
  1
  RAIN BIRD 35A-PJDA-TNT
  7
SIMPLEX
100
AcDbText
  0
TEXT
  5
5D6
330
1E
100
AcDbEntity
  8
OPTION-MODEL-ADJ-TNT
100
AcDbText
 10
6.18217026
 20
7.72828095
 30
0.0
 40
0.125
  1
  RAIN BIRD 35A-ADJ-TNT
  7
SIMPLEX
100
AcDbText
  0
TEXT
  5
5D7
330
1E
100
AcDbEntity
  8
OPTION-MODEL-PJADJ-TNT
100
AcDbText
 10
6.18217026
 20
7.72828095
 30
0.0
 40
0.125
  1
  RAIN BIRD 35A-PJADJ-TNT
  7
SIMPLEX
100
AcDbText
  0
TEXT
  5
5DB
330
1E
100
AcDbEntity
  8
TEXT_LEADERS
100
AcDbText
 10
6.18217026
 20
7.287880059829587
 30
0.0
 40
0.125
  1
UV RADIATION RESISTANT
  7
SIMPLEX
100
AcDbText
  0
TEXT
  5
5DC
330
1E
100
AcDbEntity
  8
TEXT_LEADERS
100
AcDbText
 10
6.18217026
 20
7.112880059829588
 30
0.0
 40
0.125
  1
  PVC SCH 80 COUPLING
  7
SIMPLEX
100
AcDbText
  0
TEXT
  5
5DD
330
1E
100
AcDbEntity
  8
TEXT_BUBBLES
100
AcDbText
 10
6.18217026
 20
7.203280949999999
 30
0.0
 40
0.125
  1
  PVC SCH 80 COUPLING
  7
SIMPLEX
100
AcDbText
  0
TEXT
  5
5DE
330
1E
100
AcDbEntity
  8
TEXT_BUBBLES
100
AcDbText
 10
6.18217026
 20
7.378280949999999
 30
0.0
 40
0.125
  1
UV RADIATION RESISTANT
  7
SIMPLEX
100
AcDbText
  0
TEXT
  5
5E0
330
1E
100
AcDbEntity
  8
TEXT_BUBBLES
100
AcDbText
 10
5.822257295535506
 20
3.01024518263823
 30
0.0
 40
0.1
  1
11
  7
ROMANS
 72
     4
 11
5.910352533630744
 21
3.060245182638229
 31
0.0
100
AcDbText
  0
LINE
  5
5E1
330
1E
100
AcDbEntity
  8
IMAGE
100
AcDbLine
 10
1.284459871197426
 20
5.250600666228827
 30
0.0
 11
2.251830910513434
 21
5.250600666228785
 31
0.0
  0
TEXT
  5
5E5
330
1E
100
AcDbEntity
  8
TEXT_BUBBLES
100
AcDbText
 10
4.091411806716436
 20
6.833453302874205
 30
0.0
 40
0.1
  1
2
 41
1.25
  7
ROMANS
 72
     4
 11
4.150935616240245
 21
6.883453302874205
 31
0.0
100
AcDbText
  0
TEXT
  5
5E7
330
1E
100
AcDbEntity
  8
INSTRUCT-OPTION
100
AcDbText
 10
11.42435703707179
 20
6.138472527443777
 30
0.0
 40
0.125
  1
   OPTION-MODEL-PJDA-TNT
  7
ROMANS
100
AcDbText
  0
TEXT
  5
5E8
330
1E
100
AcDbEntity
  8
INSTRUCT-OPTION
100
AcDbText
 10
11.42435703707179
 20
5.976572722374777
 30
0.0
 40
0.125
  1
   OPTION-MODEL-ADJ-TNT
  7
ROMANS
100
AcDbText
  0
TEXT
  5
5EC
330
1E
100
AcDbEntity
  8
INSTRUCT-OPTION
100
AcDbText
 10
12.2399861818259
 20
7.322084558928466
 30
0.0
 40
0.125
  1
CHOOSING SPRINKLER MODEL
  7
ROMANS
100
AcDbText
  0
TEXT
  5
5F3
330
1E
100
AcDbEntity
  8
INSTRUCT-OPTION
100
AcDbText
 10
11.33909205306559
 20
5.42598713126775
 30
0.0
 40
0.125
  1
TO TURN OFF THIS INSTRUCTION BOX, TURN OFF
  7
ROMANS
100
AcDbText
  0
TEXT
  5
5F4
330
1E
100
AcDbEntity
  8
INSTRUCT-OPTION
100
AcDbText
 10
11.33909205306559
 20
5.216677523660035
 30
0.0
 40
0.125
  1
LAYER "INSTRUCT-OPTION".
  7
ROMANS
100
AcDbText
  0
TEXT
  5
5F6
330
1E
100
AcDbEntity
  8
INSTRUCT-OPTION
100
AcDbText
 10
11.42435703707179
 20
6.300372332512777
 30
0.0
 40
0.125
  1
   OPTION-MODEL-TNT
  7
ROMANS
100
AcDbText
  0
TEXT
  5
5F7
330
1E
100
AcDbEntity
  8
INSTRUCT-OPTION
100
AcDbText
 10
11.42435703707179
 20
5.814672917305777
 30
0.0
 40
0.125
  1
   OPTION-MODEL-PJADJ-TNT
  7
ROMANS
100
AcDbText
  0
LINE
  5
5F9
330
1E
100
AcDbEntity
  8
IMAGE
100
AcDbLine
 10
2.516969629553582
 20
6.516756544269665
 30
0.0
 11
2.681033495214887
 21
6.516798895090818
 31
0.0
  0
LWPOLYLINE
  5
5FA
330
1E
100
AcDbEntity
  8
IMAGE
100
AcDbPolyline
 90
        2
 70
     0
 43
0.0
 10
2.251830910513434
 20
2.932343040386911
 10
2.465826452153192
 20
2.932343040386911
  0
HATCH
  5
615
330
1E
100
AcDbEntity
  8
IMAGE
100
AcDbHatch
 10
0.0
 20
0.0
 30
0.0
210
0.0
220
0.0
230
1.0
  2
EARTH
 70
     0
 71
     0
 91
        2
 92
        7
 72
     0
 73
     1
 93
        7
 10
2.251830910513434
 20
5.250600666228786
 10
1.310347793601615
 20
5.250600666228827
 10
1.396873820406288
 20
4.98343287234808
 10
1.598767908673567
 20
4.884589169608222
 10
1.887188023745517
 20
4.85164128546442
 10
2.173116888212485
 20
4.863607728786321
 10
2.251830910513433
 20
4.872366329272134
 97
        0
 92
        7
 72
     0
 73
     1
 93
        6
 10
3.433113009520934
 20
5.171865736644276
 10
3.495701754992234
 20
5.252550738287467
 10
2.70788893736765
 20
5.252550738287467
 10
2.70788893736765
 20
5.006499246253266
 10
3.065934903887022
 20
5.080321714501499
 10
3.38053846178166
 20
5.141836245670882
 97
        0
 75
     0
 76
     1
 52
45.0
 41
0.65
 77
     0
 78
     6
 53
45.0
 43
0.9221702640143512
 44
1.323280947282564
 45
0.0
 46
0.229809703885628
 79
     2
 49
0.1625
 49
-0.1625
 53
45.0
 43
0.8790809445357957
 44
1.366370266761119
 45
0.0
 46
0.229809703885628
 79
     2
 49
0.1625
 49
-0.1625
 53
45.0
 43
0.8359916250572407
 44
1.409459586239675
 45
0.0
 46
0.229809703885628
 79
     2
 49
0.1625
 49
-0.1625
 53
135.0
 43
0.8359916250572407
 44
1.438185799225378
 45
-0.2298097038856279
 46
0.0
 79
     2
 49
0.1625
 49
-0.1625
 53
135.0
 43
0.8790809445357957
 44
1.481275118703933
 45
-0.2298097038856279
 46
0.0
 79
     2
 49
0.1625
 49
-0.1625
 53
135.0
 43
0.9221702640143512
 44
1.524364438182488
 45
-0.2298097038856279
 46
0.0
 79
     2
 49
0.1625
 49
-0.1625
 47
0.0045145454520329
 98
        2
 10
1.872119094509993
 20
5.040507154587675
 10
2.915434753037634
 20
5.166914429327631
  0
INSERT
  5
62B
330
1E
100
AcDbEntity
  8
TITLE
100
AcDbBlockReference
 66
     1
  2
titleblock
 10
0.0
 20
0.5198375905101511
 30
0.0
  0
ATTRIB
  5
62C
330
62B
100
AcDbEntity
  8
TITLE
100
AcDbText
 10
0.4797525910084789
 20
0.8737369840422019
 30
0.0
 40
0.2
  1
D
  7
L200
 72
     4
 11
0.5806393577206208
 21
0.9737369840422021
 31
0.0
100
AcDbAttribute
  2
D
 70
     0
  0
ATTRIB
  5
62D
330
62B
100
AcDbEntity
  8
TITLE
100
AcDbText
 10
1.20563935772062
 20
1.433222190310585
 30
0.0
 40
0.2
  1

  7
L200
100
AcDbAttribute
  2
TITLE1
 70
     0
  0
ATTRIB
  5
62E
330
62B
100
AcDbEntity
  8
TITLE
100
AcDbText
 10
1.20563935772062
 20
1.073736984042202
 30
0.0
 40
0.2
  1
FULL OR PART-CIRCLE IMPACT SPRINKLER
  7
L200
100
AcDbAttribute
  2
TITLE2
 70
     0
  0
ATTRIB
  5
62F
330
62B
100
AcDbEntity
  8
TITLE
100
AcDbText
 10
2.687842738374449
 20
0.6823026540221538
 30
0.0
 40
0.2
  1
35A-TNT
  7
L200
100
AcDbAttribute
  2
TITLE3
 70
     0
  0
ATTRIB
  5
630
330
62B
100
AcDbEntity
  8
TITLE
100
AcDbText
 10
2.687842738374449
 20
0.3587659683806089
 30
0.0
 40
0.2
  1

  7
L200
100
AcDbAttribute
  2
TITLE4
 70
     0
  0
ATTRIB
  5
631
330
62B
100
AcDbEntity
  8
TITLE
 62
     7
100
AcDbText
 10
7.587602293362992
 20
1.059112679108474
 30
0.0
 40
0.08
  1
01-09-04
  7
L80
 72
     2
 11
8.23522134098204
 21
1.059112679108474
 31
0.0
100
AcDbAttribute
  2
REVISED
 70
     0
  0
ATTRIB
  5
632
330
62B
100
AcDbEntity
  8
TITLE
 62
     7
100
AcDbText
 10
0.2381393577206206
 20
0.1742215355845561
 30
0.0
 40
0.08
  1
I-35A-TNT.dwg
  7
L80
100
AcDbAttribute
  2
DWG-NAME
 70
     0
  0
ATTRIB
  5
633
330
62B
100
AcDbEntity
  8
TITLE
 62
     7
100
AcDbText
 10
1.20563935772062
 20
0.7900736669593243
 30
0.0
 40
0.1
  1
N.T.S.
  7
L100
100
AcDbAttribute
  2
SCALE
 70
     0
  0
SEQEND
  5
634
330
62B
100
AcDbEntity
  8
IMAGE
  0
LWPOLYLINE
  5
648
330
1E
100
AcDbEntity
  8
INSTRUCT-CALLOUT
100
AcDbPolyline
 90
        4
 70
     1
 43
0.0
 10
11.32650979340528
 20
9.709672297053682
 10
11.32650979340528
 20
8.278186275711441
 10
16.16419698720613
 20
8.278186275711441
 10
16.16419698720613
 20
9.709672297053682
  0
TEXT
  5
649
330
1E
100
AcDbEntity
  8
INSTRUCT-CALLOUT
100
AcDbText
 10
11.65710221334731
 20
9.766787787770883
 30
0.0
 40
0.125
  1
CHOOSING EQUIPMENT CALLOUT METHOD
  7
ROMANS
100
AcDbText
  0
TEXT
  5
64A
330
1E
100
AcDbEntity
  8
INSTRUCT-CALLOUT
100
AcDbText
 10
11.42435244430058
 20
9.392676724295998
 30
0.0
 40
0.125
  1
CHOOSE EITHER LEADERS OR BUBBLE CALLOUTS
  7
ROMANS
100
AcDbText
  0
TEXT
  5
64B
330
1E
100
AcDbEntity
  8
INSTRUCT-CALLOUT
100
AcDbText
 10
11.42435244430058
 20
9.230776680809
 30
0.0
 40
0.125
  1
BY TURNING ON THE APPROPRIATE LAYER:
  7
ROMANS
100
AcDbText
  0
TEXT
  5
64C
330
1E
100
AcDbEntity
  8
INSTRUCT-CALLOUT
100
AcDbText
 10
11.86069617656341
 20
8.893759386333822
 30
0.0
 40
0.125
  1
TEXT_LEADERS         TEXT_BUBBLES
  7
ROMANS
100
AcDbText
  0
LINE
  5
64D
330
1E
100
AcDbEntity
  8
INSTRUCT-CALLOUT
100
AcDbLine
 10
12.1678208285202
 20
8.641288132632208
 30
0.0
 11
12.30408937437883
 21
8.641288132632208
 31
0.0
  0
LINE
  5
64E
330
1E
100
AcDbEntity
  8
INSTRUCT-CALLOUT
100
AcDbLine
 10
11.88005041404187
 20
8.521536430825925
 30
0.0
 11
12.1678208285202
 21
8.641288132632208
 31
0.0
  0
SOLID
  5
64F
330
1E
100
AcDbEntity
  8
INSTRUCT-CALLOUT
100
AcDbTrace
 10
11.9654364115822
 20
8.524574756687815
 30
0.0
 11
11.94238452669047
 21
8.579969798008661
 31
0.0
 12
11.7877253451738
 22
8.483116622673037
 32
0.0
 13
11.7877253451738
 23
8.483116622673037
 33
0.0
  0
TEXT
  5
650
330
1E
100
AcDbEntity
  8
INSTRUCT-CALLOUT
100
AcDbText
 10
12.33006411139595
 20
8.576537523238307
 30
0.0
 40
0.125
  1
ITEM 1
  7
ROMANS
100
AcDbText
  0
SOLID
  5
651
330
1E
100
AcDbEntity
  8
INSTRUCT-CALLOUT
100
AcDbTrace
 10
14.10790573963163
 20
8.538000791239213
 30
0.0
 11
14.12370803328597
 21
8.480119123024984
 31
0.0
 12
13.94216188181611
 22
8.461653076169081
 32
0.0
 13
13.94216188181611
 23
8.461653076169081
 33
0.0
  0
LINE
  5
652
330
1E
100
AcDbEntity
  8
INSTRUCT-CALLOUT
100
AcDbLine
 10
14.03863132883983
 20
8.487990232259647
 30
0.0
 11
14.29451274576467
 21
8.557848503724265
 31
0.0
  0
TEXT
  5
653
330
1E
100
AcDbEntity
  8
INSTRUCT-CALLOUT
100
AcDbText
 10
14.36450431644908
 20
8.528269948837472
 30
0.0
 40
0.125
  1
1
  7
ROMANS
 72
     4
 11
14.41509955454431
 21
8.590769948837472
 31
0.0
100
AcDbText
  0
CIRCLE
  5
654
330
1E
100
AcDbEntity
  8
INSTRUCT-CALLOUT
100
AcDbCircle
 10
14.41509955454431
 20
8.590769948837472
 30
0.0
 40
0.125
  0
TEXT
  5
655
330
1E
100
AcDbEntity
  8
INSTRUCT-CALLOUT
100
AcDbText
 10
11.36553714062238
 20
7.926958218976029
 30
0.0
 40
0.125
  1
LAYER "INSTRUCT-CALLOUT".
  7
ROMANS
100
AcDbText
  0
TEXT
  5
656
330
1E
100
AcDbEntity
  8
INSTRUCT-CALLOUT
100
AcDbText
 10
11.36553714062238
 20
8.088858262464029
 30
0.0
 40
0.125
  1
TO TURN OFF THIS INSTRUCTION BOX, TURN OFF
  7
ROMANS
100
AcDbText
  0
LWPOLYLINE
  5
65D
330
1E
100
AcDbEntity
  8
INSTRUCT-OPTION
100
AcDbPolyline
 90
        4
 70
     1
 43
0.0
 10
11.32650979340528
 20
7.278186275711441
 10
11.32650979340528
 20
5.604924442055487
 10
16.38826324698424
 20
5.604924442055487
 10
16.38826324698424
 20
7.278186275711441
  0
TEXT
  5
668
330
1E
100
AcDbEntity
  8
INSTRUCT-OPTION
100
AcDbText
 10
11.42435703707179
 20
6.992801700001515
 30
0.0
 40
0.125
  1
%%uSPRINKLER
  7
ROMANS
100
AcDbText
  0
TEXT
  5
669
330
1E
100
AcDbEntity
  8
INSTRUCT-OPTION
100
AcDbText
 10
11.42435703707179
 20
6.624172657906777
 30
0.0
 40
0.125
  1
MODELS BY TURNING ON THE APPROPRIATE LAYER:
  7
ROMANS
100
AcDbText
  0
TEXT
  5
66A
330
1E
100
AcDbEntity
  8
INSTRUCT-OPTION
100
AcDbText
 10
11.42435244430058
 20
6.786069084854519
 30
0.0
 40
0.125
  1
CHOOSE ONE OF THE FOLLOWING SPRINKLER
  7
ROMANS
100
AcDbText
  0
LEADER
  5
67E
330
1E
100
AcDbEntity
  8
TEXT_LEADERS
100
AcDbLeader
  3
Standard
 76
     3
 10
2.737342727500598
 20
7.035554541552389
 30
0.0
 10
5.01492764923481
 20
7.955758581499714
 30
0.0
 10
6.077246077816383
 20
7.955758581499714
 30
0.0
1001
ACAD
1000
DSTYLE
1002
{
1070
   147
1040
0.09
1070
    77
1070
     0
1070
   279
1070
     2
1002
}
  0
LEADER
  5
67F
330
1E
100
AcDbEntity
  8
TEXT_LEADERS
100
AcDbLeader
  3
Standard
 76
     3
 10
2.727056617070012
 20
6.431728271237767
 30
0.0
 10
5.01492764923481
 20
7.356088169560872
 30
0.0
 10
6.077246077816383
 20
7.356088169560872
 30
0.0
1001
ACAD
1000
DSTYLE
1002
{
1070
   147
1040
0.09
1070
    77
1070
     0
1070
   279
1070
     2
1002
}
  0
LEADER
  5
680
330
1E
100
AcDbEntity
  8
TEXT_LEADERS
100
AcDbLeader
  3
Standard
 76
     3
 10
3.600103917500864
 20
5.906567583812567
 30
0.0
 10
5.01492764923481
 20
6.478193476367031
 30
0.0
 10
6.077246077816383
 20
6.478193476367031
 30
0.0
1001
ACAD
1000
DSTYLE
1002
{
1070
   147
1040
0.09
1070
    77
1070
     0
1070
   279
1070
     2
1002
}
  0
LEADER
  5
681
330
1E
100
AcDbEntity
  8
TEXT_LEADERS
100
AcDbLeader
  3
Standard
 76
     3
 10
3.563173963642377
 20
5.252550738287466
 30
0.0
 10
5.01492764923481
 20
5.839097300719654
 30
0.0
 10
6.077246077816383
 20
5.839097300719654
 30
0.0
1001
ACAD
1000
DSTYLE
1002
{
1070
   147
1040
0.09
1070
    77
1070
     0
1070
   279
1070
     2
1002
}
  0
LEADER
  5
682
330
1E
100
AcDbEntity
  8
TEXT_LEADERS
100
AcDbLeader
  3
Standard
 76
     3
 10
2.70788893736765
 20
4.71809635725968
 30
0.0
 10
5.01492764923481
 20
5.650200500870959
 30
0.0
 10
6.077246077816383
 20
5.650200500870959
 30
0.0
1001
ACAD
1000
DSTYLE
1002
{
1070
   147
1040
0.09
1070
    77
1070
     0
1070
   279
1070
     2
1002
}
  0
LEADER
  5
683
330
1E
100
AcDbEntity
  8
TEXT_LEADERS
100
AcDbLeader
  3
Standard
 76
     3
 10
2.85716343287738
 20
4.429467697641723
 30
0.0
 10
4.442874430008799
 20
5.047718456612262
 30
0.0
 10
6.077246077816383
 20
5.047718456612262
 30
0.0
1001
ACAD
1000
DSTYLE
1002
{
1070
   147
1040
0.09
1070
    77
1070
     0
1070
   279
1070
     2
1002
}
  0
LEADER
  5
684
330
1E
100
AcDbEntity
  8
TEXT_LEADERS
100
AcDbLeader
  3
Standard
 76
     3
 10
3.658820079108937
 20
4.246573694354554
 30
0.0
 10
5.01492764923481
 20
4.794476717738988
 30
0.0
 10
6.077246077816383
 20
4.794476717738988
 30
0.0
1001
ACAD
1000
DSTYLE
1002
{
1070
   147
1040
0.09
1070
    77
1070
     0
1070
   279
1070
     2
1002
}
  0
LEADER
  5
685
330
1E
100
AcDbEntity
  8
TEXT_LEADERS
100
AcDbLeader
  3
Standard
 76
     3
 10
4.666546042415143
 20
3.851694540848776
 30
0.0
 10
5.01492764923481
 20
3.650556326370726
 30
0.0
 10
6.077246077816383
 20
3.650556326370726
 30
0.0
1001
ACAD
1000
DSTYLE
1002
{
1070
   147
1040
0.09
1070
    77
1070
     0
1070
   279
1070
     2
1002
}
  0
LEADER
  5
686
330
1E
100
AcDbEntity
  8
TEXT_LEADERS
100
AcDbLeader
  3
Standard
 76
     3
 10
4.315983384612035
 20
3.768488088109654
 30
0.0
 10
5.01492764923481
 20
3.364952428781149
 30
0.0
 10
6.077246077816383
 20
3.364952428781149
 30
0.0
1001
ACAD
1000
DSTYLE
1002
{
1070
   147
1040
0.09
1070
    77
1070
     0
1070
   279
1070
     2
1002
}
  0
LEADER
  5
687
330
1E
100
AcDbEntity
  8
TEXT_LEADERS
100
AcDbLeader
  3
Standard
 76
     3
 10
3.831065414683741
 20
3.797636482559227
 30
0.0
 10
5.014927649234809
 20
3.114066968999606
 30
0.0
 10
6.077246077816383
 20
3.114066968999606
 30
0.0
1001
ACAD
1000
DSTYLE
1002
{
1070
   147
1040
0.09
1070
    77
1070
     0
1070
   279
1070
     2
1002
}
  0
LEADER
  5
688
330
1E
100
AcDbEntity
  8
TEXT_LEADERS
100
AcDbLeader
  3
Standard
 76
     3
 10
2.663261598256877
 20
4.251882098067979
 30
0.0
 10
5.01492764923481
 20
2.894147070491762
 30
0.0
 10
6.077246077816383
 20
2.894147070491762
 30
0.0
1001
ACAD
1000
DSTYLE
1002
{
1070
   147
1040
0.09
1070
    77
1070
     0
1070
   279
1070
     2
1002
}
  0
LEADER
  5
689
330
1E
100
AcDbEntity
  8
TEXT_LEADERS
100
AcDbLeader
  3
Standard
 76
     3
 10
2.465826452153192
 20
3.998725559785794
 30
0.0
 10
4.744557942729299
 20
2.683099320290798
 30
0.0
 10
6.077246077816383
 20
2.683099320290798
 30
0.0
1001
ACAD
1000
DSTYLE
1002
{
1070
   147
1040
0.09
1070
    77
1070
     0
1070
   279
1070
     2
1002
}
  0
LEADER
  5
6B5
330
1E
100
AcDbEntity
  8
TEXT_BUBBLES
100
AcDbLeader
  3
Standard
 76
     2
 10
2.730240300882416
 20
7.045105541875944
 30
0.0
 10
3.994685583098791
 20
7.540056005290741
 30
0.0
1001
ACAD
1000
DSTYLE
1002
{
1070
   147
1040
0.09
1070
    77
1070
     0
1070
   279
1070
     2
1002
}
  0
LEADER
  5
6B6
330
1E
100
AcDbEntity
  8
TEXT_BUBBLES
100
AcDbLeader
  3
Standard
 76
     2
 10
2.727051023608299
 20
6.387214287799203
 30
0.0
 10
3.994685583098791
 20
6.883453302874205
 30
0.0
1001
ACAD
1000
DSTYLE
1002
{
1070
   147
1040
0.09
1070
    77
1070
     0
1070
   279
1070
     2
1002
}
  0
LEADER
  5
6B7
330
1E
100
AcDbEntity
  8
TEXT_BUBBLES
100
AcDbLeader
  3
Standard
 76
     2
 10
3.600103917500864
 20
5.906567583812565
 30
0.0
 10
3.994685583098791
 20
6.050070333213696
 30
0.0
1001
ACAD
1000
DSTYLE
1002
{
1070
   147
1040
0.09
1070
    77
1070
     0
1070
   279
1070
     2
1002
}
  0
LEADER
  5
6B8
330
1E
100
AcDbEntity
  8
TEXT_BUBBLES
100
AcDbLeader
  3
Standard
 76
     2
 10
3.563173963642376
 20
5.252550738287466
 30
0.0
 10
3.994685583098791
 20
5.410974157566307
 30
0.0
1001
ACAD
1000
DSTYLE
1002
{
1070
   147
1040
0.09
1070
    77
1070
     0
1070
   279
1070
     2
1002
}
  0
LEADER
  5
6B9
330
1E
100
AcDbEntity
  8
TEXT_BUBBLES
100
AcDbLeader
  3
Standard
 76
     2
 10
2.70788893736765
 20
4.800467410990081
 30
0.0
 10
3.086317815541996
 20
4.978548811800714
 30
0.0
1001
ACAD
1000
DSTYLE
1002
{
1070
   147
1040
0.09
1070
    77
1070
     0
1070
   279
1070
     2
1002
}
  0
LEADER
  5
6BA
330
1E
100
AcDbEntity
  8
TEXT_BUBBLES
100
AcDbLeader
  3
Standard
 76
     2
 10
2.727762872467997
 20
4.509266974973895
 30
0.0
 10
3.086317815541996
 20
4.62936116118545
 30
0.0
1001
ACAD
1000
DSTYLE
1002
{
1070
   147
1040
0.09
1070
    77
1070
     0
1070
   279
1070
     2
1002
}
  0
LEADER
  5
6BB
330
1E
100
AcDbEntity
  8
TEXT_BUBBLES
100
AcDbLeader
  3
Standard
 76
     2
 10
2.757449040443765
 20
4.200050994373265
 30
0.0
 10
3.216171181045837
 20
3.220923887939548
 30
0.0
1001
ACAD
1000
DSTYLE
1002
{
1070
   147
1040
0.09
1070
    77
1070
     0
1070
   279
1070
     2
1002
}
  0
LEADER
  5
6BC
330
1E
100
AcDbEntity
  8
TEXT_BUBBLES
100
AcDbLeader
  3
Standard
 76
     2
 10
2.465826452153191
 20
3.604372631727196
 30
0.0
 10
2.683878912083707
 20
3.220923887939548
 30
0.0
1001
ACAD
1000
DSTYLE
1002
{
1070
   147
1040
0.09
1070
    77
1070
     0
1070
   279
1070
     2
1002
}
  0
LEADER
  5
6BD
330
1E
100
AcDbEntity
  8
TEXT_BUBBLES
100
AcDbLeader
  3
Standard
 76
     2
 10
3.63896324569389
 20
4.026521134036805
 30
0.0
 10
4.027574771754521
 20
3.220923887939548
 30
0.0
1001
ACAD
1000
DSTYLE
1002
{
1070
   147
1040
0.09
1070
    77
1070
     0
1070
   279
1070
     2
1002
}
  0
LEADER
  5
6BE
330
1E
100
AcDbEntity
  8
TEXT_BUBBLES
100
AcDbLeader
  3
Standard
 76
     2
 10
4.390902140237749
 20
3.853661904550217
 30
0.0
 10
4.709674004208141
 20
3.220923887939548
 30
0.0
1001
ACAD
1000
DSTYLE
1002
{
1070
   147
1040
0.09
1070
    77
1070
     0
1070
   279
1070
     2
1002
}
  0
LEADER
  5
6BF
330
1E
100
AcDbEntity
  8
TEXT_BUBBLES
100
AcDbLeader
  3
Standard
 76
     2
 10
4.795525055533454
 20
3.768488088109653
 30
0.0
 10
5.079884463907387
 20
3.220923887939548
 30
0.0
1001
ACAD
1000
DSTYLE
1002
{
1070
   147
1040
0.09
1070
    77
1070
     0
1070
   279
1070
     2
1002
}
  0
LEADER
  5
6C0
330
1E
100
AcDbEntity
  8
TEXT_BUBBLES
100
AcDbLeader
  3
Standard
 76
     2
 10
5.103652764771274
 20
3.799521915126071
 30
0.0
 10
5.400550653147874
 20
3.220923887939548
 30
0.0
1001
ACAD
1000
DSTYLE
1002
{
1070
   147
1040
0.09
1070
    77
1070
     0
1070
   279
1070
     2
1002
}
  0
CIRCLE
  5
6DC
330
1E
100
AcDbEntity
  8
TEXT_BUBBLES
100
AcDbCircle
 10
5.910352533630744
 20
7.960245182638219
 30
0.0
 40
0.1562500331414542
  0
CIRCLE
  5
6DD
330
1E
100
AcDbEntity
  8
TEXT_BUBBLES
100
AcDbCircle
 10
5.910352533630744
 20
7.435245182638219
 30
0.0
 40
0.1562500331414542
  0
CIRCLE
  5
6DE
330
1E
100
AcDbEntity
  8
TEXT_BUBBLES
100
AcDbCircle
 10
5.910352533630744
 20
6.910245182638219
 30
0.0
 40
0.1562500331414542
  0
CIRCLE
  5
6DF
330
1E
100
AcDbEntity
  8
TEXT_BUBBLES
100
AcDbCircle
 10
5.910352533630744
 20
6.560245182638219
 30
0.0
 40
0.1562500331414542
  0
CIRCLE
  5
6E0
330
1E
100
AcDbEntity
  8
TEXT_BUBBLES
100
AcDbCircle
 10
5.910352533630744
 20
6.210245182638219
 30
0.0
 40
0.1562500331414542
  0
CIRCLE
  5
6E1
330
1E
100
AcDbEntity
  8
TEXT_BUBBLES
100
AcDbCircle
 10
5.910352533630744
 20
5.510245182638219
 30
0.0
 40
0.1562500331414542
  0
CIRCLE
  5
6E2
330
1E
100
AcDbEntity
  8
TEXT_BUBBLES
100
AcDbCircle
 10
5.910352533630744
 20
5.160245182638219
 30
0.0
 40
0.1562500331414542
  0
CIRCLE
  5
6E4
330
1E
100
AcDbEntity
  8
TEXT_BUBBLES
100
AcDbCircle
 10
5.910352533630744
 20
4.285245182638219
 30
0.0
 40
0.1562500331414542
  0
CIRCLE
  5
6E5
330
1E
100
AcDbEntity
  8
TEXT_BUBBLES
100
AcDbCircle
 10
5.910352533630744
 20
3.935245182638219
 30
0.0
 40
0.1562500331414542
  0
CIRCLE
  5
6E6
330
1E
100
AcDbEntity
  8
TEXT_BUBBLES
100
AcDbCircle
 10
5.910352533630744
 20
3.410245182638218
 30
0.0
 40
0.1562500331414542
  0
CIRCLE
  5
6E7
330
1E
100
AcDbEntity
  8
TEXT_BUBBLES
100
AcDbCircle
 10
5.910352533630744
 20
3.060245182638229
 30
0.0
 40
0.1562500331414542
  0
CIRCLE
  5
6E8
330
1E
100
AcDbEntity
  8
TEXT_BUBBLES
100
AcDbCircle
 10
5.400550653147874
 20
3.064673854798094
 30
0.0
 40
0.1562500331414542
  0
CIRCLE
  5
6E9
330
1E
100
AcDbEntity
  8
TEXT_BUBBLES
100
AcDbCircle
 10
5.079884463907387
 20
3.064673854798094
 30
0.0
 40
0.1562500331414542
  0
CIRCLE
  5
6EA
330
1E
100
AcDbEntity
  8
TEXT_BUBBLES
100
AcDbCircle
 10
4.709674004208141
 20
3.064673854798094
 30
0.0
 40
0.1562500331414542
  0
CIRCLE
  5
6EB
330
1E
100
AcDbEntity
  8
TEXT_BUBBLES
100
AcDbCircle
 10
4.027574771754521
 20
3.064673854798094
 30
0.0
 40
0.1562500331414542
  0
CIRCLE
  5
6EC
330
1E
100
AcDbEntity
  8
TEXT_BUBBLES
100
AcDbCircle
 10
3.216171181045837
 20
3.064673854798094
 30
0.0
 40
0.1562500331414542
  0
CIRCLE
  5
6ED
330
1E
100
AcDbEntity
  8
TEXT_BUBBLES
100
AcDbCircle
 10
2.683878912083707
 20
3.064673854798094
 30
0.0
 40
0.1562500331414542
  0
CIRCLE
  5
6EE
330
1E
100
AcDbEntity
  8
TEXT_BUBBLES
100
AcDbCircle
 10
3.24256784868345
 20
4.62936116118545
 30
0.0
 40
0.1562500331414542
  0
CIRCLE
  5
6EF
330
1E
100
AcDbEntity
  8
TEXT_BUBBLES
100
AcDbCircle
 10
3.24256784868345
 20
4.978548811800714
 30
0.0
 40
0.1562500331414542
  0
CIRCLE
  5
6F0
330
1E
100
AcDbEntity
  8
TEXT_BUBBLES
100
AcDbCircle
 10
4.150935616240245
 20
5.410974157566307
 30
0.0
 40
0.1562500331414542
  0
CIRCLE
  5
6F1
330
1E
100
AcDbEntity
  8
TEXT_BUBBLES
100
AcDbCircle
 10
4.150935616240245
 20
6.050070333213696
 30
0.0
 40
0.1562500331414542
  0
CIRCLE
  5
6F2
330
1E
100
AcDbEntity
  8
TEXT_BUBBLES
100
AcDbCircle
 10
4.150935616240245
 20
6.883453302874205
 30
0.0
 40
0.1562500331414542
  0
CIRCLE
  5
6F3
330
1E
100
AcDbEntity
  8
TEXT_BUBBLES
100
AcDbCircle
 10
4.150935616240245
 20
7.540056005290741
 30
0.0
 40
0.1562500331414542
  0
VIEWPORT
  5
B3
330
1A
100
AcDbEntity
 67
     1
  8
0
100
AcDbViewport
 10
6.172388059701492
 20
4.5
 30
0.0
 40
12.34477611940298
 41
9.0
 68
     1
 69
     1
 12
6.172388059701492
 22
4.5
 13
0.0
 23
0.0
 14
0.14
 24
0.14
 15
0.14
 25
0.14
 16
0.0
 26
0.0
 36
1.0
 17
0.0
 27
0.0
 37
0.0
 42
50.0
 43
0.0
 44
0.0
 45
9.0
 50
0.0
 51
0.0
 72
   100
 90
    32800
  1

281
     0
 71
     0
 74
     0
110
0.0
120
0.0
130
0.0
111
0.0
121
0.0
131
0.0
112
0.0
122
0.0
132
0.0
 79
     0
146
0.0
  0
ENDSEC
  0
SECTION
  2
OBJECTS
  0
DICTIONARY
  5
C
330
0
100
AcDbDictionary
281
     1
  3
ACAD_GROUP
350
D
  3
ACAD_LAYOUT
350
19
  3
ACAD_MLINESTYLE
350
16
  3
ACAD_PLOTSETTINGS
350
18
  3
ACAD_PLOTSTYLENAME
350
E
  3
AcadDim
350
6B3
  3
AcDbVariableDictionary
350
601
  0
DICTIONARY
  5
D
102
{ACAD_REACTORS
330
C
102
}
330
C
100
AcDbDictionary
281
     1
  0
DICTIONARY
  5
19
102
{ACAD_REACTORS
330
C
102
}
330
C
100
AcDbDictionary
281
     1
  3
Layout1
350
1D
  3
Model
350
21
  0
DICTIONARY
  5
16
102
{ACAD_REACTORS
330
C
102
}
330
C
100
AcDbDictionary
281
     1
  3
Standard
350
17
  0
DICTIONARY
  5
18
102
{ACAD_REACTORS
330
C
102
}
330
C
100
AcDbDictionary
281
     1
  0
ACDBDICTIONARYWDFLT
  5
E
102
{ACAD_REACTORS
330
C
102
}
330
C
100
AcDbDictionary
281
     1
  3
Normal
350
F
100
AcDbDictionaryWithDefault
340
F
  0
XRECORD
  5
6B3
102
{ACAD_REACTORS
330
C
102
}
330
C
100
AcDbXrecord
280
     1
 90
   990106
  3

 60
     4
 61
     0
 62
     1
 63
     3
 64
     0
 65
     0
 66
     0
 67
     3
 68
     1
 69
     0
 70
     0
 71
     1
 72
     0
 40
0.0
170
     0
  0
DICTIONARY
  5
601
102
{ACAD_REACTORS
330
C
102
}
330
C
100
AcDbDictionary
281
     1
  3
DIMASSOC
350
604
  3
HIDETEXT
350
603
  3
SORTENTS
350
602
  0
LAYOUT
  5
1D
102
{ACAD_REACTORS
330
19
102
}
330
19
100
AcDbPlotSettings
  1

  2
S:\AutoCAD 2002\Plotters\1055B&WDraftShaded.pc3
  4

  6

 40
0.0
 41
0.0
 42
0.0
 43
0.0
 44
0.0
 45
0.0
 46
0.0
 47
0.0
 48
0.0
 49
0.0
140
0.0
141
0.0
142
1.0
143
1.0
 70
   688
 72
     0
 73
     0
 74
     5
  7
Color.ctb
 75
    16
147
1.0
148
0.0
149
0.0
100
AcDbLayout
  1
Layout1
 70
     1
 71
     1
 10
0.0
 20
0.0
 11
12.0
 21
9.0
 12
0.0
 22
0.0
 32
0.0
 14
1.000000000000000E+20
 24
1.000000000000000E+20
 34
1.000000000000000E+20
 15
-1.000000000000000E+20
 25
-1.000000000000000E+20
 35
-1.000000000000000E+20
146
0.0
 13
0.0
 23
0.0
 33
0.0
 16
1.0
 26
0.0
 36
0.0
 17
0.0
 27
1.0
 37
0.0
 76
     0
330
1A
331
B3
  0
LAYOUT
  5
21
102
{ACAD_REACTORS
330
19
102
}
330
19
100
AcDbPlotSettings
  1

  2
OKI DOKI Color Laser.pc3
  4
Tabloid
  6

 40
5.027083396911621
 41
5.027085304260253
 42
5.027099609375
 43
5.027069091796875
 44
279.3999938964843
 45
431.7999877929687
 46
2.032
 47
1.523999999999999
 48
-0.0258030127938633
 49
-0.4303277029463163
140
16.46419698720613
141
10.00967229705368
142
1.0
143
1.0
 70
 11940
 72
     0
 73
     1
 74
     4
  7
Color.ctb
 75
     0
147
1.0
148
0.6553965249641269
149
10.93032365483643
100
AcDbLayout
  1
Model
 70
     1
 71
     0
 10
0.0
 20
0.0
 11
12.0
 21
9.0
 12
0.0
 22
0.0
 32
0.0
 14
0.0
 24
0.0
 34
0.0
 15
0.0
 25
0.0
 35
0.0
146
0.0
 13
0.0
 23
0.0
 33
0.0
 16
1.0
 26
0.0
 36
0.0
 17
0.0
 27
1.0
 37
0.0
 76
     0
330
1E
  0
MLINESTYLE
  5
17
102
{ACAD_REACTORS
330
16
102
}
330
16
100
AcDbMlineStyle
  2
STANDARD
 70
     0
  3

 62
   256
 51
90.0
 52
90.0
 71
     2
 49
0.5
 62
   256
  6
BYLAYER
 49
-0.5
 62
   256
  6
BYLAYER
  0
ACDBPLACEHOLDER
  5
F
102
{ACAD_REACTORS
330
E
102
}
330
E
  0
DICTIONARYVAR
  5
604
102
{ACAD_REACTORS
330
601
102
}
330
601
100
DictionaryVariables
280
     0
  1
1
  0
DICTIONARYVAR
  5
603
102
{ACAD_REACTORS
330
601
102
}
330
601
100
DictionaryVariables
280
     0
  1
1
  0
DICTIONARYVAR
  5
602
102
{ACAD_REACTORS
330
601
102
}
330
601
100
DictionaryVariables
280
     0
  1
1
  0
ENDSEC
  0
EOF
