  0
SECTION
  2
HEADER
  9
$ACADVER
  1
AC1015
  9
$ACADMAINTVER
 70
     6
  9
$DWGCODEPAGE
  3
ANSI_1252
  9
$INSBASE
 10
0.0
 20
0.0
 30
0.0
  9
$EXTMIN
 10
0.0
 20
0.0
 30
0.0
  9
$EXTMAX
 10
22.0
 20
17.0
 30
0.0
  9
$LIMMIN
 10
0.0
 20
0.0
  9
$LIMMAX
 10
22.0
 20
17.0
  9
$ORTHOMODE
 70
     0
  9
$REGENMODE
 70
     1
  9
$FILLMODE
 70
     1
  9
$QTEXTMODE
 70
     0
  9
$MIRRTEXT
 70
     1
  9
$LTSCALE
 40
1.0
  9
$ATTMODE
 70
     1
  9
$TEXTSIZE
 40
0.25
  9
$TRACEWID
 40
0.05
  9
$TEXTSTYLE
  7
Standard
  9
$CLAYER
  8
0
  9
$CELTYPE
  6
ByLayer
  9
$CECOLOR
 62
   256
  9
$CELTSCALE
 40
1.0
  9
$DISPSILH
 70
     0
  9
$DIMSCALE
 40
1.0
  9
$DIMASZ
 40
0.1875
  9
$DIMEXO
 40
0.125
  9
$DIMDLI
 40
0.38
  9
$DIMRND
 40
0.0
  9
$DIMDLE
 40
0.0
  9
$DIMEXE
 40
0.125
  9
$DIMTP
 40
0.0
  9
$DIMTM
 40
0.0
  9
$DIMTXT
 40
0.2083333333
  9
$DIMCEN
 40
0.09
  9
$DIMTSZ
 40
0.0
  9
$DIMTOL
 70
     0
  9
$DIMLIM
 70
     0
  9
$DIMTIH
 70
     1
  9
$DIMTOH
 70
     1
  9
$DIMSE1
 70
     0
  9
$DIMSE2
 70
     0
  9
$DIMTAD
 70
     1
  9
$DIMZIN
 70
     0
  9
$DIMBLK
  1

  9
$DIMASO
 70
     1
  9
$DIMSHO
 70
     1
  9
$DIMPOST
  1

  9
$DIMAPOST
  1

  9
$DIMALT
 70
     0
  9
$DIMALTD
 70
     2
  9
$DIMALTF
 40
25.4
  9
$DIMLFAC
 40
1.0
  9
$DIMTOFL
 70
     0
  9
$DIMTVP
 40
0.0
  9
$DIMTIX
 70
     0
  9
$DIMSOXD
 70
     0
  9
$DIMSAH
 70
     0
  9
$DIMBLK1
  1

  9
$DIMBLK2
  1

  9
$DIMSTYLE
  2
Standard
  9
$DIMCLRD
 70
     0
  9
$DIMCLRE
 70
     0
  9
$DIMCLRT
 70
     0
  9
$DIMTFAC
 40
1.0
  9
$DIMGAP
 40
0.06
  9
$DIMJUST
 70
     0
  9
$DIMSD1
 70
     0
  9
$DIMSD2
 70
     0
  9
$DIMTOLJ
 70
     1
  9
$DIMTZIN
 70
     0
  9
$DIMALTZ
 70
     0
  9
$DIMALTTZ
 70
     0
  9
$DIMUPT
 70
     0
  9
$DIMDEC
 70
     3
  9
$DIMTDEC
 70
     3
  9
$DIMALTU
 70
     2
  9
$DIMALTTD
 70
     2
  9
$DIMTXSTY
  7
Standard
  9
$DIMAUNIT
 70
     0
  9
$DIMADEC
 70
     0
  9
$DIMALTRND
 40
0.0
  9
$DIMAZIN
 70
     0
  9
$DIMDSEP
 70
    46
  9
$DIMATFIT
 70
     3
  9
$DIMFRAC
 70
     0
  9
$DIMLDRBLK
  1

  9
$DIMLUNIT
 70
     2
  9
$DIMLWD
 70
    -2
  9
$DIMLWE
 70
    -2
  9
$DIMTMOVE
 70
     0
  9
$LUNITS
 70
     2
  9
$LUPREC
 70
     3
  9
$SKETCHINC
 40
0.1
  9
$FILLETRAD
 40
0.5
  9
$AUNITS
 70
     0
  9
$AUPREC
 70
     0
  9
$MENU
  1
.
  9
$ELEVATION
 40
0.0
  9
$PELEVATION
 40
0.0
  9
$THICKNESS
 40
0.0
  9
$LIMCHECK
 70
     0
  9
$CHAMFERA
 40
0.5
  9
$CHAMFERB
 40
0.5
  9
$CHAMFERC
 40
1.0
  9
$CHAMFERD
 40
0.0
  9
$SKPOLY
 70
     0
  9
$TDCREATE
 40
2457318.348350313
  9
$TDUCREATE
 40
2457318.640016979
  9
$TDUPDATE
 40
2457318.348350324
  9
$TDUUPDATE
 40
2457318.640016991
  9
$TDINDWG
 40
0.0000000116
  9
$TDUSRTIMER
 40
0.0000000116
  9
$USRTIMER
 70
     1
  9
$ANGBASE
 50
0.0
  9
$ANGDIR
 70
     0
  9
$PDMODE
 70
     0
  9
$PDSIZE
 40
-1.0
  9
$PLINEWID
 40
0.0
  9
$SPLFRAME
 70
     0
  9
$SPLINETYPE
 70
     6
  9
$SPLINESEGS
 70
     8
  9
$HANDSEED
  5
42D
  9
$SURFTAB1
 70
     6
  9
$SURFTAB2
 70
     6
  9
$SURFTYPE
 70
     6
  9
$SURFU
 70
     6
  9
$SURFV
 70
     6
  9
$UCSBASE
  2

  9
$UCSNAME
  2

  9
$UCSORG
 10
0.0
 20
0.0
 30
0.0
  9
$UCSXDIR
 10
1.0
 20
0.0
 30
0.0
  9
$UCSYDIR
 10
0.0
 20
1.0
 30
0.0
  9
$UCSORTHOREF
  2

  9
$UCSORTHOVIEW
 70
     0
  9
$UCSORGTOP
 10
0.0
 20
0.0
 30
0.0
  9
$UCSORGBOTTOM
 10
0.0
 20
0.0
 30
0.0
  9
$UCSORGLEFT
 10
0.0
 20
0.0
 30
0.0
  9
$UCSORGRIGHT
 10
0.0
 20
0.0
 30
0.0
  9
$UCSORGFRONT
 10
0.0
 20
0.0
 30
0.0
  9
$UCSORGBACK
 10
0.0
 20
0.0
 30
0.0
  9
$PUCSBASE
  2

  9
$PUCSNAME
  2

  9
$PUCSORG
 10
0.0
 20
0.0
 30
0.0
  9
$PUCSXDIR
 10
1.0
 20
0.0
 30
0.0
  9
$PUCSYDIR
 10
0.0
 20
1.0
 30
0.0
  9
$PUCSORTHOREF
  2

  9
$PUCSORTHOVIEW
 70
     0
  9
$PUCSORGTOP
 10
0.0
 20
0.0
 30
0.0
  9
$PUCSORGBOTTOM
 10
0.0
 20
0.0
 30
0.0
  9
$PUCSORGLEFT
 10
0.0
 20
0.0
 30
0.0
  9
$PUCSORGRIGHT
 10
0.0
 20
0.0
 30
0.0
  9
$PUCSORGFRONT
 10
0.0
 20
0.0
 30
0.0
  9
$PUCSORGBACK
 10
0.0
 20
0.0
 30
0.0
  9
$USERI1
 70
     0
  9
$USERI2
 70
     0
  9
$USERI3
 70
     0
  9
$USERI4
 70
     0
  9
$USERI5
 70
     0
  9
$USERR1
 40
0.0
  9
$USERR2
 40
0.0
  9
$USERR3
 40
0.0
  9
$USERR4
 40
0.0
  9
$USERR5
 40
0.0
  9
$WORLDVIEW
 70
     1
  9
$SHADEDGE
 70
     3
  9
$SHADEDIF
 70
    70
  9
$TILEMODE
 70
     1
  9
$MAXACTVP
 70
    64
  9
$PINSBASE
 10
0.0
 20
0.0
 30
0.0
  9
$PLIMCHECK
 70
     0
  9
$PEXTMIN
 10
1.0000000000E+20
 20
1.0000000000E+20
 30
1.0000000000E+20
  9
$PEXTMAX
 10
-1.0000000000E+20
 20
-1.0000000000E+20
 30
-1.0000000000E+20
  9
$PLIMMIN
 10
0.0
 20
0.0
  9
$PLIMMAX
 10
12.0
 20
9.0
  9
$UNITMODE
 70
     0
  9
$VISRETAIN
 70
     1
  9
$PLINEGEN
 70
     0
  9
$PSLTSCALE
 70
     1
  9
$TREEDEPTH
 70
  3020
  9
$CMLSTYLE
  2
Standard
  9
$CMLJUST
 70
     0
  9
$CMLSCALE
 40
1.0
  9
$PROXYGRAPHICS
 70
     1
  9
$MEASUREMENT
 70
     0
  9
$CELWEIGHT
370
    -1
  9
$ENDCAPS
280
     0
  9
$JOINSTYLE
280
     0
  9
$LWDISPLAY
290
     1
  9
$INSUNITS
 70
     1
  9
$HYPERLINKBASE
  1

  9
$STYLESHEET
  1

  9
$XEDIT
290
     1
  9
$CEPSNTYPE
380
     0
  9
$PSTYLEMODE
290
     1
  9
$FINGERPRINTGUID
  2
{1335219C-1B0B-4272-8133-00C4A32DE626}
  9
$VERSIONGUID
  2
{FAEB1C32-E019-11D5-929B-00C0DF256EC4}
  9
$EXTNAMES
290
     1
  9
$PSVPSCALE
 40
0.0
  9
$OLESTARTUP
290
     0
  0
ENDSEC
  0
SECTION
  2
CLASSES
  0
CLASS
  1
ACDBDICTIONARYWDFLT
  2
AcDbDictionaryWithDefault
  3
ObjectDBX Classes
 90
        0
280
     0
281
     0
  0
CLASS
  1
VISUALSTYLE
  2
AcDbVisualStyle
  3
ObjectDBX Classes
 90
     4095
280
     0
281
     0
  0
CLASS
  1
MATERIAL
  2
AcDbMaterial
  3
ObjectDBX Classes
 90
     1153
280
     0
281
     0
  0
CLASS
  1
ACDBPLACEHOLDER
  2
AcDbPlaceHolder
  3
ObjectDBX Classes
 90
        0
280
     0
281
     0
  0
CLASS
  1
LAYOUT
  2
AcDbLayout
  3
ObjectDBX Classes
 90
        0
280
     0
281
     0
  0
ENDSEC
  0
SECTION
  2
TABLES
  0
TABLE
  2
VPORT
  5
8
330
0
100
AcDbSymbolTable
 70
     1
  0
VPORT
  5
29
330
8
100
AcDbSymbolTableRecord
100
AcDbViewportTableRecord
  2
*Active
 70
     0
 10
0.0
 20
0.0
 11
1.0
 21
1.0
 12
11.0
 22
8.5
 13
0.0
 23
0.0
 14
0.5
 24
0.5
 15
0.5
 25
0.5
 16
0.0
 26
0.0
 36
1.0
 17
0.0
 27
0.0
 37
0.0
 40
17.0
 41
1.2941176471
 42
50.0
 43
0.0
 44
0.0
 50
0.0
 51
0.0
 71
     0
 72
  2000
 73
     1
 74
     3
 75
     0
 76
     0
 77
     0
 78
     0
281
     0
 65
     1
110
0.0
120
0.0
130
0.0
111
1.0
121
0.0
131
0.0
112
0.0
122
1.0
132
0.0
 79
     0
146
0.0
  0
ENDTAB
  0
TABLE
  2
LTYPE
  5
5
330
0
100
AcDbSymbolTable
 70
     6
  0
LTYPE
  5
14
330
5
100
AcDbSymbolTableRecord
100
AcDbLinetypeTableRecord
  2
ByBlock
 70
     0
  3

 72
    65
 73
     0
 40
0.0
  0
LTYPE
  5
15
330
5
100
AcDbSymbolTableRecord
100
AcDbLinetypeTableRecord
  2
ByLayer
 70
     0
  3

 72
    65
 73
     0
 40
0.0
  0
LTYPE
  5
16
330
5
100
AcDbSymbolTableRecord
100
AcDbLinetypeTableRecord
  2
Continuous
 70
     0
  3
Solid line
 72
    65
 73
     0
 40
0.0
  0
LTYPE
  5
3F
330
5
100
AcDbSymbolTableRecord
100
AcDbLinetypeTableRecord
  2
HIDDEN
 70
     0
  3
Hidden __ __ __ __ __ __ __ __ __ __ __ __ __ __
 72
    65
 73
     2
 40
0.075
 49
0.05
 74
     0
 49
-0.025
 74
     0
  0
LTYPE
  5
40
330
5
100
AcDbSymbolTableRecord
100
AcDbLinetypeTableRecord
  2
PHANTOM
 70
     0
  3
Phantom ______  __  __  ______  __  __  ______
 72
    65
 73
     6
 40
0.5
 49
0.25
 74
     0
 49
-0.05
 74
     0
 49
0.05
 74
     0
 49
-0.05
 74
     0
 49
0.05
 74
     0
 49
-0.05
 74
     0
  0
LTYPE
  5
41
330
5
100
AcDbSymbolTableRecord
100
AcDbLinetypeTableRecord
  2
CENTER
 70
     0
  3
Center ____ _ ____ _ ____ _ ____ _ ____ _ ____
 72
    65
 73
     4
 40
0.4
 49
0.25
 74
     0
 49
-0.05
 74
     0
 49
0.05
 74
     0
 49
-0.05
 74
     0
  0
LTYPE
  5
42
330
5
100
AcDbSymbolTableRecord
100
AcDbLinetypeTableRecord
  2
CENTERX2
 70
     0
  3
Center (2x) ________  __  ________  __  _____
 72
    65
 73
     4
 40
0.8
 49
0.5
 74
     0
 49
-0.1
 74
     0
 49
0.1
 74
     0
 49
-0.1
 74
     0
  0
LTYPE
  5
43
330
5
100
AcDbSymbolTableRecord
100
AcDbLinetypeTableRecord
  2
DOT2
 70
     0
  3
Dot (.5x) ........................................
 72
    65
 73
     2
 40
0.025
 49
0.0
 74
     0
 49
-0.025
 74
     0
  0
ENDTAB
  0
TABLE
  2
LAYER
  5
2
330
0
100
AcDbSymbolTable
 70
     3
  0
LAYER
  5
10
330
2
100
AcDbSymbolTableRecord
100
AcDbLayerTableRecord
  2
0
 70
     0
 62
     7
  6
Continuous
370
    -3
390
F
  0
LAYER
  5
44
330
2
100
AcDbSymbolTableRecord
100
AcDbLayerTableRecord
  2
FORMAT
 70
     0
 62
     7
  6
Continuous
370
    -3
390
F
  0
LAYER
  5
45
330
2
100
AcDbSymbolTableRecord
100
AcDbLayerTableRecord
  2
SLD-0
 70
     0
 62
   179
  6
Continuous
370
    -3
390
F
  0
ENDTAB
  0
TABLE
  2
STYLE
  5
3
330
0
100
AcDbSymbolTable
 70
     4
  0
STYLE
  5
11
330
3
100
AcDbSymbolTableRecord
100
AcDbTextStyleTableRecord
  2
Standard
 70
     0
 40
0.0
 41
1.0
 50
0.0
 71
     0
 42
0.2
  3
txt
  4

  0
STYLE
  5
80
330
3
100
AcDbSymbolTableRecord
100
AcDbTextStyleTableRecord
  2
SLDTEXTSTYLE0
 70
     0
 40
0.0
 41
0.75
 50
0.0
 71
     0
 42
0.2
  3
TXT
  4

  0
STYLE
  5
3FB
330
3
100
AcDbSymbolTableRecord
100
AcDbTextStyleTableRecord
  2
SLDTEXTSTYLE1
 70
     0
 40
0.0
 41
0.6989795918
 50
0.0
 71
     0
 42
0.2
  3
TXT
  4

  0
STYLE
  5
419
330
3
100
AcDbSymbolTableRecord
100
AcDbTextStyleTableRecord
  2
SLDTEXTSTYLE2
 70
     0
 40
0.0
 41
0.7
 50
0.0
 71
     0
 42
0.2
  3
TXT
  4

  0
ENDTAB
  0
TABLE
  2
VIEW
  5
6
330
0
100
AcDbSymbolTable
 70
     0
  0
ENDTAB
  0
TABLE
  2
UCS
  5
7
330
0
100
AcDbSymbolTable
 70
     0
  0
ENDTAB
  0
TABLE
  2
APPID
  5
9
330
0
100
AcDbSymbolTable
 70
     1
  0
APPID
  5
12
330
9
100
AcDbSymbolTableRecord
100
AcDbRegAppTableRecord
  2
ACAD
 70
     0
  0
ENDTAB
  0
TABLE
  2
DIMSTYLE
  5
A
330
0
100
AcDbSymbolTable
 70
     2
100
AcDbDimStyleTable
  0
DIMSTYLE
105
27
330
A
100
AcDbSymbolTableRecord
100
AcDbDimStyleTableRecord
  2
Standard
 70
     0
178
     0
340
11
  0
DIMSTYLE
105
319
330
A
100
AcDbSymbolTableRecord
100
AcDbDimStyleTableRecord
  2
SLDDIMSTYLE0
 70
     0
 41
0.1875
 44
0.0
 45
0.000000001
140
0.0
146
0.1875
147
0.0
173
     1
178
     0
271
     0
272
     0
276
     2
340
11
  0
ENDTAB
  0
TABLE
  2
BLOCK_RECORD
  5
1
330
0
100
AcDbSymbolTable
 70
    23
  0
BLOCK_RECORD
  5
1F
330
1
100
AcDbSymbolTableRecord
100
AcDbBlockTableRecord
  2
*Model_Space
340
22
  0
BLOCK_RECORD
  5
1B
330
1
100
AcDbSymbolTableRecord
100
AcDbBlockTableRecord
  2
*Paper_Space
340
1E
  0
BLOCK_RECORD
  5
23
330
1
100
AcDbSymbolTableRecord
100
AcDbBlockTableRecord
  2
*Paper_Space0
340
26
  0
BLOCK_RECORD
  5
46
330
1
100
AcDbSymbolTableRecord
100
AcDbBlockTableRecord
  2
hexagon
340
0
102
{BLKREFS
331
3E1
331
3E2
331
3E3
331
3E4
331
3E5
331
3E6
331
3E7
331
3E8
331
3E9
331
3EA
331
3EB
331
3EC
331
3ED
331
3EE
331
3EF
331
3F0
102
}
  0
BLOCK_RECORD
  5
9D
330
1
100
AcDbSymbolTableRecord
100
AcDbBlockTableRecord
  2
SW_NOTE_0
340
0
102
{BLKREFS
331
A2
102
}
  0
BLOCK_RECORD
  5
A6
330
1
100
AcDbSymbolTableRecord
100
AcDbBlockTableRecord
  2
SW_NOTE_1
340
0
102
{BLKREFS
331
AE
102
}
  0
BLOCK_RECORD
  5
30E
330
1
100
AcDbSymbolTableRecord
100
AcDbBlockTableRecord
  2
SW_NOTE_2
340
0
102
{BLKREFS
331
318
102
}
  0
BLOCK_RECORD
  5
31B
330
1
100
AcDbSymbolTableRecord
100
AcDbBlockTableRecord
  2
SW_NOTE_3
340
0
102
{BLKREFS
331
325
102
}
  0
BLOCK_RECORD
  5
327
330
1
100
AcDbSymbolTableRecord
100
AcDbBlockTableRecord
  2
SW_NOTE_4
340
0
102
{BLKREFS
331
331
102
}
  0
BLOCK_RECORD
  5
333
330
1
100
AcDbSymbolTableRecord
100
AcDbBlockTableRecord
  2
SW_NOTE_5
340
0
102
{BLKREFS
331
33D
102
}
  0
BLOCK_RECORD
  5
33F
330
1
100
AcDbSymbolTableRecord
100
AcDbBlockTableRecord
  2
SW_NOTE_6
340
0
102
{BLKREFS
331
349
102
}
  0
BLOCK_RECORD
  5
34B
330
1
100
AcDbSymbolTableRecord
100
AcDbBlockTableRecord
  2
SW_NOTE_7
340
0
102
{BLKREFS
331
355
102
}
  0
BLOCK_RECORD
  5
357
330
1
100
AcDbSymbolTableRecord
100
AcDbBlockTableRecord
  2
SW_NOTE_8
340
0
102
{BLKREFS
331
361
102
}
  0
BLOCK_RECORD
  5
363
330
1
100
AcDbSymbolTableRecord
100
AcDbBlockTableRecord
  2
SW_NOTE_9
340
0
102
{BLKREFS
331
36D
102
}
  0
BLOCK_RECORD
  5
36F
330
1
100
AcDbSymbolTableRecord
100
AcDbBlockTableRecord
  2
SW_NOTE_10
340
0
102
{BLKREFS
331
379
102
}
  0
BLOCK_RECORD
  5
37B
330
1
100
AcDbSymbolTableRecord
100
AcDbBlockTableRecord
  2
SW_NOTE_11
340
0
102
{BLKREFS
331
380
102
}
  0
BLOCK_RECORD
  5
381
330
1
100
AcDbSymbolTableRecord
100
AcDbBlockTableRecord
  2
SW_NOTE_12
340
0
102
{BLKREFS
331
38B
102
}
  0
BLOCK_RECORD
  5
38D
330
1
100
AcDbSymbolTableRecord
100
AcDbBlockTableRecord
  2
SW_NOTE_13
340
0
102
{BLKREFS
331
397
102
}
  0
BLOCK_RECORD
  5
399
330
1
100
AcDbSymbolTableRecord
100
AcDbBlockTableRecord
  2
SW_NOTE_14
340
0
102
{BLKREFS
331
3A3
102
}
  0
BLOCK_RECORD
  5
3A5
330
1
100
AcDbSymbolTableRecord
100
AcDbBlockTableRecord
  2
SW_NOTE_15
340
0
102
{BLKREFS
331
3AF
102
}
  0
BLOCK_RECORD
  5
3B1
330
1
100
AcDbSymbolTableRecord
100
AcDbBlockTableRecord
  2
SW_NOTE_16
340
0
102
{BLKREFS
331
3BB
102
}
  0
BLOCK_RECORD
  5
3BD
330
1
100
AcDbSymbolTableRecord
100
AcDbBlockTableRecord
  2
SW_NOTE_17
340
0
102
{BLKREFS
331
3C7
102
}
  0
BLOCK_RECORD
  5
3C9
330
1
100
AcDbSymbolTableRecord
100
AcDbBlockTableRecord
  2
SW_NOTE_18
340
0
102
{BLKREFS
331
3D3
102
}
  0
BLOCK_RECORD
  5
3D5
330
1
100
AcDbSymbolTableRecord
100
AcDbBlockTableRecord
  2
SW_NOTE_19
340
0
102
{BLKREFS
331
3DF
102
}
  0
BLOCK_RECORD
  5
3F1
330
1
100
AcDbSymbolTableRecord
100
AcDbBlockTableRecord
  2
SW_NOTE_20
340
0
102
{BLKREFS
331
42C
102
}
  0
ENDTAB
  0
ENDSEC
  0
SECTION
  2
BLOCKS
  0
BLOCK
  5
20
330
1F
100
AcDbEntity
  8
0
100
AcDbBlockBegin
  2
*Model_Space
 70
     0
 10
0.0
 20
0.0
 30
0.0
  3
*Model_Space
  1

  0
ENDBLK
  5
21
330
1F
100
AcDbEntity
  8
0
100
AcDbBlockEnd
  0
BLOCK
  5
1C
330
1B
100
AcDbEntity
 67
     1
  8
0
100
AcDbBlockBegin
  2
*Paper_Space
 70
     0
 10
0.0
 20
0.0
 30
0.0
  3
*Paper_Space
  1

  0
ENDBLK
  5
1D
330
1B
100
AcDbEntity
 67
     1
  8
0
100
AcDbBlockEnd
  0
BLOCK
  5
24
330
23
100
AcDbEntity
  8
0
100
AcDbBlockBegin
  2
*Paper_Space0
 70
     0
 10
0.0
 20
0.0
 30
0.0
  3
*Paper_Space0
  1

  0
ENDBLK
  5
25
330
23
100
AcDbEntity
  8
0
100
AcDbBlockEnd
  0
BLOCK
  5
47
330
46
100
AcDbEntity
  8
0
100
AcDbBlockBegin
  2
hexagon
 70
     0
 10
0.0
 20
0.0
 30
0.0
  3
hexagon
  1

  0
LINE
  5
49
330
46
100
AcDbEntity
  8
0
  6
Continuous
 62
     7
370
     0
100
AcDbLine
 10
0.0346410162
 20
0.0
 30
0.0
 11
0.1039230485
 21
0.0
 31
0.0
  0
LINE
  5
4A
330
46
100
AcDbEntity
  8
0
  6
Continuous
 62
     7
370
     0
100
AcDbLine
 10
0.1039230485
 20
0.0
 30
0.0
 11
0.1385640646
 21
0.06
 31
0.0
  0
LINE
  5
4B
330
46
100
AcDbEntity
  8
0
  6
Continuous
 62
     7
370
     0
100
AcDbLine
 10
0.1385640646
 20
0.06
 30
0.0
 11
0.1039230485
 21
0.12
 31
0.0
  0
LINE
  5
4C
330
46
100
AcDbEntity
  8
0
  6
Continuous
 62
     7
370
     0
100
AcDbLine
 10
0.1039230485
 20
0.12
 30
0.0
 11
0.0346410162
 21
0.12
 31
0.0
  0
LINE
  5
4D
330
46
100
AcDbEntity
  8
0
  6
Continuous
 62
     7
370
     0
100
AcDbLine
 10
0.0346410162
 20
0.12
 30
0.0
 11
0.0
 21
0.06
 31
0.0
  0
LINE
  5
4E
330
46
100
AcDbEntity
  8
0
  6
Continuous
 62
     7
370
     0
100
AcDbLine
 10
0.0
 20
0.06
 30
0.0
 11
0.0346410162
 21
0.0
 31
0.0
  0
ENDBLK
  5
48
330
46
100
AcDbEntity
  8
0
100
AcDbBlockEnd
  0
BLOCK
  5
9E
330
9D
100
AcDbEntity
  8
0
100
AcDbBlockBegin
  2
SW_NOTE_0
 70
     0
 10
0.0
 20
0.0
 30
0.0
  3
SW_NOTE_0
  1

  0
CIRCLE
  5
A0
330
9D
100
AcDbEntity
  8
SLD-0
 62
     0
100
AcDbCircle
 10
0.1523437576
 20
0.2137963303
 30
0.0
 40
0.4057422280075941
  0
MTEXT
  5
A1
330
9D
100
AcDbEntity
  8
SLD-0
 62
     0
100
AcDbMText
 10
0.1494140625
 20
0.3625503018
 30
0.0
 40
0.28125
 41
0.0
 71
     2
 72
     1
  1
C
  7
SLDTEXTSTYLE0
 73
     1
 44
1.0
  0
ENDBLK
  5
9F
330
9D
100
AcDbEntity
  8
0
100
AcDbBlockEnd
  0
BLOCK
  5
A7
330
A6
100
AcDbEntity
  8
0
100
AcDbBlockBegin
  2
SW_NOTE_1
 70
     0
 10
0.0
 20
0.0
 30
0.0
  3
SW_NOTE_1
  1

  0
MTEXT
  5
A9
330
A6
100
AcDbEntity
  8
0
  6
Continuous
 62
     0
370
     0
100
AcDbMText
 10
0.0
 20
0.2417002012
 30
0.0
 40
0.1875
 41
0.0
 71
     1
 72
     1
  1
FOR MORE PRODUCT INFORMATION, VISIT WWW.RAINBIRD.COM
  7
SLDTEXTSTYLE0
 73
     1
 44
1.0
  0
MTEXT
  5
AA
330
A6
100
AcDbEntity
  8
0
  6
Continuous
 62
     0
370
     0
100
AcDbMText
 10
0.3937007786
 20
-0.2582997928
 30
0.0
 40
0.1875
 41
0.0
 71
     1
 72
     1
  1
FD-TURF FIELD DECODERS
  7
SLDTEXTSTYLE0
 73
     1
 44
1.0
  0
MTEXT
  5
AB
330
A6
100
AcDbEntity
  8
0
  6
Continuous
 62
     0
370
     0
100
AcDbMText
 10
0.0
 20
-0.2582997928
 30
0.0
 40
0.1875
 41
0.0
 71
     1
 72
     1
  1
%%d
  7
SLDTEXTSTYLE0
 73
     1
 44
1.0
  0
MTEXT
  5
AC
330
A6
100
AcDbEntity
  8
0
  6
Continuous
 62
     0
370
     0
100
AcDbMText
 10
0.3937007786
 20
-0.7582997867
 30
0.0
 40
0.1875
 41
0.0
 71
     1
 72
     1
  1
DB SERIES WIRE CONNECTORS
  7
SLDTEXTSTYLE0
 73
     1
 44
1.0
  0
MTEXT
  5
AD
330
A6
100
AcDbEntity
  8
0
  6
Continuous
 62
     0
370
     0
100
AcDbMText
 10
0.0
 20
-0.7582997867
 30
0.0
 40
0.1875
 41
0.0
 71
     1
 72
     1
  1
%%d
  7
SLDTEXTSTYLE0
 73
     1
 44
1.0
  0
ENDBLK
  5
A8
330
A6
100
AcDbEntity
  8
0
100
AcDbBlockEnd
  0
BLOCK
  5
30F
330
30E
100
AcDbEntity
  8
0
100
AcDbBlockBegin
  2
SW_NOTE_2
 70
     0
 10
0.0
 20
0.0
 30
0.0
  3
SW_NOTE_2
  1

  0
LINE
  5
311
330
30E
100
AcDbEntity
  8
0
  6
Continuous
 62
     0
370
     0
100
AcDbLine
 10
0.019796163
 20
-0.0275644841
 30
0.0
 11
0.1558805551
 21
0.208140597
 31
0.0
  0
LINE
  5
312
330
30E
100
AcDbEntity
  8
0
  6
Continuous
 62
     0
370
     0
100
AcDbLine
 10
0.1558805551
 20
0.208140597
 30
0.0
 11
0.4280493391
 21
0.208140597
 31
0.0
  0
LINE
  5
313
330
30E
100
AcDbEntity
  8
0
  6
Continuous
 62
     0
370
     0
100
AcDbLine
 10
0.4280493391
 20
0.208140597
 30
0.0
 11
0.5641337311
 21
-0.0275644841
 31
0.0
  0
LINE
  5
314
330
30E
100
AcDbEntity
  8
0
  6
Continuous
 62
     0
370
     0
100
AcDbLine
 10
0.5641337311
 20
-0.0275644841
 30
0.0
 11
0.4280493391
 21
-0.2632695651
 31
0.0
  0
LINE
  5
315
330
30E
100
AcDbEntity
  8
0
  6
Continuous
 62
     0
370
     0
100
AcDbLine
 10
0.4280493391
 20
-0.2632695651
 30
0.0
 11
0.1558805551
 21
-0.2632695651
 31
0.0
  0
LINE
  5
316
330
30E
100
AcDbEntity
  8
0
  6
Continuous
 62
     0
370
     0
100
AcDbLine
 10
0.1558805551
 20
-0.2632695651
 30
0.0
 11
0.019796163
 21
-0.0275644841
 31
0.0
  0
MTEXT
  5
317
330
30E
100
AcDbEntity
  8
0
  6
Continuous
 62
     0
370
     0
100
AcDbMText
 10
0.15342328
 20
0.0891357095
 30
0.0
 40
0.1875
 41
0.0
 71
     1
 72
     1
  1
12
  7
SLDTEXTSTYLE0
 73
     1
 44
1.0
  0
ENDBLK
  5
310
330
30E
100
AcDbEntity
  8
0
100
AcDbBlockEnd
  0
BLOCK
  5
31C
330
31B
100
AcDbEntity
  8
0
100
AcDbBlockBegin
  2
SW_NOTE_3
 70
     0
 10
0.0
 20
0.0
 30
0.0
  3
SW_NOTE_3
  1

  0
LINE
  5
31E
330
31B
100
AcDbEntity
  8
0
  6
Continuous
 62
     0
370
     0
100
AcDbLine
 10
0.019700926
 20
-0.0276137851
 30
0.0
 11
0.155785318
 21
0.208091296
 31
0.0
  0
LINE
  5
31F
330
31B
100
AcDbEntity
  8
0
  6
Continuous
 62
     0
370
     0
100
AcDbLine
 10
0.155785318
 20
0.208091296
 30
0.0
 11
0.4279541021
 21
0.208091296
 31
0.0
  0
LINE
  5
320
330
31B
100
AcDbEntity
  8
0
  6
Continuous
 62
     0
370
     0
100
AcDbLine
 10
0.4279541021
 20
0.208091296
 30
0.0
 11
0.5640384941
 21
-0.0276137851
 31
0.0
  0
LINE
  5
321
330
31B
100
AcDbEntity
  8
0
  6
Continuous
 62
     0
370
     0
100
AcDbLine
 10
0.5640384941
 20
-0.0276137851
 30
0.0
 11
0.4279541021
 21
-0.2633188662
 31
0.0
  0
LINE
  5
322
330
31B
100
AcDbEntity
  8
0
  6
Continuous
 62
     0
370
     0
100
AcDbLine
 10
0.4279541021
 20
-0.2633188662
 30
0.0
 11
0.155785318
 21
-0.2633188662
 31
0.0
  0
LINE
  5
323
330
31B
100
AcDbEntity
  8
0
  6
Continuous
 62
     0
370
     0
100
AcDbLine
 10
0.155785318
 20
-0.2633188662
 30
0.0
 11
0.019700926
 21
-0.0276137851
 31
0.0
  0
MTEXT
  5
324
330
31B
100
AcDbEntity
  8
0
  6
Continuous
 62
     0
370
     0
100
AcDbMText
 10
0.153328043
 20
0.0890864084
 30
0.0
 40
0.1875
 41
0.0
 71
     1
 72
     1
  1
10
  7
SLDTEXTSTYLE0
 73
     1
 44
1.0
  0
ENDBLK
  5
31D
330
31B
100
AcDbEntity
  8
0
100
AcDbBlockEnd
  0
BLOCK
  5
328
330
327
100
AcDbEntity
  8
0
100
AcDbBlockBegin
  2
SW_NOTE_4
 70
     0
 10
0.0
 20
0.0
 30
0.0
  3
SW_NOTE_4
  1

  0
LINE
  5
32A
330
327
100
AcDbEntity
  8
0
  6
Continuous
 62
     0
370
     0
100
AcDbLine
 10
0.019796163
 20
-0.0274962414
 30
0.0
 11
0.1558805551
 21
0.2082088397
 31
0.0
  0
LINE
  5
32B
330
327
100
AcDbEntity
  8
0
  6
Continuous
 62
     0
370
     0
100
AcDbLine
 10
0.1558805551
 20
0.2082088397
 30
0.0
 11
0.4280493391
 21
0.2082088397
 31
0.0
  0
LINE
  5
32C
330
327
100
AcDbEntity
  8
0
  6
Continuous
 62
     0
370
     0
100
AcDbLine
 10
0.4280493391
 20
0.2082088397
 30
0.0
 11
0.5641337311
 21
-0.0274962414
 31
0.0
  0
LINE
  5
32D
330
327
100
AcDbEntity
  8
0
  6
Continuous
 62
     0
370
     0
100
AcDbLine
 10
0.5641337311
 20
-0.0274962414
 30
0.0
 11
0.4280493391
 21
-0.2632013225
 31
0.0
  0
LINE
  5
32E
330
327
100
AcDbEntity
  8
0
  6
Continuous
 62
     0
370
     0
100
AcDbLine
 10
0.4280493391
 20
-0.2632013225
 30
0.0
 11
0.1558805551
 21
-0.2632013225
 31
0.0
  0
LINE
  5
32F
330
327
100
AcDbEntity
  8
0
  6
Continuous
 62
     0
370
     0
100
AcDbLine
 10
0.1558805551
 20
-0.2632013225
 30
0.0
 11
0.019796163
 21
-0.0274962414
 31
0.0
  0
MTEXT
  5
330
330
327
100
AcDbEntity
  8
0
  6
Continuous
 62
     0
370
     0
100
AcDbMText
 10
0.15342328
 20
0.0892039522
 30
0.0
 40
0.1875
 41
0.0
 71
     1
 72
     1
  1
11
  7
SLDTEXTSTYLE0
 73
     1
 44
1.0
  0
ENDBLK
  5
329
330
327
100
AcDbEntity
  8
0
100
AcDbBlockEnd
  0
BLOCK
  5
334
330
333
100
AcDbEntity
  8
0
100
AcDbBlockBegin
  2
SW_NOTE_5
 70
     0
 10
0.0
 20
0.0
 30
0.0
  3
SW_NOTE_5
  1

  0
LINE
  5
336
330
333
100
AcDbEntity
  8
0
  6
Continuous
 62
     0
370
     0
100
AcDbLine
 10
0.0198155714
 20
-0.027552072
 30
0.0
 11
0.1558999634
 21
0.2081530091
 31
0.0
  0
LINE
  5
337
330
333
100
AcDbEntity
  8
0
  6
Continuous
 62
     0
370
     0
100
AcDbLine
 10
0.1558999634
 20
0.2081530091
 30
0.0
 11
0.4280687474
 21
0.2081530091
 31
0.0
  0
LINE
  5
338
330
333
100
AcDbEntity
  8
0
  6
Continuous
 62
     0
370
     0
100
AcDbLine
 10
0.4280687474
 20
0.2081530091
 30
0.0
 11
0.5641531394
 21
-0.027552072
 31
0.0
  0
LINE
  5
339
330
333
100
AcDbEntity
  8
0
  6
Continuous
 62
     0
370
     0
100
AcDbLine
 10
0.5641531394
 20
-0.027552072
 30
0.0
 11
0.4280687474
 21
-0.2632571531
 31
0.0
  0
LINE
  5
33A
330
333
100
AcDbEntity
  8
0
  6
Continuous
 62
     0
370
     0
100
AcDbLine
 10
0.4280687474
 20
-0.2632571531
 30
0.0
 11
0.1558999634
 21
-0.2632571531
 31
0.0
  0
LINE
  5
33B
330
333
100
AcDbEntity
  8
0
  6
Continuous
 62
     0
370
     0
100
AcDbLine
 10
0.1558999634
 20
-0.2632571531
 30
0.0
 11
0.0198155714
 21
-0.027552072
 31
0.0
  0
MTEXT
  5
33C
330
333
100
AcDbEntity
  8
0
  6
Continuous
 62
     0
370
     0
100
AcDbMText
 10
0.1534426884
 20
0.0891481215
 30
0.0
 40
0.1875
 41
0.0
 71
     1
 72
     1
  1
13
  7
SLDTEXTSTYLE0
 73
     1
 44
1.0
  0
ENDBLK
  5
335
330
333
100
AcDbEntity
  8
0
100
AcDbBlockEnd
  0
BLOCK
  5
340
330
33F
100
AcDbEntity
  8
0
100
AcDbBlockBegin
  2
SW_NOTE_6
 70
     0
 10
0.0
 20
0.0
 30
0.0
  3
SW_NOTE_6
  1

  0
LINE
  5
342
330
33F
100
AcDbEntity
  8
0
  6
Continuous
 62
     0
370
     0
100
AcDbLine
 10
0.019796163
 20
-0.027619345
 30
0.0
 11
0.1558805551
 21
0.2080857361
 31
0.0
  0
LINE
  5
343
330
33F
100
AcDbEntity
  8
0
  6
Continuous
 62
     0
370
     0
100
AcDbLine
 10
0.1558805551
 20
0.2080857361
 30
0.0
 11
0.4280493391
 21
0.2080857361
 31
0.0
  0
LINE
  5
344
330
33F
100
AcDbEntity
  8
0
  6
Continuous
 62
     0
370
     0
100
AcDbLine
 10
0.4280493391
 20
0.2080857361
 30
0.0
 11
0.5641337311
 21
-0.027619345
 31
0.0
  0
LINE
  5
345
330
33F
100
AcDbEntity
  8
0
  6
Continuous
 62
     0
370
     0
100
AcDbLine
 10
0.5641337311
 20
-0.027619345
 30
0.0
 11
0.4280493391
 21
-0.2633244261
 31
0.0
  0
LINE
  5
346
330
33F
100
AcDbEntity
  8
0
  6
Continuous
 62
     0
370
     0
100
AcDbLine
 10
0.4280493391
 20
-0.2633244261
 30
0.0
 11
0.1558805551
 21
-0.2633244261
 31
0.0
  0
LINE
  5
347
330
33F
100
AcDbEntity
  8
0
  6
Continuous
 62
     0
370
     0
100
AcDbLine
 10
0.1558805551
 20
-0.2633244261
 30
0.0
 11
0.019796163
 21
-0.027619345
 31
0.0
  0
MTEXT
  5
348
330
33F
100
AcDbEntity
  8
0
  6
Continuous
 62
     0
370
     0
100
AcDbMText
 10
0.15342328
 20
0.0890808486
 30
0.0
 40
0.1875
 41
0.0
 71
     1
 72
     1
  1
14
  7
SLDTEXTSTYLE0
 73
     1
 44
1.0
  0
ENDBLK
  5
341
330
33F
100
AcDbEntity
  8
0
100
AcDbBlockEnd
  0
BLOCK
  5
34C
330
34B
100
AcDbEntity
  8
0
100
AcDbBlockBegin
  2
SW_NOTE_7
 70
     0
 10
0.0
 20
0.0
 30
0.0
  3
SW_NOTE_7
  1

  0
LINE
  5
34E
330
34B
100
AcDbEntity
  8
0
  6
Continuous
 62
     0
370
     0
100
AcDbLine
 10
0.0198091918
 20
-0.027619345
 30
0.0
 11
0.1558935838
 21
0.2080857361
 31
0.0
  0
LINE
  5
34F
330
34B
100
AcDbEntity
  8
0
  6
Continuous
 62
     0
370
     0
100
AcDbLine
 10
0.1558935838
 20
0.2080857361
 30
0.0
 11
0.4280623678
 21
0.2080857361
 31
0.0
  0
LINE
  5
350
330
34B
100
AcDbEntity
  8
0
  6
Continuous
 62
     0
370
     0
100
AcDbLine
 10
0.4280623678
 20
0.2080857361
 30
0.0
 11
0.5641467598
 21
-0.027619345
 31
0.0
  0
LINE
  5
351
330
34B
100
AcDbEntity
  8
0
  6
Continuous
 62
     0
370
     0
100
AcDbLine
 10
0.5641467598
 20
-0.027619345
 30
0.0
 11
0.4280623678
 21
-0.2633244261
 31
0.0
  0
LINE
  5
352
330
34B
100
AcDbEntity
  8
0
  6
Continuous
 62
     0
370
     0
100
AcDbLine
 10
0.4280623678
 20
-0.2633244261
 30
0.0
 11
0.1558935838
 21
-0.2633244261
 31
0.0
  0
LINE
  5
353
330
34B
100
AcDbEntity
  8
0
  6
Continuous
 62
     0
370
     0
100
AcDbLine
 10
0.1558935838
 20
-0.2633244261
 30
0.0
 11
0.0198091918
 21
-0.027619345
 31
0.0
  0
MTEXT
  5
354
330
34B
100
AcDbEntity
  8
0
  6
Continuous
 62
     0
370
     0
100
AcDbMText
 10
0.1534363087
 20
0.0890808486
 30
0.0
 40
0.1875
 41
0.0
 71
     1
 72
     1
  1
15
  7
SLDTEXTSTYLE0
 73
     1
 44
1.0
  0
ENDBLK
  5
34D
330
34B
100
AcDbEntity
  8
0
100
AcDbBlockEnd
  0
BLOCK
  5
358
330
357
100
AcDbEntity
  8
0
100
AcDbBlockBegin
  2
SW_NOTE_8
 70
     0
 10
0.0
 20
0.0
 30
0.0
  3
SW_NOTE_8
  1

  0
LINE
  5
35A
330
357
100
AcDbEntity
  8
0
  6
Continuous
 62
     0
370
     0
100
AcDbLine
 10
0.0197861069
 20
-0.027619345
 30
0.0
 11
0.1558704989
 21
0.2080857361
 31
0.0
  0
LINE
  5
35B
330
357
100
AcDbEntity
  8
0
  6
Continuous
 62
     0
370
     0
100
AcDbLine
 10
0.1558704989
 20
0.2080857361
 30
0.0
 11
0.4280392829
 21
0.2080857361
 31
0.0
  0
LINE
  5
35C
330
357
100
AcDbEntity
  8
0
  6
Continuous
 62
     0
370
     0
100
AcDbLine
 10
0.4280392829
 20
0.2080857361
 30
0.0
 11
0.5641236749
 21
-0.027619345
 31
0.0
  0
LINE
  5
35D
330
357
100
AcDbEntity
  8
0
  6
Continuous
 62
     0
370
     0
100
AcDbLine
 10
0.5641236749
 20
-0.027619345
 30
0.0
 11
0.4280392829
 21
-0.2633244261
 31
0.0
  0
LINE
  5
35E
330
357
100
AcDbEntity
  8
0
  6
Continuous
 62
     0
370
     0
100
AcDbLine
 10
0.4280392829
 20
-0.2633244261
 30
0.0
 11
0.1558704989
 21
-0.2633244261
 31
0.0
  0
LINE
  5
35F
330
357
100
AcDbEntity
  8
0
  6
Continuous
 62
     0
370
     0
100
AcDbLine
 10
0.1558704989
 20
-0.2633244261
 30
0.0
 11
0.0197861069
 21
-0.027619345
 31
0.0
  0
MTEXT
  5
360
330
357
100
AcDbEntity
  8
0
  6
Continuous
 62
     0
370
     0
100
AcDbMText
 10
0.1534132239
 20
0.0890808486
 30
0.0
 40
0.1875
 41
0.0
 71
     1
 72
     1
  1
17
  7
SLDTEXTSTYLE0
 73
     1
 44
1.0
  0
ENDBLK
  5
359
330
357
100
AcDbEntity
  8
0
100
AcDbBlockEnd
  0
BLOCK
  5
364
330
363
100
AcDbEntity
  8
0
100
AcDbBlockBegin
  2
SW_NOTE_9
 70
     0
 10
0.0
 20
0.0
 30
0.0
  3
SW_NOTE_9
  1

  0
LINE
  5
366
330
363
100
AcDbEntity
  8
0
  6
Continuous
 62
     0
370
     0
100
AcDbLine
 10
-0.5638635001
 20
-0.0274065508
 30
0.0
 11
-0.4277791081
 21
0.2082985302
 31
0.0
  0
LINE
  5
367
330
363
100
AcDbEntity
  8
0
  6
Continuous
 62
     0
370
     0
100
AcDbLine
 10
-0.4277791081
 20
0.2082985302
 30
0.0
 11
-0.155610324
 21
0.2082985302
 31
0.0
  0
LINE
  5
368
330
363
100
AcDbEntity
  8
0
  6
Continuous
 62
     0
370
     0
100
AcDbLine
 10
-0.155610324
 20
0.2082985302
 30
0.0
 11
-0.019525932
 21
-0.0274065508
 31
0.0
  0
LINE
  5
369
330
363
100
AcDbEntity
  8
0
  6
Continuous
 62
     0
370
     0
100
AcDbLine
 10
-0.019525932
 20
-0.0274065508
 30
0.0
 11
-0.155610324
 21
-0.2631116319
 31
0.0
  0
LINE
  5
36A
330
363
100
AcDbEntity
  8
0
  6
Continuous
 62
     0
370
     0
100
AcDbLine
 10
-0.155610324
 20
-0.2631116319
 30
0.0
 11
-0.4277791081
 21
-0.2631116319
 31
0.0
  0
LINE
  5
36B
330
363
100
AcDbEntity
  8
0
  6
Continuous
 62
     0
370
     0
100
AcDbLine
 10
-0.4277791081
 20
-0.2631116319
 30
0.0
 11
-0.5638635001
 21
-0.0274065508
 31
0.0
  0
MTEXT
  5
36C
330
363
100
AcDbEntity
  8
0
  6
Continuous
 62
     0
370
     0
100
AcDbMText
 10
-0.4302363831
 20
0.0892936427
 30
0.0
 40
0.1875
 41
0.0
 71
     1
 72
     1
  1
16
  7
SLDTEXTSTYLE0
 73
     1
 44
1.0
  0
ENDBLK
  5
365
330
363
100
AcDbEntity
  8
0
100
AcDbBlockEnd
  0
BLOCK
  5
370
330
36F
100
AcDbEntity
  8
0
100
AcDbBlockBegin
  2
SW_NOTE_10
 70
     0
 10
0.0
 20
0.0
 30
0.0
  3
SW_NOTE_10
  1

  0
LINE
  5
372
330
36F
100
AcDbEntity
  8
0
  6
Continuous
 62
     0
370
     0
100
AcDbLine
 10
0.0198339656
 20
-0.027619345
 30
0.0
 11
0.1559183576
 21
0.2080857361
 31
0.0
  0
LINE
  5
373
330
36F
100
AcDbEntity
  8
0
  6
Continuous
 62
     0
370
     0
100
AcDbLine
 10
0.1559183576
 20
0.2080857361
 30
0.0
 11
0.4280871416
 21
0.2080857361
 31
0.0
  0
LINE
  5
374
330
36F
100
AcDbEntity
  8
0
  6
Continuous
 62
     0
370
     0
100
AcDbLine
 10
0.4280871416
 20
0.2080857361
 30
0.0
 11
0.5641715337
 21
-0.027619345
 31
0.0
  0
LINE
  5
375
330
36F
100
AcDbEntity
  8
0
  6
Continuous
 62
     0
370
     0
100
AcDbLine
 10
0.5641715337
 20
-0.027619345
 30
0.0
 11
0.4280871416
 21
-0.2633244261
 31
0.0
  0
LINE
  5
376
330
36F
100
AcDbEntity
  8
0
  6
Continuous
 62
     0
370
     0
100
AcDbLine
 10
0.4280871416
 20
-0.2633244261
 30
0.0
 11
0.1559183576
 21
-0.2633244261
 31
0.0
  0
LINE
  5
377
330
36F
100
AcDbEntity
  8
0
  6
Continuous
 62
     0
370
     0
100
AcDbLine
 10
0.1559183576
 20
-0.2633244261
 30
0.0
 11
0.0198339656
 21
-0.027619345
 31
0.0
  0
MTEXT
  5
378
330
36F
100
AcDbEntity
  8
0
  6
Continuous
 62
     0
370
     0
100
AcDbMText
 10
0.1534610826
 20
0.0890808486
 30
0.0
 40
0.1875
 41
0.0
 71
     1
 72
     1
  1
16
  7
SLDTEXTSTYLE0
 73
     1
 44
1.0
  0
ENDBLK
  5
371
330
36F
100
AcDbEntity
  8
0
100
AcDbBlockEnd
  0
BLOCK
  5
37C
330
37B
100
AcDbEntity
  8
0
100
AcDbBlockBegin
  2
SW_NOTE_11
 70
     0
 10
0.0
 20
0.0
 30
0.0
  3
SW_NOTE_11
  1

  0
MTEXT
  5
37E
330
37B
100
AcDbEntity
  8
0
  6
Continuous
 62
     0
370
     0
100
AcDbMText
 10
0.0
 20
0.2417002012
 30
0.0
 40
0.1875
 41
0.0
 71
     1
 72
     1
  1
3 INCHES
  7
SLDTEXTSTYLE0
 73
     1
 44
1.0
  0
MTEXT
  5
37F
330
37B
100
AcDbEntity
  8
0
  6
Continuous
 62
     0
370
     0
100
AcDbMText
 10
0.0
 20
-0.0082997958
 30
0.0
 40
0.1875
 41
0.0
 71
     1
 72
     1
  1
MINIMUM
  7
SLDTEXTSTYLE0
 73
     1
 44
1.0
  0
ENDBLK
  5
37D
330
37B
100
AcDbEntity
  8
0
100
AcDbBlockEnd
  0
BLOCK
  5
382
330
381
100
AcDbEntity
  8
0
100
AcDbBlockBegin
  2
SW_NOTE_12
 70
     0
 10
0.0
 20
0.0
 30
0.0
  3
SW_NOTE_12
  1

  0
LINE
  5
384
330
381
100
AcDbEntity
  8
0
  6
Continuous
 62
     0
370
     0
100
AcDbLine
 10
0.0
 20
-0.0031958062
 30
0.0
 11
0.1154700538
 21
0.1968041938
 31
0.0
  0
LINE
  5
385
330
381
100
AcDbEntity
  8
0
  6
Continuous
 62
     0
370
     0
100
AcDbLine
 10
0.1154700538
 20
0.1968041938
 30
0.0
 11
0.3464101615
 21
0.1968041938
 31
0.0
  0
LINE
  5
386
330
381
100
AcDbEntity
  8
0
  6
Continuous
 62
     0
370
     0
100
AcDbLine
 10
0.3464101615
 20
0.1968041938
 30
0.0
 11
0.4618802154
 21
-0.0031958062
 31
0.0
  0
LINE
  5
387
330
381
100
AcDbEntity
  8
0
  6
Continuous
 62
     0
370
     0
100
AcDbLine
 10
0.4618802154
 20
-0.0031958062
 30
0.0
 11
0.3464101615
 21
-0.2031958062
 31
0.0
  0
LINE
  5
388
330
381
100
AcDbEntity
  8
0
  6
Continuous
 62
     0
370
     0
100
AcDbLine
 10
0.3464101615
 20
-0.2031958062
 30
0.0
 11
0.1154700538
 21
-0.2031958062
 31
0.0
  0
LINE
  5
389
330
381
100
AcDbEntity
  8
0
  6
Continuous
 62
     0
370
     0
100
AcDbLine
 10
0.1154700538
 20
-0.2031958062
 30
0.0
 11
0.0
 21
-0.0031958062
 31
0.0
  0
MTEXT
  5
38A
330
381
100
AcDbEntity
  8
0
  6
Continuous
 62
     0
370
     0
100
AcDbMText
 10
0.1616692741
 20
0.0958765855
 30
0.0
 40
0.1875
 41
0.0
 71
     1
 72
     1
  1
9
  7
SLDTEXTSTYLE0
 73
     1
 44
1.0
  0
ENDBLK
  5
383
330
381
100
AcDbEntity
  8
0
100
AcDbBlockEnd
  0
BLOCK
  5
38E
330
38D
100
AcDbEntity
  8
0
100
AcDbBlockBegin
  2
SW_NOTE_13
 70
     0
 10
0.0
 20
0.0
 30
0.0
  3
SW_NOTE_13
  1

  0
LINE
  5
390
330
38D
100
AcDbEntity
  8
0
  6
Continuous
 62
     0
370
     0
100
AcDbLine
 10
0.0
 20
-0.0031958062
 30
0.0
 11
0.1154700538
 21
0.1968041938
 31
0.0
  0
LINE
  5
391
330
38D
100
AcDbEntity
  8
0
  6
Continuous
 62
     0
370
     0
100
AcDbLine
 10
0.1154700538
 20
0.1968041938
 30
0.0
 11
0.3464101615
 21
0.1968041938
 31
0.0
  0
LINE
  5
392
330
38D
100
AcDbEntity
  8
0
  6
Continuous
 62
     0
370
     0
100
AcDbLine
 10
0.3464101615
 20
0.1968041938
 30
0.0
 11
0.4618802154
 21
-0.0031958062
 31
0.0
  0
LINE
  5
393
330
38D
100
AcDbEntity
  8
0
  6
Continuous
 62
     0
370
     0
100
AcDbLine
 10
0.4618802154
 20
-0.0031958062
 30
0.0
 11
0.3464101615
 21
-0.2031958062
 31
0.0
  0
LINE
  5
394
330
38D
100
AcDbEntity
  8
0
  6
Continuous
 62
     0
370
     0
100
AcDbLine
 10
0.3464101615
 20
-0.2031958062
 30
0.0
 11
0.1154700538
 21
-0.2031958062
 31
0.0
  0
LINE
  5
395
330
38D
100
AcDbEntity
  8
0
  6
Continuous
 62
     0
370
     0
100
AcDbLine
 10
0.1154700538
 20
-0.2031958062
 30
0.0
 11
0.0
 21
-0.0031958062
 31
0.0
  0
MTEXT
  5
396
330
38D
100
AcDbEntity
  8
0
  6
Continuous
 62
     0
370
     0
100
AcDbMText
 10
0.1616692741
 20
0.0958765855
 30
0.0
 40
0.1875
 41
0.0
 71
     1
 72
     1
  1
8
  7
SLDTEXTSTYLE0
 73
     1
 44
1.0
  0
ENDBLK
  5
38F
330
38D
100
AcDbEntity
  8
0
100
AcDbBlockEnd
  0
BLOCK
  5
39A
330
399
100
AcDbEntity
  8
0
100
AcDbBlockBegin
  2
SW_NOTE_14
 70
     0
 10
0.0
 20
0.0
 30
0.0
  3
SW_NOTE_14
  1

  0
LINE
  5
39C
330
399
100
AcDbEntity
  8
0
  6
Continuous
 62
     0
370
     0
100
AcDbLine
 10
0.0
 20
-0.0031958062
 30
0.0
 11
0.1154700538
 21
0.1968041938
 31
0.0
  0
LINE
  5
39D
330
399
100
AcDbEntity
  8
0
  6
Continuous
 62
     0
370
     0
100
AcDbLine
 10
0.1154700538
 20
0.1968041938
 30
0.0
 11
0.3464101615
 21
0.1968041938
 31
0.0
  0
LINE
  5
39E
330
399
100
AcDbEntity
  8
0
  6
Continuous
 62
     0
370
     0
100
AcDbLine
 10
0.3464101615
 20
0.1968041938
 30
0.0
 11
0.4618802154
 21
-0.0031958062
 31
0.0
  0
LINE
  5
39F
330
399
100
AcDbEntity
  8
0
  6
Continuous
 62
     0
370
     0
100
AcDbLine
 10
0.4618802154
 20
-0.0031958062
 30
0.0
 11
0.3464101615
 21
-0.2031958062
 31
0.0
  0
LINE
  5
3A0
330
399
100
AcDbEntity
  8
0
  6
Continuous
 62
     0
370
     0
100
AcDbLine
 10
0.3464101615
 20
-0.2031958062
 30
0.0
 11
0.1154700538
 21
-0.2031958062
 31
0.0
  0
LINE
  5
3A1
330
399
100
AcDbEntity
  8
0
  6
Continuous
 62
     0
370
     0
100
AcDbLine
 10
0.1154700538
 20
-0.2031958062
 30
0.0
 11
0.0
 21
-0.0031958062
 31
0.0
  0
MTEXT
  5
3A2
330
399
100
AcDbEntity
  8
0
  6
Continuous
 62
     0
370
     0
100
AcDbMText
 10
0.1616692741
 20
0.0958765855
 30
0.0
 40
0.1875
 41
0.0
 71
     1
 72
     1
  1
7
  7
SLDTEXTSTYLE0
 73
     1
 44
1.0
  0
ENDBLK
  5
39B
330
399
100
AcDbEntity
  8
0
100
AcDbBlockEnd
  0
BLOCK
  5
3A6
330
3A5
100
AcDbEntity
  8
0
100
AcDbBlockBegin
  2
SW_NOTE_15
 70
     0
 10
0.0
 20
0.0
 30
0.0
  3
SW_NOTE_15
  1

  0
LINE
  5
3A8
330
3A5
100
AcDbEntity
  8
0
  6
Continuous
 62
     0
370
     0
100
AcDbLine
 10
-0.5639163648
 20
-0.0274194036
 30
0.0
 11
-0.4278319728
 21
0.2082856775
 31
0.0
  0
LINE
  5
3A9
330
3A5
100
AcDbEntity
  8
0
  6
Continuous
 62
     0
370
     0
100
AcDbLine
 10
-0.4278319728
 20
0.2082856775
 30
0.0
 11
-0.1556631888
 21
0.2082856775
 31
0.0
  0
LINE
  5
3AA
330
3A5
100
AcDbEntity
  8
0
  6
Continuous
 62
     0
370
     0
100
AcDbLine
 10
-0.1556631888
 20
0.2082856775
 30
0.0
 11
-0.0195787968
 21
-0.0274194036
 31
0.0
  0
LINE
  5
3AB
330
3A5
100
AcDbEntity
  8
0
  6
Continuous
 62
     0
370
     0
100
AcDbLine
 10
-0.0195787968
 20
-0.0274194036
 30
0.0
 11
-0.1556631888
 21
-0.2631244846
 31
0.0
  0
LINE
  5
3AC
330
3A5
100
AcDbEntity
  8
0
  6
Continuous
 62
     0
370
     0
100
AcDbLine
 10
-0.1556631888
 20
-0.2631244846
 30
0.0
 11
-0.4278319728
 21
-0.2631244846
 31
0.0
  0
LINE
  5
3AD
330
3A5
100
AcDbEntity
  8
0
  6
Continuous
 62
     0
370
     0
100
AcDbLine
 10
-0.4278319728
 20
-0.2631244846
 30
0.0
 11
-0.5639163648
 21
-0.0274194036
 31
0.0
  0
MTEXT
  5
3AE
330
3A5
100
AcDbEntity
  8
0
  6
Continuous
 62
     0
370
     0
100
AcDbMText
 10
-0.3610184097
 20
0.08928079
 30
0.0
 40
0.1875
 41
0.0
 71
     1
 72
     1
  1
6
  7
SLDTEXTSTYLE0
 73
     1
 44
1.0
  0
ENDBLK
  5
3A7
330
3A5
100
AcDbEntity
  8
0
100
AcDbBlockEnd
  0
BLOCK
  5
3B2
330
3B1
100
AcDbEntity
  8
0
100
AcDbBlockBegin
  2
SW_NOTE_16
 70
     0
 10
0.0
 20
0.0
 30
0.0
  3
SW_NOTE_16
  1

  0
LINE
  5
3B4
330
3B1
100
AcDbEntity
  8
0
  6
Continuous
 62
     0
370
     0
100
AcDbLine
 10
-0.5639914567
 20
-0.0273408882
 30
0.0
 11
-0.4279070647
 21
0.2083641929
 31
0.0
  0
LINE
  5
3B5
330
3B1
100
AcDbEntity
  8
0
  6
Continuous
 62
     0
370
     0
100
AcDbLine
 10
-0.4279070647
 20
0.2083641929
 30
0.0
 11
-0.1557382807
 21
0.2083641929
 31
0.0
  0
LINE
  5
3B6
330
3B1
100
AcDbEntity
  8
0
  6
Continuous
 62
     0
370
     0
100
AcDbLine
 10
-0.1557382807
 20
0.2083641929
 30
0.0
 11
-0.0196538886
 21
-0.0273408882
 31
0.0
  0
LINE
  5
3B7
330
3B1
100
AcDbEntity
  8
0
  6
Continuous
 62
     0
370
     0
100
AcDbLine
 10
-0.0196538886
 20
-0.0273408882
 30
0.0
 11
-0.1557382807
 21
-0.2630459692
 31
0.0
  0
LINE
  5
3B8
330
3B1
100
AcDbEntity
  8
0
  6
Continuous
 62
     0
370
     0
100
AcDbLine
 10
-0.1557382807
 20
-0.2630459692
 30
0.0
 11
-0.4279070647
 21
-0.2630459692
 31
0.0
  0
LINE
  5
3B9
330
3B1
100
AcDbEntity
  8
0
  6
Continuous
 62
     0
370
     0
100
AcDbLine
 10
-0.4279070647
 20
-0.2630459692
 30
0.0
 11
-0.5639914567
 21
-0.0273408882
 31
0.0
  0
MTEXT
  5
3BA
330
3B1
100
AcDbEntity
  8
0
  6
Continuous
 62
     0
370
     0
100
AcDbMText
 10
-0.3610935016
 20
0.0893593054
 30
0.0
 40
0.1875
 41
0.0
 71
     1
 72
     1
  1
5
  7
SLDTEXTSTYLE0
 73
     1
 44
1.0
  0
ENDBLK
  5
3B3
330
3B1
100
AcDbEntity
  8
0
100
AcDbBlockEnd
  0
BLOCK
  5
3BE
330
3BD
100
AcDbEntity
  8
0
100
AcDbBlockBegin
  2
SW_NOTE_17
 70
     0
 10
0.0
 20
0.0
 30
0.0
  3
SW_NOTE_17
  1

  0
LINE
  5
3C0
330
3BD
100
AcDbEntity
  8
0
  6
Continuous
 62
     0
370
     0
100
AcDbLine
 10
-0.5638600638
 20
-0.0274408585
 30
0.0
 11
-0.4277756718
 21
0.2082642226
 31
0.0
  0
LINE
  5
3C1
330
3BD
100
AcDbEntity
  8
0
  6
Continuous
 62
     0
370
     0
100
AcDbLine
 10
-0.4277756718
 20
0.2082642226
 30
0.0
 11
-0.1556068878
 21
0.2082642226
 31
0.0
  0
LINE
  5
3C2
330
3BD
100
AcDbEntity
  8
0
  6
Continuous
 62
     0
370
     0
100
AcDbLine
 10
-0.1556068878
 20
0.2082642226
 30
0.0
 11
-0.0195224958
 21
-0.0274408585
 31
0.0
  0
LINE
  5
3C3
330
3BD
100
AcDbEntity
  8
0
  6
Continuous
 62
     0
370
     0
100
AcDbLine
 10
-0.0195224958
 20
-0.0274408585
 30
0.0
 11
-0.1556068878
 21
-0.2631459396
 31
0.0
  0
LINE
  5
3C4
330
3BD
100
AcDbEntity
  8
0
  6
Continuous
 62
     0
370
     0
100
AcDbLine
 10
-0.1556068878
 20
-0.2631459396
 30
0.0
 11
-0.4277756718
 21
-0.2631459396
 31
0.0
  0
LINE
  5
3C5
330
3BD
100
AcDbEntity
  8
0
  6
Continuous
 62
     0
370
     0
100
AcDbLine
 10
-0.4277756718
 20
-0.2631459396
 30
0.0
 11
-0.5638600638
 21
-0.0274408585
 31
0.0
  0
MTEXT
  5
3C6
330
3BD
100
AcDbEntity
  8
0
  6
Continuous
 62
     0
370
     0
100
AcDbMText
 10
-0.4302329469
 20
0.0892593351
 30
0.0
 40
0.1875
 41
0.0
 71
     1
 72
     1
  1
20
  7
SLDTEXTSTYLE0
 73
     1
 44
1.0
  0
ENDBLK
  5
3BF
330
3BD
100
AcDbEntity
  8
0
100
AcDbBlockEnd
  0
BLOCK
  5
3CA
330
3C9
100
AcDbEntity
  8
0
100
AcDbBlockBegin
  2
SW_NOTE_18
 70
     0
 10
0.0
 20
0.0
 30
0.0
  3
SW_NOTE_18
  1

  0
LINE
  5
3CC
330
3C9
100
AcDbEntity
  8
0
  6
Continuous
 62
     0
370
     0
100
AcDbLine
 10
-0.5640106574
 20
-0.0273142317
 30
0.0
 11
-0.4279262654
 21
0.2083908493
 31
0.0
  0
LINE
  5
3CD
330
3C9
100
AcDbEntity
  8
0
  6
Continuous
 62
     0
370
     0
100
AcDbLine
 10
-0.4279262654
 20
0.2083908493
 30
0.0
 11
-0.1557574814
 21
0.2083908493
 31
0.0
  0
LINE
  5
3CE
330
3C9
100
AcDbEntity
  8
0
  6
Continuous
 62
     0
370
     0
100
AcDbLine
 10
-0.1557574814
 20
0.2083908493
 30
0.0
 11
-0.0196730894
 21
-0.0273142317
 31
0.0
  0
LINE
  5
3CF
330
3C9
100
AcDbEntity
  8
0
  6
Continuous
 62
     0
370
     0
100
AcDbLine
 10
-0.0196730894
 20
-0.0273142317
 30
0.0
 11
-0.1557574814
 21
-0.2630193128
 31
0.0
  0
LINE
  5
3D0
330
3C9
100
AcDbEntity
  8
0
  6
Continuous
 62
     0
370
     0
100
AcDbLine
 10
-0.1557574814
 20
-0.2630193128
 30
0.0
 11
-0.4279262654
 21
-0.2630193128
 31
0.0
  0
LINE
  5
3D1
330
3C9
100
AcDbEntity
  8
0
  6
Continuous
 62
     0
370
     0
100
AcDbLine
 10
-0.4279262654
 20
-0.2630193128
 30
0.0
 11
-0.5640106574
 21
-0.0273142317
 31
0.0
  0
MTEXT
  5
3D2
330
3C9
100
AcDbEntity
  8
0
  6
Continuous
 62
     0
370
     0
100
AcDbMText
 10
-0.4303835404
 20
0.0893859618
 30
0.0
 40
0.1875
 41
0.0
 71
     1
 72
     1
  1
18
  7
SLDTEXTSTYLE0
 73
     1
 44
1.0
  0
ENDBLK
  5
3CB
330
3C9
100
AcDbEntity
  8
0
100
AcDbBlockEnd
  0
BLOCK
  5
3D6
330
3D5
100
AcDbEntity
  8
0
100
AcDbBlockBegin
  2
SW_NOTE_19
 70
     0
 10
0.0
 20
0.0
 30
0.0
  3
SW_NOTE_19
  1

  0
LINE
  5
3D8
330
3D5
100
AcDbEntity
  8
0
  6
Continuous
 62
     0
370
     0
100
AcDbLine
 10
-0.5639712511
 20
-0.0273914708
 30
0.0
 11
-0.4278868591
 21
0.2083136103
 31
0.0
  0
LINE
  5
3D9
330
3D5
100
AcDbEntity
  8
0
  6
Continuous
 62
     0
370
     0
100
AcDbLine
 10
-0.4278868591
 20
0.2083136103
 30
0.0
 11
-0.1557180751
 21
0.2083136103
 31
0.0
  0
LINE
  5
3DA
330
3D5
100
AcDbEntity
  8
0
  6
Continuous
 62
     0
370
     0
100
AcDbLine
 10
-0.1557180751
 20
0.2083136103
 30
0.0
 11
-0.019633683
 21
-0.0273914708
 31
0.0
  0
LINE
  5
3DB
330
3D5
100
AcDbEntity
  8
0
  6
Continuous
 62
     0
370
     0
100
AcDbLine
 10
-0.019633683
 20
-0.0273914708
 30
0.0
 11
-0.1557180751
 21
-0.2630965519
 31
0.0
  0
LINE
  5
3DC
330
3D5
100
AcDbEntity
  8
0
  6
Continuous
 62
     0
370
     0
100
AcDbLine
 10
-0.1557180751
 20
-0.2630965519
 30
0.0
 11
-0.4278868591
 21
-0.2630965519
 31
0.0
  0
LINE
  5
3DD
330
3D5
100
AcDbEntity
  8
0
  6
Continuous
 62
     0
370
     0
100
AcDbLine
 10
-0.4278868591
 20
-0.2630965519
 30
0.0
 11
-0.5639712511
 21
-0.0273914708
 31
0.0
  0
MTEXT
  5
3DE
330
3D5
100
AcDbEntity
  8
0
  6
Continuous
 62
     0
370
     0
100
AcDbMText
 10
-0.4303441341
 20
0.0893087227
 30
0.0
 40
0.1875
 41
0.0
 71
     1
 72
     1
  1
19
  7
SLDTEXTSTYLE0
 73
     1
 44
1.0
  0
ENDBLK
  5
3D7
330
3D5
100
AcDbEntity
  8
0
100
AcDbBlockEnd
  0
BLOCK
  5
3F2
330
3F1
100
AcDbEntity
  8
0
100
AcDbBlockBegin
  2
SW_NOTE_20
 70
     0
 10
0.0
 20
0.0
 30
0.0
  3
SW_NOTE_20
  1

  0
MTEXT
  5
3F4
330
3F1
100
AcDbEntity
  8
0
  6
Continuous
 62
     0
370
     0
100
AcDbMText
 10
0.0
 20
0.2417002012
 30
0.0
 40
0.1875
 41
0.0
 71
     1
 72
     1
  1
\LGENERAL NOTES (UNLESS OTHERWISE SPECIFIED)
  7
SLDTEXTSTYLE0
 73
     1
 44
1.0
  0
MTEXT
  5
3F5
330
3F1
100
AcDbEntity
  8
0
  6
Continuous
 62
     0
370
     0
100
AcDbMText
 10
0.5905511679
 20
-0.2582997928
 30
0.0
 40
0.1875
 41
0.0
 71
     1
 72
     1
  1
LSP1TURF SHOULD BE INSTALLED EVERY 500 FEET OR FOR
  7
SLDTEXTSTYLE0
 73
     1
 44
1.0
  0
MTEXT
  5
3F6
330
3F1
100
AcDbEntity
  8
0
  6
Continuous
 62
     0
370
     0
100
AcDbMText
 10
0.0
 20
-0.2582997928
 30
0.0
 40
0.1875
 41
0.0
 71
     1
 72
     1
  1
1.
  7
SLDTEXTSTYLE0
 73
     1
 44
1.0
  0
MTEXT
  5
3F7
330
3F1
100
AcDbEntity
  8
0
  6
Continuous
 62
     0
370
     0
100
AcDbMText
 10
0.5905511679
 20
-0.5082997897
 30
0.0
 40
0.1875
 41
0.0
 71
     1
 72
     1
  1
EVERY 8 DECODERS ON A 2-WIRE PATH.
  7
SLDTEXTSTYLE0
 73
     1
 44
1.0
  0
MTEXT
  5
3F8
330
3F1
100
AcDbEntity
  8
0
  6
Continuous
 62
     0
370
     0
100
AcDbMText
 10
0.5905511679
 20
-1.0082997837
 30
0.0
 40
0.1875
 41
0.0
 71
     1
 72
     1
  1
MAXIMUM LENGTH OF SECONDARY WIRE PATH (14
  7
SLDTEXTSTYLE0
 73
     1
 44
1.0
  0
MTEXT
  5
3F9
330
3F1
100
AcDbEntity
  8
0
  6
Continuous
 62
     0
370
     0
100
AcDbMText
 10
0.0
 20
-1.0082997837
 30
0.0
 40
0.1875
 41
0.0
 71
     1
 72
     1
  1
2.
  7
SLDTEXTSTYLE0
 73
     1
 44
1.0
  0
MTEXT
  5
3FA
330
3F1
100
AcDbEntity
  8
0
  6
Continuous
 62
     0
370
     0
100
AcDbMText
 10
0.5905511679
 20
-1.2582997807
 30
0.0
 40
0.1875
 41
0.0
 71
     1
 72
     1
  1
AWG) FROM DECODER TO SOLENOID IS 450 FEET.
  7
SLDTEXTSTYLE0
 73
     1
 44
1.0
  0
MTEXT
  5
3FC
330
3F1
100
AcDbEntity
  8
0
  6
Continuous
 62
     0
370
     0
100
AcDbMText
 10
0.5905511679
 20
-1.7582997746
 30
0.0
 40
0.1875
 41
0.0
 71
     1
 72
     1
  1
PLACE 3 FEET OF EXTRA WIRE IN EVERY VALVE BOX FOR
  7
SLDTEXTSTYLE1
 73
     1
 44
1.0
  0
MTEXT
  5
3FD
330
3F1
100
AcDbEntity
  8
0
  6
Continuous
 62
     0
370
     0
100
AcDbMText
 10
0.0
 20
-1.7582997746
 30
0.0
 40
0.1875
 41
0.0
 71
     1
 72
     1
  1
3.
  7
SLDTEXTSTYLE0
 73
     1
 44
1.0
  0
MTEXT
  5
3FE
330
3F1
100
AcDbEntity
  8
0
  6
Continuous
 62
     0
370
     0
100
AcDbMText
 10
0.5905511679
 20
-2.0082997716
 30
0.0
 40
0.1875
 41
0.0
 71
     1
 72
     1
  1
EASIER SERVICING.
  7
SLDTEXTSTYLE0
 73
     1
 44
1.0
  0
MTEXT
  5
3FF
330
3F1
100
AcDbEntity
  8
0
  6
Continuous
 62
     0
370
     0
100
AcDbMText
 10
0.5905511679
 20
-2.5082997656
 30
0.0
 40
0.1875
 41
0.0
 71
     1
 72
     1
  1
RAIN BIRD FD401TURF AND FD601TURF DECODERS COME
  7
SLDTEXTSTYLE0
 73
     1
 44
1.0
  0
MTEXT
  5
400
330
3F1
100
AcDbEntity
  8
0
  6
Continuous
 62
     0
370
     0
100
AcDbMText
 10
0.0
 20
-2.5082997656
 30
0.0
 40
0.1875
 41
0.0
 71
     1
 72
     1
  1
4.
  7
SLDTEXTSTYLE0
 73
     1
 44
1.0
  0
MTEXT
  5
401
330
3F1
100
AcDbEntity
  8
0
  6
Continuous
 62
     0
370
     0
100
AcDbMText
 10
0.5905511679
 20
-2.7582997625
 30
0.0
 40
0.1875
 41
0.0
 71
     1
 72
     1
  1
WITH LSP1TURF'S BUILT IN. FD101TURF, FD102 TURF AND
  7
SLDTEXTSTYLE0
 73
     1
 44
1.0
  0
MTEXT
  5
402
330
3F1
100
AcDbEntity
  8
0
  6
Continuous
 62
     0
370
     0
100
AcDbMText
 10
0.5905511679
 20
-3.0082997595
 30
0.0
 40
0.1875
 41
0.0
 71
     1
 72
     1
  1
FD202TURF REQUIRE SEPARATE LSP1TURF SURGE
  7
SLDTEXTSTYLE0
 73
     1
 44
1.0
  0
MTEXT
  5
403
330
3F1
100
AcDbEntity
  8
0
  6
Continuous
 62
     0
370
     0
100
AcDbMText
 10
0.5905511679
 20
-3.2582997565
 30
0.0
 40
0.1875
 41
0.0
 71
     1
 72
     1
  1
PROTECTION.
  7
SLDTEXTSTYLE0
 73
     1
 44
1.0
  0
MTEXT
  5
404
330
3F1
100
AcDbEntity
  8
0
  6
Continuous
 62
     0
370
     0
100
AcDbMText
 10
0.5905511679
 20
-3.7582997505
 30
0.0
 40
0.1875
 41
0.0
 71
     1
 72
     1
  1
LINE SURGE PROTECTOR: RAIN BIRD LSP1TURF (M13008).
  7
SLDTEXTSTYLE0
 73
     1
 44
1.0
  0
MTEXT
  5
405
330
3F1
100
AcDbEntity
  8
0
  6
Continuous
 62
     0
370
     0
100
AcDbMText
 10
0.0
 20
-3.7582997505
 30
0.0
 40
0.1875
 41
0.0
 71
     1
 72
     1
  1
5.
  7
SLDTEXTSTYLE0
 73
     1
 44
1.0
  0
MTEXT
  5
406
330
3F1
100
AcDbEntity
  8
0
  6
Continuous
 62
     0
370
     0
100
AcDbMText
 10
0.5905511679
 20
-4.2582997444
 30
0.0
 40
0.1875
 41
0.0
 71
     1
 72
     1
  1
FIELD DECODER (WITHOUT LINE SURGE PROTECTION):
  7
SLDTEXTSTYLE0
 73
     1
 44
1.0
  0
MTEXT
  5
407
330
3F1
100
AcDbEntity
  8
0
  6
Continuous
 62
     0
370
     0
100
AcDbMText
 10
0.0
 20
-4.2582997444
 30
0.0
 40
0.1875
 41
0.0
 71
     1
 72
     1
  1
6.
  7
SLDTEXTSTYLE0
 73
     1
 44
1.0
  0
MTEXT
  5
408
330
3F1
100
AcDbEntity
  8
0
  6
Continuous
 62
     0
370
     0
100
AcDbMText
 10
0.5905511679
 20
-4.5082997414
 30
0.0
 40
0.1875
 41
0.0
 71
     1
 72
     1
  1
RAIN BIRD FD101TURF (M13011), FD102TURF (M13004)OR
  7
SLDTEXTSTYLE0
 73
     1
 44
1.0
  0
MTEXT
  5
409
330
3F1
100
AcDbEntity
  8
0
  6
Continuous
 62
     0
370
     0
100
AcDbMText
 10
0.5905511679
 20
-4.7582997384
 30
0.0
 40
0.1875
 41
0.0
 71
     1
 72
     1
  1
FD202TURF FIELD DECODER (M1J005).
  7
SLDTEXTSTYLE0
 73
     1
 44
1.0
  0
MTEXT
  5
40A
330
3F1
100
AcDbEntity
  8
0
  6
Continuous
 62
     0
370
     0
100
AcDbMText
 10
0.5905511679
 20
-5.2582997323
 30
0.0
 40
0.1875
 41
0.0
 71
     1
 72
     1
  1
WHITE WIRE FROM FIELD DECODER (1 OF 2).
  7
SLDTEXTSTYLE0
 73
     1
 44
1.0
  0
MTEXT
  5
40B
330
3F1
100
AcDbEntity
  8
0
  6
Continuous
 62
     0
370
     0
100
AcDbMText
 10
0.0
 20
-5.2582997323
 30
0.0
 40
0.1875
 41
0.0
 71
     1
 72
     1
  1
7.
  7
SLDTEXTSTYLE0
 73
     1
 44
1.0
  0
MTEXT
  5
40C
330
3F1
100
AcDbEntity
  8
0
  6
Continuous
 62
     0
370
     0
100
AcDbMText
 10
0.5905511679
 20
-5.7582997263
 30
0.0
 40
0.1875
 41
0.0
 71
     1
 72
     1
  1
DB SERIES WIRE CONNECTOR (1 OF 4): RAIN BIRD DBRY20
  7
SLDTEXTSTYLE0
 73
     1
 44
1.0
  0
MTEXT
  5
40D
330
3F1
100
AcDbEntity
  8
0
  6
Continuous
 62
     0
370
     0
100
AcDbMText
 10
0.0
 20
-5.7582997263
 30
0.0
 40
0.1875
 41
0.0
 71
     1
 72
     1
  1
8.
  7
SLDTEXTSTYLE0
 73
     1
 44
1.0
  0
MTEXT
  5
40E
330
3F1
100
AcDbEntity
  8
0
  6
Continuous
 62
     0
370
     0
100
AcDbMText
 10
0.5905511679
 20
-6.0082997233
 30
0.0
 40
0.1875
 41
0.0
 71
     1
 72
     1
  1
(DBRYUL020).
  7
SLDTEXTSTYLE0
 73
     1
 44
1.0
  0
MTEXT
  5
40F
330
3F1
100
AcDbEntity
  8
0
  6
Continuous
 62
     0
370
     0
100
AcDbMText
 10
0.5905511679
 20
-6.5082997172
 30
0.0
 40
0.1875
 41
0.0
 71
     1
 72
     1
  1
SOLENOID WIRE (1 OF 2).
  7
SLDTEXTSTYLE0
 73
     1
 44
1.0
  0
MTEXT
  5
410
330
3F1
100
AcDbEntity
  8
0
  6
Continuous
 62
     0
370
     0
100
AcDbMText
 10
0.0
 20
-6.5082997172
 30
0.0
 40
0.1875
 41
0.0
 71
     1
 72
     1
  1
9.
  7
SLDTEXTSTYLE0
 73
     1
 44
1.0
  0
MTEXT
  5
411
330
3F1
100
AcDbEntity
  8
0
  6
Continuous
 62
     0
370
     0
100
AcDbMText
 10
0.5905511679
 20
-7.0082997112
 30
0.0
 40
0.1875
 41
0.0
 71
     1
 72
     1
  1
RAIN BIRD REMOTE CONTROL VALVE.
  7
SLDTEXTSTYLE0
 73
     1
 44
1.0
  0
MTEXT
  5
412
330
3F1
100
AcDbEntity
  8
0
  6
Continuous
 62
     0
370
     0
100
AcDbMText
 10
0.0
 20
-7.0082997112
 30
0.0
 40
0.1875
 41
0.0
 71
     1
 72
     1
  1
10.
  7
SLDTEXTSTYLE0
 73
     1
 44
1.0
  0
MTEXT
  5
413
330
3F1
100
AcDbEntity
  8
0
  6
Continuous
 62
     0
370
     0
100
AcDbMText
 10
0.5905511679
 20
-7.5082997051
 30
0.0
 40
0.1875
 41
0.0
 71
     1
 72
     1
  1
12 INCH RAIN BIRD VALVE BOX, WITH COVER.
  7
SLDTEXTSTYLE0
 73
     1
 44
1.0
  0
MTEXT
  5
414
330
3F1
100
AcDbEntity
  8
0
  6
Continuous
 62
     0
370
     0
100
AcDbMText
 10
0.0
 20
-7.5082997051
 30
0.0
 40
0.1875
 41
0.0
 71
     1
 72
     1
  1
11.
  7
SLDTEXTSTYLE0
 73
     1
 44
1.0
  0
MTEXT
  5
415
330
3F1
100
AcDbEntity
  8
0
  6
Continuous
 62
     0
370
     0
100
AcDbMText
 10
0.5905511679
 20
-8.0082996991
 30
0.0
 40
0.1875
 41
0.0
 71
     1
 72
     1
  1
FINISH GRADE OR TOP OF MULCH.
  7
SLDTEXTSTYLE0
 73
     1
 44
1.0
  0
MTEXT
  5
416
330
3F1
100
AcDbEntity
  8
0
  6
Continuous
 62
     0
370
     0
100
AcDbMText
 10
0.0
 20
-8.0082996991
 30
0.0
 40
0.1875
 41
0.0
 71
     1
 72
     1
  1
12.
  7
SLDTEXTSTYLE0
 73
     1
 44
1.0
  0
MTEXT
  5
417
330
3F1
100
AcDbEntity
  8
0
  6
Continuous
 62
     0
370
     0
100
AcDbMText
 10
0.5905511679
 20
-8.508299693
 30
0.0
 40
0.1875
 41
0.0
 71
     1
 72
     1
  1
PVC MAINLINE PIPE.
  7
SLDTEXTSTYLE0
 73
     1
 44
1.0
  0
MTEXT
  5
418
330
3F1
100
AcDbEntity
  8
0
  6
Continuous
 62
     0
370
     0
100
AcDbMText
 10
0.0
 20
-8.508299693
 30
0.0
 40
0.1875
 41
0.0
 71
     1
 72
     1
  1
13.
  7
SLDTEXTSTYLE0
 73
     1
 44
1.0
  0
MTEXT
  5
41A
330
3F1
100
AcDbEntity
  8
0
  6
Continuous
 62
     0
370
     0
100
AcDbMText
 10
0.5905511679
 20
-9.008299687
 30
0.0
 40
0.1875
 41
0.0
 71
     1
 72
     1
  1
BRICK (1 OF 4).
  7
SLDTEXTSTYLE2
 73
     1
 44
1.0
  0
MTEXT
  5
41B
330
3F1
100
AcDbEntity
  8
0
  6
Continuous
 62
     0
370
     0
100
AcDbMText
 10
0.0
 20
-9.008299687
 30
0.0
 40
0.1875
 41
0.0
 71
     1
 72
     1
  1
14.
  7
SLDTEXTSTYLE0
 73
     1
 44
1.0
  0
MTEXT
  5
41C
330
3F1
100
AcDbEntity
  8
0
  6
Continuous
 62
     0
370
     0
100
AcDbMText
 10
0.5905511679
 20
-9.508299681
 30
0.0
 40
0.1875
 41
0.0
 71
     1
 72
     1
  1
3 INCH MINIMUM DEPTH OF 3/4 INCH WASHED GRAVEL.
  7
SLDTEXTSTYLE0
 73
     1
 44
1.0
  0
MTEXT
  5
41D
330
3F1
100
AcDbEntity
  8
0
  6
Continuous
 62
     0
370
     0
100
AcDbMText
 10
0.0
 20
-9.508299681
 30
0.0
 40
0.1875
 41
0.0
 71
     1
 72
     1
  1
15.
  7
SLDTEXTSTYLE0
 73
     1
 44
1.0
  0
MTEXT
  5
41E
330
3F1
100
AcDbEntity
  8
0
  6
Continuous
 62
     0
370
     0
100
AcDbMText
 10
0.5905511679
 20
-10.0082996749
 30
0.0
 40
0.1875
 41
0.0
 71
     1
 72
     1
  1
2-WIRE MAXI CABLE FOR CONNECTION OF ESP-LXD
  7
SLDTEXTSTYLE0
 73
     1
 44
1.0
  0
MTEXT
  5
41F
330
3F1
100
AcDbEntity
  8
0
  6
Continuous
 62
     0
370
     0
100
AcDbMText
 10
0.0
 20
-10.0082996749
 30
0.0
 40
0.1875
 41
0.0
 71
     1
 72
     1
  1
16.
  7
SLDTEXTSTYLE0
 73
     1
 44
1.0
  0
MTEXT
  5
420
330
3F1
100
AcDbEntity
  8
0
  6
Continuous
 62
     0
370
     0
100
AcDbMText
 10
0.5905511679
 20
-10.2582996719
 30
0.0
 40
0.1875
 41
0.0
 71
     1
 72
     1
  1
CONTROLLER, FIELD DECODER, SENSOR DECODER AND
  7
SLDTEXTSTYLE0
 73
     1
 44
1.0
  0
MTEXT
  5
421
330
3F1
100
AcDbEntity
  8
0
  6
Continuous
 62
     0
370
     0
100
AcDbMText
 10
0.5905511679
 20
-10.5082996689
 30
0.0
 40
0.1875
 41
0.0
 71
     1
 72
     1
  1
LINE SURGE PROTECTOR.
  7
SLDTEXTSTYLE0
 73
     1
 44
1.0
  0
MTEXT
  5
422
330
3F1
100
AcDbEntity
  8
0
  6
Continuous
 62
     0
370
     0
100
AcDbMText
 10
0.5905511679
 20
-11.0082996628
 30
0.0
 40
0.1875
 41
0.0
 71
     1
 72
     1
  1
BLUE WIRE FROM FIELD DECODER.
  7
SLDTEXTSTYLE0
 73
     1
 44
1.0
  0
MTEXT
  5
423
330
3F1
100
AcDbEntity
  8
0
  6
Continuous
 62
     0
370
     0
100
AcDbMText
 10
0.0
 20
-11.0082996628
 30
0.0
 40
0.1875
 41
0.0
 71
     1
 72
     1
  1
17.
  7
SLDTEXTSTYLE0
 73
     1
 44
1.0
  0
MTEXT
  5
424
330
3F1
100
AcDbEntity
  8
0
  6
Continuous
 62
     0
370
     0
100
AcDbMText
 10
0.5905511679
 20
-11.5082996568
 30
0.0
 40
0.1875
 41
0.0
 71
     1
 72
     1
  1
GROUNDING ROD: 10 OHMS OR LESS, INSTALLED PER
  7
SLDTEXTSTYLE0
 73
     1
 44
1.0
  0
MTEXT
  5
425
330
3F1
100
AcDbEntity
  8
0
  6
Continuous
 62
     0
370
     0
100
AcDbMText
 10
0.0
 20
-11.5082996568
 30
0.0
 40
0.1875
 41
0.0
 71
     1
 72
     1
  1
18.
  7
SLDTEXTSTYLE0
 73
     1
 44
1.0
  0
MTEXT
  5
426
330
3F1
100
AcDbEntity
  8
0
  6
Continuous
 62
     0
370
     0
100
AcDbMText
 10
0.5905511679
 20
-11.7582996538
 30
0.0
 40
0.1875
 41
0.0
 71
     1
 72
     1
  1
ASIC GUIDELINES.
  7
SLDTEXTSTYLE0
 73
     1
 44
1.0
  0
MTEXT
  5
427
330
3F1
100
AcDbEntity
  8
0
  6
Continuous
 62
     0
370
     0
100
AcDbMText
 10
0.5905511679
 20
-12.2582996477
 30
0.0
 40
0.1875
 41
0.0
 71
     1
 72
     1
  1
GREEN/YELLOW WIRE FROM LSP1TURF TO BRASS CLAMPS
  7
SLDTEXTSTYLE0
 73
     1
 44
1.0
  0
MTEXT
  5
428
330
3F1
100
AcDbEntity
  8
0
  6
Continuous
 62
     0
370
     0
100
AcDbMText
 10
0.0
 20
-12.2582996477
 30
0.0
 40
0.1875
 41
0.0
 71
     1
 72
     1
  1
19.
  7
SLDTEXTSTYLE0
 73
     1
 44
1.0
  0
MTEXT
  5
429
330
3F1
100
AcDbEntity
  8
0
  6
Continuous
 62
     0
370
     0
100
AcDbMText
 10
0.5905511679
 20
-12.5082996447
 30
0.0
 40
0.1875
 41
0.0
 71
     1
 72
     1
  1
ON GROUNDING ROD (1 OF 2).
  7
SLDTEXTSTYLE0
 73
     1
 44
1.0
  0
MTEXT
  5
42A
330
3F1
100
AcDbEntity
  8
0
  6
Continuous
 62
     0
370
     0
100
AcDbMText
 10
0.5905511679
 20
-13.0082996387
 30
0.0
 40
0.1875
 41
0.0
 71
     1
 72
     1
  1
BLUE WIRE FROM LSP1TURF.
  7
SLDTEXTSTYLE0
 73
     1
 44
1.0
  0
MTEXT
  5
42B
330
3F1
100
AcDbEntity
  8
0
  6
Continuous
 62
     0
370
     0
100
AcDbMText
 10
0.0
 20
-13.0082996387
 30
0.0
 40
0.1875
 41
0.0
 71
     1
 72
     1
  1
20.
  7
SLDTEXTSTYLE0
 73
     1
 44
1.0
  0
ENDBLK
  5
3F3
330
3F1
100
AcDbEntity
  8
0
100
AcDbBlockEnd
  0
ENDSEC
  0
SECTION
  2
ENTITIES
  0
HATCH
  5
4F
330
1F
100
AcDbEntity
  8
0
  6
Continuous
 62
     7
100
AcDbHatch
 10
0.0
 20
0.0
 30
0.0
210
0.0
220
0.0
230
1.0
  2
SOLID
 70
     1
 71
     0
 91
        1
 92
        0
 93
        3
 72
     1
 10
10.91161165235167
 20
0.4116116523516754
 11
11.0
 21
0.5000000000000006
 72
     1
 10
11.0
 20
0.5000000000000006
 11
11.08838834764832
 21
0.4116116523516755
 72
     1
 10
11.08838834764832
 20
0.4116116523516755
 11
10.91161165235167
 21
0.4116116523516754
 97
        0
 75
     0
 76
     1
 98
        1
 10
0.0
 20
0.0
  0
HATCH
  5
50
330
1F
100
AcDbEntity
  8
0
  6
Continuous
 62
     7
100
AcDbHatch
 10
0.0
 20
0.0
 30
0.0
210
0.0
220
0.0
230
1.0
  2
SOLID
 70
     1
 71
     0
 91
        1
 92
        0
 93
        3
 72
     1
 10
21.5
 20
8.5
 11
21.58838834764832
 21
8.588388347648332
 72
     1
 10
21.58838834764832
 20
8.588388347648332
 11
21.58838834764832
 21
8.41161165235168
 72
     1
 10
21.58838834764832
 20
8.41161165235168
 11
21.5
 21
8.5
 97
        0
 75
     0
 76
     1
 98
        1
 10
0.0
 20
0.0
  0
HATCH
  5
51
330
1F
100
AcDbEntity
  8
0
  6
Continuous
 62
     7
100
AcDbHatch
 10
0.0
 20
0.0
 30
0.0
210
0.0
220
0.0
230
1.0
  2
SOLID
 70
     1
 71
     0
 91
        1
 92
        0
 93
        3
 72
     1
 10
0.4116116523516744
 20
8.411611652351672
 11
0.4999999999999991
 21
8.5
 72
     1
 10
0.4999999999999991
 20
8.5
 11
0.4116116523516744
 21
8.588388347648323
 72
     1
 10
0.4116116523516744
 20
8.588388347648323
 11
0.4116116523516744
 21
8.411611652351672
 97
        0
 75
     0
 76
     1
 98
        1
 10
0.0
 20
0.0
  0
HATCH
  5
52
330
1F
100
AcDbEntity
  8
0
  6
Continuous
 62
     7
100
AcDbHatch
 10
0.0
 20
0.0
 30
0.0
210
0.0
220
0.0
230
1.0
  2
SOLID
 70
     1
 71
     0
 91
        1
 92
        0
 93
        3
 72
     1
 10
11.0
 20
16.5
 11
11.08838834764832
 21
16.58838834764831
 72
     1
 10
11.08838834764832
 20
16.58838834764831
 11
10.91161165235167
 21
16.58838834764831
 72
     1
 10
10.91161165235167
 20
16.58838834764831
 11
11.0
 21
16.5
 97
        0
 75
     0
 76
     1
 98
        1
 10
0.0
 20
0.0
  0
LINE
  5
53
330
1F
100
AcDbEntity
  8
0
  6
Continuous
 62
     7
370
     0
100
AcDbLine
 10
11.0
 20
0.5
 30
0.0
 11
11.0
 21
0.25
 31
0.0
  0
LINE
  5
54
330
1F
100
AcDbEntity
  8
0
  6
HIDDEN
 62
     7
370
     0
100
AcDbLine
 10
0.25
 20
16.75
 30
0.0
 11
21.75
 21
16.75
 31
0.0
  0
LINE
  5
55
330
1F
100
AcDbEntity
  8
0
  6
HIDDEN
 62
     7
370
     0
100
AcDbLine
 10
0.25
 20
16.75
 30
0.0
 11
0.25
 21
0.25
 31
0.0
  0
LINE
  5
56
330
1F
100
AcDbEntity
  8
0
  6
HIDDEN
 62
     7
370
     0
100
AcDbLine
 10
0.25
 20
0.25
 30
0.0
 11
21.75
 21
0.25
 31
0.0
  0
LINE
  5
57
330
1F
100
AcDbEntity
  8
0
  6
HIDDEN
 62
     7
370
     0
100
AcDbLine
 10
21.75
 20
16.75
 30
0.0
 11
21.75
 21
0.25
 31
0.0
  0
LINE
  5
58
330
1F
100
AcDbEntity
  8
0
  6
Continuous
 62
     7
370
     0
100
AcDbLine
 10
0.5
 20
16.5
 30
0.0
 11
21.5
 21
16.5
 31
0.0
  0
LINE
  5
59
330
1F
100
AcDbEntity
  8
0
  6
Continuous
 62
     7
370
     0
100
AcDbLine
 10
0.5
 20
16.5
 30
0.0
 11
0.5
 21
0.5
 31
0.0
  0
LINE
  5
5A
330
1F
100
AcDbEntity
  8
0
  6
Continuous
 62
     7
370
     0
100
AcDbLine
 10
0.5
 20
0.5
 30
0.0
 11
21.5
 21
0.5
 31
0.0
  0
LINE
  5
5B
330
1F
100
AcDbEntity
  8
0
  6
Continuous
 62
     7
370
     0
100
AcDbLine
 10
21.5
 20
16.5
 30
0.0
 11
21.5
 21
0.5
 31
0.0
  0
LINE
  5
5C
330
1F
100
AcDbEntity
  8
0
  6
Continuous
 62
     7
370
     0
100
AcDbLine
 10
21.5
 20
8.5
 30
0.0
 11
21.75
 21
8.5
 31
0.0
  0
LINE
  5
5D
330
1F
100
AcDbEntity
  8
0
  6
Continuous
 62
     7
370
     0
100
AcDbLine
 10
11.0
 20
16.5
 30
0.0
 11
11.0
 21
16.75
 31
0.0
  0
LINE
  5
5E
330
1F
100
AcDbEntity
  8
0
  6
Continuous
 62
     7
370
     0
100
AcDbLine
 10
0.25
 20
8.5
 30
0.0
 11
0.5
 21
8.5
 31
0.0
  0
LINE
  5
5F
330
1F
100
AcDbEntity
  8
0
  6
Continuous
 62
     7
370
     0
100
AcDbLine
 10
16.25
 20
0.5
 30
0.0
 11
16.25
 21
0.25
 31
0.0
  0
LINE
  5
60
330
1F
100
AcDbEntity
  8
0
  6
Continuous
 62
     7
370
     0
100
AcDbLine
 10
13.625
 20
0.5
 30
0.0
 11
13.625
 21
0.25
 31
0.0
  0
LINE
  5
61
330
1F
100
AcDbEntity
  8
0
  6
Continuous
 62
     7
370
     0
100
AcDbLine
 10
18.875
 20
0.5
 30
0.0
 11
18.875
 21
0.25
 31
0.0
  0
LINE
  5
62
330
1F
100
AcDbEntity
  8
0
  6
Continuous
 62
     7
370
     0
100
AcDbLine
 10
5.75
 20
0.5
 30
0.0
 11
5.75
 21
0.25
 31
0.0
  0
LINE
  5
63
330
1F
100
AcDbEntity
  8
0
  6
Continuous
 62
     7
370
     0
100
AcDbLine
 10
8.375
 20
0.5
 30
0.0
 11
8.375
 21
0.25
 31
0.0
  0
LINE
  5
64
330
1F
100
AcDbEntity
  8
0
  6
Continuous
 62
     7
370
     0
100
AcDbLine
 10
3.125
 20
0.5
 30
0.0
 11
3.125
 21
0.25
 31
0.0
  0
LINE
  5
65
330
1F
100
AcDbEntity
  8
0
  6
Continuous
 62
     7
370
     0
100
AcDbLine
 10
3.125
 20
16.5
 30
0.0
 11
3.125
 21
16.75
 31
0.0
  0
LINE
  5
66
330
1F
100
AcDbEntity
  8
0
  6
Continuous
 62
     7
370
     0
100
AcDbLine
 10
5.75
 20
16.5
 30
0.0
 11
5.75
 21
16.75
 31
0.0
  0
LINE
  5
67
330
1F
100
AcDbEntity
  8
0
  6
Continuous
 62
     7
370
     0
100
AcDbLine
 10
8.375
 20
16.5
 30
0.0
 11
8.375
 21
16.75
 31
0.0
  0
LINE
  5
68
330
1F
100
AcDbEntity
  8
0
  6
Continuous
 62
     7
370
     0
100
AcDbLine
 10
13.625
 20
16.5
 30
0.0
 11
13.625
 21
16.75
 31
0.0
  0
LINE
  5
69
330
1F
100
AcDbEntity
  8
0
  6
Continuous
 62
     7
370
     0
100
AcDbLine
 10
16.25
 20
16.5
 30
0.0
 11
16.25
 21
16.75
 31
0.0
  0
LINE
  5
6A
330
1F
100
AcDbEntity
  8
0
  6
Continuous
 62
     7
370
     0
100
AcDbLine
 10
18.875
 20
16.5
 30
0.0
 11
18.875
 21
16.75
 31
0.0
  0
LINE
  5
6B
330
1F
100
AcDbEntity
  8
0
  6
Continuous
 62
     7
370
     0
100
AcDbLine
 10
21.5
 20
5.8333333333
 30
0.0
 11
21.75
 21
5.8333333333
 31
0.0
  0
LINE
  5
6C
330
1F
100
AcDbEntity
  8
0
  6
Continuous
 62
     7
370
     0
100
AcDbLine
 10
21.5
 20
3.1666666667
 30
0.0
 11
21.75
 21
3.1666666667
 31
0.0
  0
LINE
  5
6D
330
1F
100
AcDbEntity
  8
SLD-0
100
AcDbLine
 10
1.7554245626
 20
1.2660004604
 30
0.0
 11
20.8339655651
 21
1.2660004604
 31
0.0
  0
LINE
  5
6E
330
1F
100
AcDbEntity
  8
0
  6
Continuous
 62
     7
370
     0
100
AcDbLine
 10
21.5
 20
11.1666666667
 30
0.0
 11
21.75
 21
11.1666666667
 31
0.0
  0
LINE
  5
6F
330
1F
100
AcDbEntity
  8
0
  6
Continuous
 62
     7
370
     0
100
AcDbLine
 10
21.5
 20
13.8333333333
 30
0.0
 11
21.75
 21
13.8333333333
 31
0.0
  0
LINE
  5
70
330
1F
100
AcDbEntity
  8
0
  6
Continuous
 62
     7
370
     0
100
AcDbLine
 10
0.5
 20
3.1666666667
 30
0.0
 11
0.25
 21
3.1666666667
 31
0.0
  0
LINE
  5
71
330
1F
100
AcDbEntity
  8
0
  6
Continuous
 62
     7
370
     0
100
AcDbLine
 10
0.5
 20
5.8333333333
 30
0.0
 11
0.25
 21
5.8333333333
 31
0.0
  0
LINE
  5
72
330
1F
100
AcDbEntity
  8
0
  6
Continuous
 62
     7
370
     0
100
AcDbLine
 10
0.5
 20
13.8333333333
 30
0.0
 11
0.25
 21
13.8333333333
 31
0.0
  0
LINE
  5
73
330
1F
100
AcDbEntity
  8
0
  6
Continuous
 62
     7
370
     0
100
AcDbLine
 10
0.5
 20
11.1666666667
 30
0.0
 11
0.25
 21
11.1666666667
 31
0.0
  0
LINE
  5
74
330
1F
100
AcDbEntity
  8
0
  6
Continuous
 62
     7
370
     0
100
AcDbLine
 10
21.5
 20
8.5
 30
0.0
 11
21.5883883476
 21
8.5883883476
 31
0.0
  0
LINE
  5
75
330
1F
100
AcDbEntity
  8
0
  6
Continuous
 62
     7
370
     0
100
AcDbLine
 10
21.5883883476
 20
8.5883883476
 30
0.0
 11
21.5883883476
 21
8.4116116524
 31
0.0
  0
LINE
  5
76
330
1F
100
AcDbEntity
  8
0
  6
Continuous
 62
     7
370
     0
100
AcDbLine
 10
21.5883883476
 20
8.4116116524
 30
0.0
 11
21.5
 21
8.5
 31
0.0
  0
LINE
  5
77
330
1F
100
AcDbEntity
  8
0
  6
Continuous
 62
     7
370
     0
100
AcDbLine
 10
0.5
 20
8.5
 30
0.0
 11
0.4116116524
 21
8.5883883476
 31
0.0
  0
LINE
  5
78
330
1F
100
AcDbEntity
  8
0
  6
Continuous
 62
     7
370
     0
100
AcDbLine
 10
0.4116116524
 20
8.5883883476
 30
0.0
 11
0.4116116524
 21
8.4116116524
 31
0.0
  0
LINE
  5
79
330
1F
100
AcDbEntity
  8
0
  6
Continuous
 62
     7
370
     0
100
AcDbLine
 10
0.4116116524
 20
8.4116116524
 30
0.0
 11
0.5
 21
8.5
 31
0.0
  0
LINE
  5
7A
330
1F
100
AcDbEntity
  8
0
  6
Continuous
 62
     7
370
     0
100
AcDbLine
 10
11.0
 20
0.5
 30
0.0
 11
11.0883883476
 21
0.4116116524
 31
0.0
  0
LINE
  5
7B
330
1F
100
AcDbEntity
  8
0
  6
Continuous
 62
     7
370
     0
100
AcDbLine
 10
11.0883883476
 20
0.4116116524
 30
0.0
 11
10.9116116524
 21
0.4116116524
 31
0.0
  0
LINE
  5
7C
330
1F
100
AcDbEntity
  8
0
  6
Continuous
 62
     7
370
     0
100
AcDbLine
 10
10.9116116524
 20
0.4116116524
 30
0.0
 11
11.0
 21
0.5
 31
0.0
  0
LINE
  5
7D
330
1F
100
AcDbEntity
  8
0
  6
Continuous
 62
     7
370
     0
100
AcDbLine
 10
11.0
 20
16.5
 30
0.0
 11
11.0883883476
 21
16.5883883476
 31
0.0
  0
LINE
  5
7E
330
1F
100
AcDbEntity
  8
0
  6
Continuous
 62
     7
370
     0
100
AcDbLine
 10
11.0883883476
 20
16.5883883476
 30
0.0
 11
10.9116116524
 21
16.5883883476
 31
0.0
  0
LINE
  5
7F
330
1F
100
AcDbEntity
  8
0
  6
Continuous
 62
     7
370
     0
100
AcDbLine
 10
10.9116116524
 20
16.5883883476
 30
0.0
 11
11.0
 21
16.5
 31
0.0
  0
MTEXT
  5
81
330
1F
100
AcDbEntity
  8
0
  6
Continuous
 62
     7
370
     0
100
AcDbMText
 10
20.1716888706
 20
0.4768108101
 30
0.0
 40
0.1875
 41
0.0
 71
     1
 72
     1
  1
1
  7
SLDTEXTSTYLE0
 73
     1
 44
1.0
  0
MTEXT
  5
82
330
1F
100
AcDbEntity
  8
0
  6
Continuous
 62
     7
370
     0
100
AcDbMText
 10
17.472517188
 20
0.4768108101
 30
0.0
 40
0.1875
 41
0.0
 71
     1
 72
     1
  1
2
  7
SLDTEXTSTYLE0
 73
     1
 44
1.0
  0
MTEXT
  5
83
330
1F
100
AcDbEntity
  8
0
  6
Continuous
 62
     7
370
     0
100
AcDbMText
 10
14.8427988255
 20
0.4768108101
 30
0.0
 40
0.1875
 41
0.0
 71
     1
 72
     1
  1
3
  7
SLDTEXTSTYLE0
 73
     1
 44
1.0
  0
MTEXT
  5
84
330
1F
100
AcDbEntity
  8
0
  6
Continuous
 62
     7
370
     0
100
AcDbMText
 10
12.2381253998
 20
0.4768108101
 30
0.0
 40
0.1875
 41
0.0
 71
     1
 72
     1
  1
4
  7
SLDTEXTSTYLE0
 73
     1
 44
1.0
  0
MTEXT
  5
85
330
1F
100
AcDbEntity
  8
0
  6
Continuous
 62
     7
370
     0
100
AcDbMText
 10
9.6251036618
 20
0.4768108101
 30
0.0
 40
0.1875
 41
0.0
 71
     1
 72
     1
  1
5
  7
SLDTEXTSTYLE0
 73
     1
 44
1.0
  0
MTEXT
  5
86
330
1F
100
AcDbEntity
  8
0
  6
Continuous
 62
     7
370
     0
100
AcDbMText
 10
6.9369471135
 20
0.4768108101
 30
0.0
 40
0.1875
 41
0.0
 71
     1
 72
     1
  1
6
  7
SLDTEXTSTYLE0
 73
     1
 44
1.0
  0
MTEXT
  5
87
330
1F
100
AcDbEntity
  8
0
  6
Continuous
 62
     7
370
     0
100
AcDbMText
 10
4.3322736878
 20
0.4768108101
 30
0.0
 40
0.1875
 41
0.0
 71
     1
 72
     1
  1
7
  7
SLDTEXTSTYLE0
 73
     1
 44
1.0
  0
MTEXT
  5
88
330
1F
100
AcDbEntity
  8
0
  6
Continuous
 62
     7
370
     0
100
AcDbMText
 10
1.7192519498
 20
0.4768108101
 30
0.0
 40
0.1875
 41
0.0
 71
     1
 72
     1
  1
8
  7
SLDTEXTSTYLE0
 73
     1
 44
1.0
  0
MTEXT
  5
89
330
1F
100
AcDbEntity
  8
0
  6
Continuous
 62
     7
370
     0
100
AcDbMText
 10
21.6247810122
 20
1.9511369686
 30
0.0
 40
0.1875
 41
0.0
 71
     2
 72
     1
  1
A
  7
SLDTEXTSTYLE0
 73
     1
 44
1.0
  0
MTEXT
  5
8A
330
1F
100
AcDbEntity
  8
0
  6
Continuous
 62
     7
370
     0
100
AcDbMText
 10
21.6098066955
 20
4.5770361579
 30
0.0
 40
0.1875
 41
0.0
 71
     2
 72
     1
  1
B
  7
SLDTEXTSTYLE0
 73
     1
 44
1.0
  0
MTEXT
  5
8B
330
1F
100
AcDbEntity
  8
0
  6
Continuous
 62
     7
370
     0
100
AcDbMText
 10
21.6184145201
 20
7.3290532157
 30
0.0
 40
0.1875
 41
0.0
 71
     2
 72
     1
  1
C
  7
SLDTEXTSTYLE0
 73
     1
 44
1.0
  0
MTEXT
  5
8C
330
1F
100
AcDbEntity
  8
0
  6
Continuous
 62
     7
370
     0
100
AcDbMText
 10
21.6206378198
 20
9.9516820371
 30
0.0
 40
0.1875
 41
0.0
 71
     2
 72
     1
  1
D
  7
SLDTEXTSTYLE0
 73
     1
 44
1.0
  0
MTEXT
  5
8D
330
1F
100
AcDbEntity
  8
0
  6
Continuous
 62
     7
370
     0
100
AcDbMText
 10
21.6201405192
 20
12.6215534307
 30
0.0
 40
0.1875
 41
0.0
 71
     2
 72
     1
  1
E
  7
SLDTEXTSTYLE0
 73
     1
 44
1.0
  0
MTEXT
  5
8E
330
1F
100
AcDbEntity
  8
0
  6
Continuous
 62
     7
370
     0
100
AcDbMText
 10
21.6176549739
 20
15.3243854564
 30
0.0
 40
0.1875
 41
0.0
 71
     2
 72
     1
  1
F
  7
SLDTEXTSTYLE0
 73
     1
 44
1.0
  0
MTEXT
  5
8F
330
1F
100
AcDbEntity
  8
0
  6
Continuous
 62
     7
370
     0
100
AcDbMText
 10
0.3768667965
 20
15.2541940475
 30
0.0
 40
0.1875
 41
0.0
 71
     2
 72
     1
  1
F
  7
SLDTEXTSTYLE0
 73
     1
 44
1.0
  0
MTEXT
  5
90
330
1F
100
AcDbEntity
  8
0
  6
Continuous
 62
     7
370
     0
100
AcDbMText
 10
0.3793523419
 20
12.5513620218
 30
0.0
 40
0.1875
 41
0.0
 71
     2
 72
     1
  1
E
  7
SLDTEXTSTYLE0
 73
     1
 44
1.0
  0
MTEXT
  5
91
330
1F
100
AcDbEntity
  8
0
  6
Continuous
 62
     7
370
     0
100
AcDbMText
 10
0.3798496425
 20
9.8814906283
 30
0.0
 40
0.1875
 41
0.0
 71
     2
 72
     1
  1
D
  7
SLDTEXTSTYLE0
 73
     1
 44
1.0
  0
MTEXT
  5
92
330
1F
100
AcDbEntity
  8
0
  6
Continuous
 62
     7
370
     0
100
AcDbMText
 10
0.3776263427
 20
7.2588618069
 30
0.0
 40
0.1875
 41
0.0
 71
     2
 72
     1
  1
C
  7
SLDTEXTSTYLE0
 73
     1
 44
1.0
  0
MTEXT
  5
93
330
1F
100
AcDbEntity
  8
0
  6
Continuous
 62
     7
370
     0
100
AcDbMText
 10
0.3690185182
 20
4.5068447491
 30
0.0
 40
0.1875
 41
0.0
 71
     2
 72
     1
  1
B
  7
SLDTEXTSTYLE0
 73
     1
 44
1.0
  0
MTEXT
  5
94
330
1F
100
AcDbEntity
  8
0
  6
Continuous
 62
     7
370
     0
100
AcDbMText
 10
0.3839928349
 20
1.8809455597
 30
0.0
 40
0.1875
 41
0.0
 71
     2
 72
     1
  1
A
  7
SLDTEXTSTYLE0
 73
     1
 44
1.0
  0
MTEXT
  5
95
330
1F
100
AcDbEntity
  8
0
  6
Continuous
 62
     7
370
     0
100
AcDbMText
 10
1.7619613094
 20
16.716958264
 30
0.0
 40
0.1875
 41
0.0
 71
     1
 72
     1
  1
8
  7
SLDTEXTSTYLE0
 73
     1
 44
1.0
  0
MTEXT
  5
96
330
1F
100
AcDbEntity
  8
0
  6
Continuous
 62
     7
370
     0
100
AcDbMText
 10
4.3749830474
 20
16.716958264
 30
0.0
 40
0.1875
 41
0.0
 71
     1
 72
     1
  1
7
  7
SLDTEXTSTYLE0
 73
     1
 44
1.0
  0
MTEXT
  5
97
330
1F
100
AcDbEntity
  8
0
  6
Continuous
 62
     7
370
     0
100
AcDbMText
 10
6.9796564731
 20
16.716958264
 30
0.0
 40
0.1875
 41
0.0
 71
     1
 72
     1
  1
6
  7
SLDTEXTSTYLE0
 73
     1
 44
1.0
  0
MTEXT
  5
98
330
1F
100
AcDbEntity
  8
0
  6
Continuous
 62
     7
370
     0
100
AcDbMText
 10
9.6678130214
 20
16.716958264
 30
0.0
 40
0.1875
 41
0.0
 71
     1
 72
     1
  1
5
  7
SLDTEXTSTYLE0
 73
     1
 44
1.0
  0
MTEXT
  5
99
330
1F
100
AcDbEntity
  8
0
  6
Continuous
 62
     7
370
     0
100
AcDbMText
 10
12.2808347594
 20
16.716958264
 30
0.0
 40
0.1875
 41
0.0
 71
     1
 72
     1
  1
4
  7
SLDTEXTSTYLE0
 73
     1
 44
1.0
  0
MTEXT
  5
9A
330
1F
100
AcDbEntity
  8
0
  6
Continuous
 62
     7
370
     0
100
AcDbMText
 10
14.8855081851
 20
16.716958264
 30
0.0
 40
0.1875
 41
0.0
 71
     1
 72
     1
  1
3
  7
SLDTEXTSTYLE0
 73
     1
 44
1.0
  0
MTEXT
  5
9B
330
1F
100
AcDbEntity
  8
0
  6
Continuous
 62
     7
370
     0
100
AcDbMText
 10
17.5152265476
 20
16.716958264
 30
0.0
 40
0.1875
 41
0.0
 71
     1
 72
     1
  1
2
  7
SLDTEXTSTYLE0
 73
     1
 44
1.0
  0
MTEXT
  5
9C
330
1F
100
AcDbEntity
  8
0
  6
Continuous
 62
     7
370
     0
100
AcDbMText
 10
20.2143982302
 20
16.716958264
 30
0.0
 40
0.1875
 41
0.0
 71
     1
 72
     1
  1
1
  7
SLDTEXTSTYLE0
 73
     1
 44
1.0
  0
INSERT
  5
A2
330
1F
100
AcDbEntity
  8
SLD-0
100
AcDbBlockReference
  2
SW_NOTE_0
 10
1.1972772735
 20
1.0414097387
 30
0.0
  0
MTEXT
  5
A3
330
1F
100
AcDbEntity
  8
0
  6
Continuous
 62
     7
370
     0
100
AcDbMText
 10
2.0251689911
 20
1.6748404559
 30
0.0
 40
0.25
 41
0.0
 71
     1
 72
     1
  1
LSP1TURF AND FIELD DECODER CONNECTION
  7
SLDTEXTSTYLE0
 73
     1
 44
1.0
  0
MTEXT
  5
A4
330
1F
100
AcDbEntity
  8
0
  6
Continuous
 62
     7
370
     0
100
AcDbMText
 10
20.7671302739
 20
1.0969322887
 30
0.0
 40
0.1875
 41
0.0
 71
     3
 72
     1
  1
N.T.S.
  7
SLDTEXTSTYLE0
 73
     1
 44
1.0
  0
MTEXT
  5
A5
330
1F
100
AcDbEntity
  8
0
  6
Continuous
 62
     7
370
     0
100
AcDbMText
 10
20.7492050621
 20
1.5917224686
 30
0.0
 40
0.1875
 41
0.0
 71
     3
 72
     1
  1
10/19/2015
  7
SLDTEXTSTYLE0
 73
     1
 44
1.0
  0
INSERT
  5
AE
330
1F
100
AcDbEntity
  8
0
  6
Continuous
 62
     7
370
     0
100
AcDbBlockReference
  2
SW_NOTE_1
 10
11.4623969182
 20
4.0708413389
 30
0.0
  0
LINE
  5
AF
330
1F
100
AcDbEntity
  8
0
  6
Continuous
 62
   179
370
    15
100
AcDbLine
 10
18.7246226024
 20
9.7538001951
 30
0.0
 11
18.9262367756
 21
9.7538001951
 31
0.0
  0
LINE
  5
B0
330
1F
100
AcDbEntity
  8
0
  6
Continuous
 62
   179
370
    15
100
AcDbLine
 10
17.7175438622
 20
9.5439537384
 30
0.0
 11
17.7175438622
 21
9.0831230298
 31
0.0
  0
LINE
  5
B1
330
1F
100
AcDbEntity
  8
0
  6
Continuous
 62
   179
370
    15
100
AcDbLine
 10
19.6133745709
 20
8.3424970455
 30
0.0
 11
18.3831107914
 21
8.3424970455
 31
0.0
  0
LINE
  5
B2
330
1F
100
AcDbEntity
  8
0
  6
Continuous
 62
   179
370
    15
100
AcDbLine
 10
18.3831107914
 20
8.3424970455
 30
0.0
 11
18.3831107914
 21
7.7911387778
 31
0.0
  0
LINE
  5
B3
330
1F
100
AcDbEntity
  8
0
  6
Continuous
 62
   179
370
    15
100
AcDbLine
 10
18.3831107914
 20
7.7911387778
 30
0.0
 11
19.6133745709
 21
8.3424970455
 31
0.0
  0
LINE
  5
B4
330
1F
100
AcDbEntity
  8
0
  6
Continuous
 62
   179
370
    15
100
AcDbLine
 10
18.3831107914
 20
8.3424970455
 30
0.0
 11
19.6133745709
 21
7.7911387778
 31
0.0
  0
LINE
  5
B5
330
1F
100
AcDbEntity
  8
0
  6
Continuous
 62
   179
370
    15
100
AcDbLine
 10
12.3027367756
 20
8.3424970455
 30
0.0
 11
11.0724690591
 21
8.3424970455
 31
0.0
  0
LINE
  5
B6
330
1F
100
AcDbEntity
  8
0
  6
Continuous
 62
   179
370
    15
100
AcDbLine
 10
11.0724690591
 20
8.3424970455
 30
0.0
 11
12.3027367756
 21
7.7911387778
 31
0.0
  0
LINE
  5
B7
330
1F
100
AcDbEntity
  8
0
  6
Continuous
 62
   179
370
    15
100
AcDbLine
 10
12.3027367756
 20
8.3424970455
 30
0.0
 11
11.0724690591
 21
7.7911387778
 31
0.0
  0
LINE
  5
B8
330
1F
100
AcDbEntity
  8
0
  6
Continuous
 62
   179
370
    15
100
AcDbLine
 10
11.0724690591
 20
7.7911387778
 30
0.0
 11
11.0724690591
 21
8.3424970455
 31
0.0
  0
LINE
  5
B9
330
1F
100
AcDbEntity
  8
0
  6
Continuous
 62
   179
370
    15
100
AcDbLine
 10
11.0724690591
 20
7.7911387778
 30
0.0
 11
12.3027367756
 21
7.7911387778
 31
0.0
  0
LINE
  5
BA
330
1F
100
AcDbEntity
  8
0
  6
Continuous
 62
   179
370
    15
100
AcDbLine
 10
12.3027367756
 20
7.7911387778
 30
0.0
 11
12.3027367756
 21
8.3424970455
 31
0.0
  0
LINE
  5
BB
330
1F
100
AcDbEntity
  8
0
  6
Continuous
 62
   179
370
    15
100
AcDbLine
 10
19.6133745709
 20
8.3424970455
 30
0.0
 11
19.6133745709
 21
7.7911387778
 31
0.0
  0
LINE
  5
BC
330
1F
100
AcDbEntity
  8
0
  6
Continuous
 62
   179
370
    15
100
AcDbLine
 10
19.6133745709
 20
7.7911387778
 30
0.0
 11
18.3831107914
 21
7.7911387778
 31
0.0
  0
LINE
  5
BD
330
1F
100
AcDbEntity
  8
0
  6
Continuous
 62
   179
370
    15
100
AcDbLine
 10
15.7476681649
 20
9.0831230298
 30
0.0
 11
12.1134690591
 21
9.0831230298
 31
0.0
  0
LINE
  5
BE
330
1F
100
AcDbEntity
  8
0
  6
Continuous
 62
   179
370
    15
100
AcDbLine
 10
15.7476681649
 20
9.5439537384
 30
0.0
 11
14.6331501614
 21
9.5439537384
 31
0.0
  0
LINE
  5
BF
330
1F
100
AcDbEntity
  8
0
  6
Continuous
 62
   179
370
    15
100
AcDbLine
 10
18.987953311
 20
9.5439537384
 30
0.0
 11
18.9262367756
 21
9.823749014
 31
0.0
  0
LINE
  5
C0
330
1F
100
AcDbEntity
  8
0
  6
Continuous
 62
   179
370
    15
100
AcDbLine
 10
18.9262367756
 20
9.823749014
 30
0.0
 11
18.7863430748
 21
9.823749014
 31
0.0
  0
LINE
  5
C1
330
1F
100
AcDbEntity
  8
0
  6
Continuous
 62
   179
370
    15
100
AcDbLine
 10
18.7863430748
 20
9.823749014
 30
0.0
 11
18.7328548858
 21
10.560256888
 31
0.0
  0
LINE
  5
C2
330
1F
100
AcDbEntity
  8
0
  6
Continuous
 62
   179
370
    15
100
AcDbLine
 10
18.7328548858
 20
10.560256888
 30
0.0
 11
18.5188903189
 21
11.5806781479
 31
0.0
  0
LINE
  5
C3
330
1F
100
AcDbEntity
  8
0
  6
Continuous
 62
   179
370
    15
100
AcDbLine
 10
18.5188903189
 20
11.5806781479
 30
0.0
 11
18.4283745709
 21
11.9509891715
 31
0.0
  0
LINE
  5
C4
330
1F
100
AcDbEntity
  8
0
  6
Continuous
 62
   179
370
    15
100
AcDbLine
 10
18.4283745709
 20
11.9509891715
 30
0.0
 11
18.4283745709
 21
12.7821348408
 31
0.0
  0
LINE
  5
C5
330
1F
100
AcDbEntity
  8
0
  6
Continuous
 62
   179
370
    15
100
AcDbLine
 10
18.4283745709
 20
12.7821348408
 30
0.0
 11
18.3337328386
 21
12.7821348408
 31
0.0
  0
LINE
  5
C6
330
1F
100
AcDbEntity
  8
0
  6
Continuous
 62
   179
370
    15
100
AcDbLine
 10
18.3337328386
 20
12.7821348408
 30
0.0
 11
18.3337328386
 21
12.156725392
 31
0.0
  0
LINE
  5
C7
330
1F
100
AcDbEntity
  8
0
  6
Continuous
 62
   179
370
    15
100
AcDbLine
 10
18.3337328386
 20
12.156725392
 30
0.0
 11
18.1732643347
 21
12.156725392
 31
0.0
  0
LINE
  5
C8
330
1F
100
AcDbEntity
  8
0
  6
Continuous
 62
   179
370
    15
100
AcDbLine
 10
18.1732643347
 20
12.156725392
 30
0.0
 11
18.1732643347
 21
11.7411466518
 31
0.0
  0
LINE
  5
C9
330
1F
100
AcDbEntity
  8
0
  6
Continuous
 62
   179
370
    15
100
AcDbLine
 10
18.1732643347
 20
11.7411466518
 30
0.0
 11
18.2432170906
 21
11.7411466518
 31
0.0
  0
LINE
  5
CA
330
1F
100
AcDbEntity
  8
0
  6
Continuous
 62
   179
370
    15
100
AcDbLine
 10
18.2432170906
 20
11.7411466518
 30
0.0
 11
18.2432170906
 21
12.0867726361
 31
0.0
  0
LINE
  5
CB
330
1F
100
AcDbEntity
  8
0
  6
Continuous
 62
   179
370
    15
100
AcDbLine
 10
18.2432170906
 20
12.0867726361
 30
0.0
 11
18.3213903189
 21
12.0867726361
 31
0.0
  0
LINE
  5
CC
330
1F
100
AcDbEntity
  8
0
  6
Continuous
 62
   179
370
    15
100
AcDbLine
 10
18.3213903189
 20
12.0867726361
 30
0.0
 11
18.4530596103
 21
11.564221455
 31
0.0
  0
LINE
  5
CD
330
1F
100
AcDbEntity
  8
0
  6
Continuous
 62
   179
370
    15
100
AcDbLine
 10
18.4530596103
 20
11.564221455
 30
0.0
 11
18.662906067
 21
10.5520324786
 31
0.0
  0
LINE
  5
CE
330
1F
100
AcDbEntity
  8
0
  6
Continuous
 62
   179
370
    15
100
AcDbLine
 10
18.662906067
 20
10.5520324786
 30
0.0
 11
18.7410792953
 21
9.5439537384
 31
0.0
  0
LINE
  5
CF
330
1F
100
AcDbEntity
  8
0
  6
Continuous
 62
   179
370
    15
100
AcDbLine
 10
18.7740005551
 20
9.0831230298
 30
0.0
 11
18.8274848071
 21
8.3424970455
 31
0.0
  0
LINE
  5
D0
330
1F
100
AcDbEntity
  8
0
  6
Continuous
 62
   179
370
    15
100
AcDbLine
 10
19.1690005551
 20
8.3424970455
 30
0.0
 11
19.1690005551
 21
8.7128080691
 31
0.0
  0
LINE
  5
D1
330
1F
100
AcDbEntity
  8
0
  6
Continuous
 62
   179
370
    15
100
AcDbLine
 10
19.1690005551
 20
8.7128080691
 30
0.0
 11
19.0867052795
 21
9.0831230298
 31
0.0
  0
LINE
  5
D2
330
1F
100
AcDbEntity
  8
0
  6
Continuous
 62
   179
370
    15
100
AcDbLine
 10
11.5168470118
 20
8.3424970455
 30
0.0
 11
11.5168470118
 21
8.7128080691
 31
0.0
  0
LINE
  5
D3
330
1F
100
AcDbEntity
  8
0
  6
Continuous
 62
   179
370
    15
100
AcDbLine
 10
11.5168470118
 20
8.7128080691
 30
0.0
 11
11.7596107914
 21
9.823749014
 31
0.0
  0
LINE
  5
D4
330
1F
100
AcDbEntity
  8
0
  6
Continuous
 62
   179
370
    15
100
AcDbLine
 10
11.7596107914
 20
9.823749014
 30
0.0
 11
11.8995044921
 21
9.823749014
 31
0.0
  0
LINE
  5
D5
330
1F
100
AcDbEntity
  8
0
  6
Continuous
 62
   179
370
    15
100
AcDbLine
 10
11.8995044921
 20
9.823749014
 30
0.0
 11
11.9529887441
 21
10.560256888
 31
0.0
  0
LINE
  5
D6
330
1F
100
AcDbEntity
  8
0
  6
Continuous
 62
   179
370
    15
100
AcDbLine
 10
11.9529887441
 20
10.560256888
 30
0.0
 11
12.166953311
 21
11.5806781479
 31
0.0
  0
LINE
  5
D7
330
1F
100
AcDbEntity
  8
0
  6
Continuous
 62
   179
370
    15
100
AcDbLine
 10
12.166953311
 20
11.5806781479
 30
0.0
 11
12.2574729961
 21
11.9509891715
 31
0.0
  0
LINE
  5
D8
330
1F
100
AcDbEntity
  8
0
  6
Continuous
 62
   179
370
    15
100
AcDbLine
 10
12.2574729961
 20
11.9509891715
 30
0.0
 11
12.2574729961
 21
12.7821348408
 31
0.0
  0
LINE
  5
D9
330
1F
100
AcDbEntity
  8
0
  6
Continuous
 62
   179
370
    15
100
AcDbLine
 10
12.2574729961
 20
12.7821348408
 30
0.0
 11
12.3521107914
 21
12.7821348408
 31
0.0
  0
LINE
  5
DA
330
1F
100
AcDbEntity
  8
0
  6
Continuous
 62
   179
370
    15
100
AcDbLine
 10
12.3521107914
 20
12.7821348408
 30
0.0
 11
12.3521107914
 21
12.156725392
 31
0.0
  0
LINE
  5
DB
330
1F
100
AcDbEntity
  8
0
  6
Continuous
 62
   179
370
    15
100
AcDbLine
 10
12.3521107914
 20
12.156725392
 30
0.0
 11
12.5125792953
 21
12.156725392
 31
0.0
  0
LINE
  5
DC
330
1F
100
AcDbEntity
  8
0
  6
Continuous
 62
   179
370
    15
100
AcDbLine
 10
12.5125792953
 20
12.156725392
 30
0.0
 11
12.5125792953
 21
11.7411466518
 31
0.0
  0
LINE
  5
DD
330
1F
100
AcDbEntity
  8
0
  6
Continuous
 62
   179
370
    15
100
AcDbLine
 10
12.5125792953
 20
11.7411466518
 30
0.0
 11
12.4426304764
 21
11.7411466518
 31
0.0
  0
LINE
  5
DE
330
1F
100
AcDbEntity
  8
0
  6
Continuous
 62
   179
370
    15
100
AcDbLine
 10
12.4426304764
 20
11.7411466518
 30
0.0
 11
12.4426304764
 21
12.0867726361
 31
0.0
  0
LINE
  5
DF
330
1F
100
AcDbEntity
  8
0
  6
Continuous
 62
   179
370
    15
100
AcDbLine
 10
12.4426304764
 20
12.0867726361
 30
0.0
 11
12.364453311
 21
12.0867726361
 31
0.0
  0
LINE
  5
E0
330
1F
100
AcDbEntity
  8
0
  6
Continuous
 62
   179
370
    15
100
AcDbLine
 10
12.364453311
 20
12.0867726361
 30
0.0
 11
12.2327840197
 21
11.564221455
 31
0.0
  0
LINE
  5
E1
330
1F
100
AcDbEntity
  8
0
  6
Continuous
 62
   179
370
    15
100
AcDbLine
 10
12.2327840197
 20
11.564221455
 30
0.0
 11
12.0229415
 21
10.5520324786
 31
0.0
  0
LINE
  5
E2
330
1F
100
AcDbEntity
  8
0
  6
Continuous
 62
   179
370
    15
100
AcDbLine
 10
12.0229415
 20
10.5520324786
 30
0.0
 11
11.8583588229
 21
8.3424970455
 31
0.0
  0
LINE
  5
E3
330
1F
100
AcDbEntity
  8
0
  6
Continuous
 62
   179
370
    15
100
AcDbLine
 10
10.9795399252
 20
12.7821348408
 30
0.0
 11
12.2574729961
 21
12.7821348408
 31
0.0
  0
LINE
  5
E4
330
1F
100
AcDbEntity
  8
0
  6
Continuous
 62
   179
370
    15
100
AcDbLine
 10
18.4283745709
 20
12.7821348408
 30
0.0
 11
20.0327376668
 21
12.7780246046
 31
0.0
  0
LINE
  5
E5
330
1F
100
AcDbEntity
  8
0
  6
Continuous
 62
   179
370
    15
100
AcDbLine
 10
15.7476681649
 20
9.0131702739
 30
0.0
 11
16.0593666969
 21
9.0131702739
 31
0.0
  0
LINE
  5
E6
330
1F
100
AcDbEntity
  8
0
  6
Continuous
 62
   179
370
    15
100
AcDbLine
 10
16.0593666969
 20
9.0131702739
 30
0.0
 11
16.0593666969
 21
9.6138946833
 31
0.0
  0
LINE
  5
E7
330
1F
100
AcDbEntity
  8
0
  6
Continuous
 62
   179
370
    15
100
AcDbLine
 10
16.0593666969
 20
9.6138946833
 30
0.0
 11
15.7476681649
 21
9.6138946833
 31
0.0
  0
LINE
  5
E8
330
1F
100
AcDbEntity
  8
0
  6
Continuous
 62
   179
370
    15
100
AcDbLine
 10
15.7476681649
 20
9.6138946833
 30
0.0
 11
15.7476681649
 21
9.0131702739
 31
0.0
  0
LINE
  5
E9
330
1F
100
AcDbEntity
  8
0
  6
Continuous
 62
   179
370
    15
100
AcDbLine
 10
17.0221698465
 20
10.2228631872
 30
0.0
 11
17.2602013425
 21
10.0534222424
 31
0.0
  0
LINE
  5
EA
330
1F
100
AcDbEntity
  8
0
  6
Continuous
 62
   179
370
    15
100
AcDbLine
 10
16.8493548858
 20
10.2228631872
 30
0.0
 11
16.7382643347
 21
10.1437726361
 31
0.0
  0
LINE
  5
EB
330
1F
100
AcDbEntity
  8
0
  6
Continuous
 62
   179
370
    15
100
AcDbLine
 10
16.6930084292
 20
10.0829694865
 30
0.0
 11
16.6930084292
 21
9.9924419274
 31
0.0
  0
LINE
  5
EC
330
1F
100
AcDbEntity
  8
0
  6
Continuous
 62
   179
370
    15
100
AcDbLine
 10
16.8205596103
 20
10.0582805101
 30
0.0
 11
16.7012328386
 21
9.9883316912
 31
0.0
  0
LINE
  5
ED
330
1F
100
AcDbEntity
  8
0
  6
Continuous
 62
   179
370
    15
100
AcDbLine
 10
17.0880084292
 20
10.0582805101
 30
0.0
 11
17.0915753583
 21
10.0368907463
 31
0.0
  0
LINE
  5
EE
330
1F
100
AcDbEntity
  8
0
  6
Continuous
 62
   179
370
    15
100
AcDbLine
 10
16.7835281142
 20
10.0582805101
 30
0.0
 11
16.774449374
 21
10.031233266
 31
0.0
  0
LINE
  5
EF
330
1F
100
AcDbEntity
  8
0
  6
Continuous
 62
   179
370
    15
100
AcDbLine
 10
17.0550911063
 20
10.0582805101
 30
0.0
 11
17.174417878
 21
9.9883316912
 31
0.0
  0
LINE
  5
F0
330
1F
100
AcDbEntity
  8
0
  6
Continuous
 62
   179
370
    15
100
AcDbLine
 10
17.0468588229
 20
10.0582805101
 30
0.0
 11
17.0550911063
 21
9.9718749983
 31
0.0
  0
LINE
  5
F1
330
1F
100
AcDbEntity
  8
0
  6
Continuous
 62
   179
370
    15
100
AcDbLine
 10
16.8287918937
 20
10.0582805101
 30
0.0
 11
16.816445437
 21
9.9718749983
 31
0.0
  0
LINE
  5
F2
330
1F
100
AcDbEntity
  8
0
  6
Continuous
 62
   179
370
    15
100
AcDbLine
 10
16.9481068544
 20
9.9718749983
 30
0.0
 11
16.9481068544
 21
10.2228631872
 31
0.0
  0
LINE
  5
F3
330
1F
100
AcDbEntity
  8
0
  6
Continuous
 62
   179
370
    15
100
AcDbLine
 10
16.9481068544
 20
10.2228631872
 30
0.0
 11
16.9275399252
 21
10.2228631872
 31
0.0
  0
LINE
  5
F4
330
1F
100
AcDbEntity
  8
0
  6
Continuous
 62
   179
370
    15
100
AcDbLine
 10
16.9275399252
 20
10.2228631872
 30
0.0
 11
16.9275399252
 21
9.9718749983
 31
0.0
  0
LINE
  5
F5
330
1F
100
AcDbEntity
  8
0
  6
Continuous
 62
   179
370
    15
100
AcDbLine
 10
17.0221698465
 20
10.1323435022
 30
0.0
 11
17.0880084292
 21
10.0582805101
 31
0.0
  0
LINE
  5
F6
330
1F
100
AcDbEntity
  8
0
  6
Continuous
 62
   179
370
    15
100
AcDbLine
 10
17.0880084292
 20
10.0582805101
 30
0.0
 11
16.9481068544
 21
10.0582805101
 31
0.0
  0
LINE
  5
F7
330
1F
100
AcDbEntity
  8
0
  6
Continuous
 62
   179
370
    15
100
AcDbLine
 10
16.8493548858
 20
10.1323435022
 30
0.0
 11
16.7835281142
 21
10.0582805101
 31
0.0
  0
LINE
  5
F8
330
1F
100
AcDbEntity
  8
0
  6
Continuous
 62
   179
370
    15
100
AcDbLine
 10
16.7835281142
 20
10.0582805101
 30
0.0
 11
16.9275399252
 21
10.0582805101
 31
0.0
  0
LINE
  5
F9
330
1F
100
AcDbEntity
  8
0
  6
Continuous
 62
   179
370
    15
100
AcDbLine
 10
17.0221698465
 20
10.4738474392
 30
0.0
 11
17.0221698465
 21
10.1323435022
 31
0.0
  0
LINE
  5
FA
330
1F
100
AcDbEntity
  8
0
  6
Continuous
 62
   179
370
    15
100
AcDbLine
 10
17.0221698465
 20
10.1323435022
 30
0.0
 11
16.9481068544
 21
10.1323435022
 31
0.0
  0
LINE
  5
FB
330
1F
100
AcDbEntity
  8
0
  6
Continuous
 62
   179
370
    15
100
AcDbLine
 10
16.8493548858
 20
10.4738474392
 30
0.0
 11
16.8493548858
 21
10.1323435022
 31
0.0
  0
LINE
  5
FC
330
1F
100
AcDbEntity
  8
0
  6
Continuous
 62
   179
370
    15
100
AcDbLine
 10
16.8493548858
 20
10.1323435022
 30
0.0
 11
16.9275399252
 21
10.1323435022
 31
0.0
  0
LINE
  5
FD
330
1F
100
AcDbEntity
  8
0
  6
Continuous
 62
   179
370
    15
100
AcDbLine
 10
16.277433626
 20
10.0829694865
 30
0.0
 11
16.277433626
 21
9.7784852345
 31
0.0
  0
LINE
  5
FE
330
1F
100
AcDbEntity
  8
0
  6
Continuous
 62
   179
370
    15
100
AcDbLine
 10
16.277433626
 20
9.7784852345
 30
0.0
 11
16.3123745709
 21
9.7787686991
 31
0.0
  0
LINE
  5
FF
330
1F
100
AcDbEntity
  8
0
  6
Continuous
 62
   179
370
    15
100
AcDbLine
 10
16.8493548858
 20
10.9017686991
 30
0.0
 11
16.8493548858
 21
10.9881742109
 31
0.0
  0
LINE
  5
100
330
1F
100
AcDbEntity
  8
0
  6
Continuous
 62
   179
370
    15
100
AcDbLine
 10
16.8493548858
 20
10.9881742109
 30
0.0
 11
17.0221698465
 21
10.9881742109
 31
0.0
  0
LINE
  5
101
330
1F
100
AcDbEntity
  8
0
  6
Continuous
 62
   179
370
    15
100
AcDbLine
 10
17.0221698465
 20
10.9881742109
 30
0.0
 11
17.0221698465
 21
10.9017686991
 31
0.0
  0
LINE
  5
102
330
1F
100
AcDbEntity
  8
0
  6
Continuous
 62
   179
370
    15
100
AcDbLine
 10
16.170449374
 20
9.0831230298
 30
0.0
 11
16.0593548858
 21
9.0831230298
 31
0.0
  0
LINE
  5
103
330
1F
100
AcDbEntity
  8
0
  6
Continuous
 62
   179
370
    15
100
AcDbLine
 10
16.170449374
 20
9.5439537384
 30
0.0
 11
16.0593548858
 21
9.5439537384
 31
0.0
  0
LINE
  5
104
330
1F
100
AcDbEntity
  8
0
  6
Continuous
 62
   179
370
    15
100
AcDbLine
 10
17.0908470118
 20
10.9881742109
 30
0.0
 11
17.7152446496
 21
10.9881742109
 31
0.0
  0
LINE
  5
105
330
1F
100
AcDbEntity
  8
0
  6
Continuous
 62
   179
370
    15
100
AcDbLine
 10
17.4030438622
 20
11.92974114
 30
0.0
 11
17.4030438622
 21
12.1511269668
 31
0.0
  0
LINE
  5
106
330
1F
100
AcDbEntity
  8
0
  6
Continuous
 62
   179
370
    15
100
AcDbLine
 10
17.4030438622
 20
11.0495639747
 30
0.0
 11
17.4030438622
 21
11.2448435022
 31
0.0
  0
LINE
  5
107
330
1F
100
AcDbEntity
  8
0
  6
Continuous
 62
   179
370
    15
100
AcDbLine
 10
12.2574729961
 20
12.2019773605
 30
0.0
 11
12.0352840197
 21
12.4241663369
 31
0.0
  0
LINE
  5
108
330
1F
100
AcDbEntity
  8
0
  6
Continuous
 62
   179
370
    15
100
AcDbLine
 10
12.2574729961
 20
12.3336466518
 30
0.0
 11
12.1011226024
 21
12.4900049195
 31
0.0
  0
LINE
  5
109
330
1F
100
AcDbEntity
  8
0
  6
Continuous
 62
   179
370
    15
100
AcDbLine
 10
11.627937563
 20
12.1608356282
 30
0.0
 11
11.3275792953
 21
12.4611978329
 31
0.0
  0
LINE
  5
10A
330
1F
100
AcDbEntity
  8
0
  6
Continuous
 62
   179
370
    15
100
AcDbLine
 10
12.2574729961
 20
12.4694301164
 30
0.0
 11
12.1710674843
 21
12.5558356282
 31
0.0
  0
LINE
  5
10B
330
1F
100
AcDbEntity
  8
0
  6
Continuous
 62
   179
370
    15
100
AcDbLine
 10
11.7678430748
 20
12.156725392
 30
0.0
 11
11.3646068544
 21
12.5558356282
 31
0.0
  0
LINE
  5
10C
330
1F
100
AcDbEntity
  8
0
  6
Continuous
 62
   179
370
    15
100
AcDbLine
 10
12.2574729961
 20
12.6052096439
 30
0.0
 11
12.236906067
 21
12.6216663369
 31
0.0
  0
LINE
  5
10D
330
1F
100
AcDbEntity
  8
0
  6
Continuous
 62
   179
370
    15
100
AcDbLine
 10
11.8336737835
 20
12.2225521636
 30
0.0
 11
11.4345596103
 21
12.6216663369
 31
0.0
  0
LINE
  5
10E
330
1F
100
AcDbEntity
  8
0
  6
Continuous
 62
   179
370
    15
100
AcDbLine
 10
11.8995044921
 20
12.2883828723
 30
0.0
 11
11.5003903189
 21
12.6916190928
 31
0.0
  0
LINE
  5
10F
330
1F
100
AcDbEntity
  8
0
  6
Continuous
 62
   179
370
    15
100
AcDbLine
 10
11.969453311
 20
12.354225392
 30
0.0
 11
11.5662210276
 21
12.7574458644
 31
0.0
  0
LINE
  5
110
330
1F
100
AcDbEntity
  8
0
  6
Continuous
 62
   179
370
    15
100
AcDbLine
 10
12.0352840197
 20
12.4241663369
 30
0.0
 11
11.6773155158
 21
12.7821348408
 31
0.0
  0
LINE
  5
111
330
1F
100
AcDbEntity
  8
0
  6
Continuous
 62
   179
370
    15
100
AcDbLine
 10
12.0352840197
 20
12.4241663369
 30
0.0
 11
12.2574729961
 21
12.64224114
 31
0.0
  0
LINE
  5
112
330
1F
100
AcDbEntity
  8
0
  6
Continuous
 62
   179
370
    15
100
AcDbLine
 10
11.3234651221
 20
12.5146938959
 30
0.0
 11
11.590910004
 21
12.7821348408
 31
0.0
  0
LINE
  5
113
330
1F
100
AcDbEntity
  8
0
  6
Continuous
 62
   179
370
    15
100
AcDbLine
 10
11.969453311
 20
12.4900049195
 30
0.0
 11
12.2574729961
 21
12.7780246046
 31
0.0
  0
LINE
  5
114
330
1F
100
AcDbEntity
  8
0
  6
Continuous
 62
   179
370
    15
100
AcDbLine
 10
11.3070005551
 20
12.6340088565
 30
0.0
 11
11.4592485866
 21
12.7821348408
 31
0.0
  0
LINE
  5
115
330
1F
100
AcDbEntity
  8
0
  6
Continuous
 62
   179
370
    15
100
AcDbLine
 10
12.1916422874
 20
12.0415088565
 30
0.0
 11
12.2574729961
 21
12.1073474392
 31
0.0
  0
LINE
  5
116
330
1F
100
AcDbEntity
  8
0
  6
Continuous
 62
   179
370
    15
100
AcDbLine
 10
11.8995044921
 20
12.5558356282
 30
0.0
 11
12.1258115788
 21
12.7821348408
 31
0.0
  0
LINE
  5
117
330
1F
100
AcDbEntity
  8
0
  6
Continuous
 62
   179
370
    15
100
AcDbLine
 10
12.0928903189
 20
12.0785403526
 30
0.0
 11
12.236906067
 21
12.2225521636
 31
0.0
  0
LINE
  5
118
330
1F
100
AcDbEntity
  8
0
  6
Continuous
 62
   179
370
    15
100
AcDbLine
 10
11.8336737835
 20
12.6216663369
 30
0.0
 11
11.9941422874
 21
12.7821348408
 31
0.0
  0
LINE
  5
119
330
1F
100
AcDbEntity
  8
0
  6
Continuous
 62
   179
370
    15
100
AcDbLine
 10
11.9900281142
 20
12.1073474392
 30
0.0
 11
12.1710674843
 21
12.2883828723
 31
0.0
  0
LINE
  5
11A
330
1F
100
AcDbEntity
  8
0
  6
Continuous
 62
   179
370
    15
100
AcDbLine
 10
11.7678430748
 20
12.6916190928
 30
0.0
 11
11.8583588229
 21
12.7821348408
 31
0.0
  0
LINE
  5
11B
330
1F
100
AcDbEntity
  8
0
  6
Continuous
 62
   179
370
    15
100
AcDbLine
 10
11.8707052795
 20
12.1238041321
 30
0.0
 11
12.1011226024
 21
12.354225392
 31
0.0
  0
LINE
  5
11C
330
1F
100
AcDbEntity
  8
0
  6
Continuous
 62
   179
370
    15
100
AcDbLine
 10
11.7020005551
 20
12.7574458644
 30
0.0
 11
11.7266895315
 21
12.7821348408
 31
0.0
  0
LINE
  5
11D
330
1F
100
AcDbEntity
  8
0
  6
Continuous
 62
   179
370
    15
100
AcDbLine
 10
11.7554966181
 20
12.1443789353
 30
0.0
 11
12.0352840197
 21
12.4241663369
 31
0.0
  0
LINE
  5
11E
330
1F
100
AcDbEntity
  8
0
  6
Continuous
 62
   179
370
    15
100
AcDbLine
 10
18.4283745709
 20
12.2019773605
 30
0.0
 11
18.6505596103
 21
12.4241663369
 31
0.0
  0
LINE
  5
11F
330
1F
100
AcDbEntity
  8
0
  6
Continuous
 62
   179
370
    15
100
AcDbLine
 10
18.4283745709
 20
12.3336466518
 30
0.0
 11
18.5847210276
 21
12.4900049195
 31
0.0
  0
LINE
  5
120
330
1F
100
AcDbEntity
  8
0
  6
Continuous
 62
   179
370
    15
100
AcDbLine
 10
19.057906067
 20
12.1608356282
 30
0.0
 11
19.3582682717
 21
12.4611978329
 31
0.0
  0
LINE
  5
121
330
1F
100
AcDbEntity
  8
0
  6
Continuous
 62
   179
370
    15
100
AcDbLine
 10
18.4283745709
 20
12.4694301164
 30
0.0
 11
18.5147800827
 21
12.5558356282
 31
0.0
  0
LINE
  5
122
330
1F
100
AcDbEntity
  8
0
  6
Continuous
 62
   179
370
    15
100
AcDbLine
 10
18.9180044921
 20
12.156725392
 30
0.0
 11
19.3212367756
 21
12.5558356282
 31
0.0
  0
LINE
  5
123
330
1F
100
AcDbEntity
  8
0
  6
Continuous
 62
   179
370
    15
100
AcDbLine
 10
18.4283745709
 20
12.6052096439
 30
0.0
 11
18.4489415
 21
12.6216663369
 31
0.0
  0
LINE
  5
124
330
1F
100
AcDbEntity
  8
0
  6
Continuous
 62
   179
370
    15
100
AcDbLine
 10
18.8521737835
 20
12.2225521636
 30
0.0
 11
19.2512840197
 21
12.6216663369
 31
0.0
  0
LINE
  5
125
330
1F
100
AcDbEntity
  8
0
  6
Continuous
 62
   179
370
    15
100
AcDbLine
 10
18.7863430748
 20
12.2883828723
 30
0.0
 11
19.185453311
 21
12.6916190928
 31
0.0
  0
LINE
  5
126
330
1F
100
AcDbEntity
  8
0
  6
Continuous
 62
   179
370
    15
100
AcDbLine
 10
18.7163903189
 20
12.354225392
 30
0.0
 11
19.1196265394
 21
12.7574458644
 31
0.0
  0
LINE
  5
127
330
1F
100
AcDbEntity
  8
0
  6
Continuous
 62
   179
370
    15
100
AcDbLine
 10
18.6505596103
 20
12.4241663369
 30
0.0
 11
19.0085320512
 21
12.7821348408
 31
0.0
  0
LINE
  5
128
330
1F
100
AcDbEntity
  8
0
  6
Continuous
 62
   179
370
    15
100
AcDbLine
 10
18.6505596103
 20
12.4241663369
 30
0.0
 11
18.4283745709
 21
12.64224114
 31
0.0
  0
LINE
  5
129
330
1F
100
AcDbEntity
  8
0
  6
Continuous
 62
   179
370
    15
100
AcDbLine
 10
19.3623785079
 20
12.5146938959
 30
0.0
 11
19.094937563
 21
12.7821348408
 31
0.0
  0
LINE
  5
12A
330
1F
100
AcDbEntity
  8
0
  6
Continuous
 62
   179
370
    15
100
AcDbLine
 10
18.7163903189
 20
12.4900049195
 30
0.0
 11
18.4283745709
 21
12.7780246046
 31
0.0
  0
LINE
  5
12B
330
1F
100
AcDbEntity
  8
0
  6
Continuous
 62
   179
370
    15
100
AcDbLine
 10
19.3788430748
 20
12.6340088565
 30
0.0
 11
19.2265989803
 21
12.7821348408
 31
0.0
  0
LINE
  5
12C
330
1F
100
AcDbEntity
  8
0
  6
Continuous
 62
   179
370
    15
100
AcDbLine
 10
18.4942052795
 20
12.0415088565
 30
0.0
 11
18.4283745709
 21
12.1073474392
 31
0.0
  0
LINE
  5
12D
330
1F
100
AcDbEntity
  8
0
  6
Continuous
 62
   179
370
    15
100
AcDbLine
 10
18.7863430748
 20
12.5558356282
 30
0.0
 11
18.5600320512
 21
12.7821348408
 31
0.0
  0
LINE
  5
12E
330
1F
100
AcDbEntity
  8
0
  6
Continuous
 62
   179
370
    15
100
AcDbLine
 10
18.592953311
 20
12.0785403526
 30
0.0
 11
18.4489415
 21
12.2225521636
 31
0.0
  0
LINE
  5
12F
330
1F
100
AcDbEntity
  8
0
  6
Continuous
 62
   179
370
    15
100
AcDbLine
 10
18.8521737835
 20
12.6216663369
 30
0.0
 11
18.6917052795
 21
12.7821348408
 31
0.0
  0
LINE
  5
130
330
1F
100
AcDbEntity
  8
0
  6
Continuous
 62
   179
370
    15
100
AcDbLine
 10
18.6958155158
 20
12.1073474392
 30
0.0
 11
18.5147800827
 21
12.2883828723
 31
0.0
  0
LINE
  5
131
330
1F
100
AcDbEntity
  8
0
  6
Continuous
 62
   179
370
    15
100
AcDbLine
 10
18.9180044921
 20
12.6916190928
 30
0.0
 11
18.8274848071
 21
12.7821348408
 31
0.0
  0
LINE
  5
132
330
1F
100
AcDbEntity
  8
0
  6
Continuous
 62
   179
370
    15
100
AcDbLine
 10
18.8151422874
 20
12.1238041321
 30
0.0
 11
18.5847210276
 21
12.354225392
 31
0.0
  0
LINE
  5
133
330
1F
100
AcDbEntity
  8
0
  6
Continuous
 62
   179
370
    15
100
AcDbLine
 10
18.9838430748
 20
12.7574458644
 30
0.0
 11
18.9591540984
 21
12.7821348408
 31
0.0
  0
LINE
  5
134
330
1F
100
AcDbEntity
  8
0
  6
Continuous
 62
   179
370
    15
100
AcDbLine
 10
18.9303470118
 20
12.1443789353
 30
0.0
 11
18.6505596103
 21
12.4241663369
 31
0.0
  0
LINE
  5
135
330
1F
100
AcDbEntity
  8
0
  6
Continuous
 62
   179
370
    15
100
AcDbLine
 10
17.5200399252
 20
9.7085364156
 30
0.0
 11
17.5200399252
 21
9.3135324786
 31
0.0
  0
LINE
  5
136
330
1F
100
AcDbEntity
  8
0
  6
Continuous
 62
   179
370
    15
100
AcDbLine
 10
17.5200399252
 20
9.3135324786
 30
0.0
 11
17.4254021299
 21
9.3135324786
 31
0.0
  0
LINE
  5
137
330
1F
100
AcDbEntity
  8
0
  6
Continuous
 62
   179
370
    15
100
AcDbLine
 10
16.656949374
 20
9.0798198802
 30
0.0
 11
16.3926383504
 21
9.0798198802
 31
0.0
  0
LINE
  5
138
330
1F
100
AcDbEntity
  8
0
  6
Continuous
 62
   179
370
    15
100
AcDbLine
 10
16.3926383504
 20
9.7085364156
 30
0.0
 11
16.3926383504
 21
9.0573080691
 31
0.0
  0
LINE
  5
139
330
1F
100
AcDbEntity
  8
0
  6
Continuous
 62
   179
370
    15
100
AcDbLine
 10
16.3566344134
 20
9.0264694865
 30
0.0
 11
16.2307407126
 21
9.0264694865
 31
0.0
  0
LINE
  5
13A
330
1F
100
AcDbEntity
  8
0
  6
Continuous
 62
   179
370
    15
100
AcDbLine
 10
16.1717525236
 20
9.0854576754
 30
0.0
 11
16.1717525236
 21
9.5439537384
 31
0.0
  0
LINE
  5
13B
330
1F
100
AcDbEntity
  8
0
  6
Continuous
 62
   179
370
    15
100
AcDbLine
 10
16.2307407126
 20
9.6029419274
 30
0.0
 11
16.3926383504
 21
9.6029419274
 31
0.0
  0
LINE
  5
13C
330
1F
100
AcDbEntity
  8
0
  6
Continuous
 62
   179
370
    15
100
AcDbLine
 10
16.9892603977
 20
9.7085364156
 30
0.0
 11
16.9892603977
 21
9.3135324786
 31
0.0
  0
LINE
  5
13D
330
1F
100
AcDbEntity
  8
0
  6
Continuous
 62
   179
370
    15
100
AcDbLine
 10
16.9892603977
 20
9.3135324786
 30
0.0
 11
16.8946186654
 21
9.3135324786
 31
0.0
  0
LINE
  5
13E
330
1F
100
AcDbEntity
  8
0
  6
Continuous
 62
   179
370
    15
100
AcDbLine
 10
16.8946186654
 20
9.3135324786
 30
0.0
 11
16.8946186654
 21
9.7085364156
 31
0.0
  0
LINE
  5
13F
330
1F
100
AcDbEntity
  8
0
  6
Continuous
 62
   179
370
    15
100
AcDbLine
 10
16.7876383504
 20
10.7371899589
 30
0.0
 11
16.7876383504
 21
10.4738474392
 31
0.0
  0
LINE
  5
140
330
1F
100
AcDbEntity
  8
0
  6
Continuous
 62
   179
370
    15
100
AcDbLine
 10
16.7876383504
 20
10.4738474392
 30
0.0
 11
17.0880084292
 21
10.4738474392
 31
0.0
  0
LINE
  5
141
330
1F
100
AcDbEntity
  8
0
  6
Continuous
 62
   179
370
    15
100
AcDbLine
 10
17.0880084292
 20
10.4738474392
 30
0.0
 11
17.0880084292
 21
10.7371899589
 31
0.0
  0
LINE
  5
142
330
1F
100
AcDbEntity
  8
0
  6
Continuous
 62
   179
370
    15
100
AcDbLine
 10
16.8905084292
 20
10.8565049195
 30
0.0
 11
16.9851383504
 21
10.8565049195
 31
0.0
  0
LINE
  5
143
330
1F
100
AcDbEntity
  8
0
  6
Continuous
 62
   179
370
    15
100
AcDbLine
 10
16.8905084292
 20
10.7865639747
 30
0.0
 11
16.9851383504
 21
10.7865639747
 31
0.0
  0
LINE
  5
144
330
1F
100
AcDbEntity
  8
0
  6
Continuous
 62
   179
370
    15
100
AcDbLine
 10
17.4254021299
 20
9.7085364156
 30
0.0
 11
17.4254021299
 21
9.0469655495
 31
0.0
  0
LINE
  5
145
330
1F
100
AcDbEntity
  8
0
  6
Continuous
 62
   179
370
    15
100
AcDbLine
 10
17.4492643347
 20
9.0255167306
 30
0.0
 11
17.6023273268
 21
9.0255167306
 31
0.0
  0
LINE
  5
146
330
1F
100
AcDbEntity
  8
0
  6
Continuous
 62
   179
370
    15
100
AcDbLine
 10
17.6023273268
 20
9.6015600376
 30
0.0
 11
17.5200399252
 21
9.6015600376
 31
0.0
  0
LINE
  5
147
330
1F
100
AcDbEntity
  8
0
  6
Continuous
 62
   179
370
    15
100
AcDbLine
 10
16.2897761457
 20
10.2516623998
 30
0.0
 11
16.2897761457
 21
10.5479104313
 31
0.0
  0
LINE
  5
148
330
1F
100
AcDbEntity
  8
0
  6
Continuous
 62
   179
370
    15
100
AcDbLine
 10
16.2897761457
 20
10.5479104313
 30
0.0
 11
16.6888863819
 21
10.5479104313
 31
0.0
  0
LINE
  5
149
330
1F
100
AcDbEntity
  8
0
  6
Continuous
 62
   179
370
    15
100
AcDbLine
 10
16.6888863819
 20
10.5479104313
 30
0.0
 11
16.6888863819
 21
10.2516623998
 31
0.0
  0
LINE
  5
14A
330
1F
100
AcDbEntity
  8
0
  6
Continuous
 62
   179
370
    15
100
AcDbLine
 10
16.1827918937
 20
10.2516623998
 30
0.0
 11
16.1827918937
 21
9.9019222424
 31
0.0
  0
LINE
  5
14B
330
1F
100
AcDbEntity
  8
0
  6
Continuous
 62
   179
370
    15
100
AcDbLine
 10
16.1827918937
 20
9.9019222424
 30
0.0
 11
16.2404021299
 21
9.9019222424
 31
0.0
  0
LINE
  5
14C
330
1F
100
AcDbEntity
  8
0
  6
Continuous
 62
   179
370
    15
100
AcDbLine
 10
16.2404021299
 20
9.9019222424
 30
0.0
 11
16.2404021299
 21
10.2516623998
 31
0.0
  0
LINE
  5
14D
330
1F
100
AcDbEntity
  8
0
  6
Continuous
 62
   179
370
    15
100
AcDbLine
 10
16.0922761457
 20
10.2516623998
 30
0.0
 11
16.0922761457
 21
10.0829694865
 31
0.0
  0
LINE
  5
14E
330
1F
100
AcDbEntity
  8
0
  6
Continuous
 62
   179
370
    15
100
AcDbLine
 10
16.6398430748
 20
10.5479104313
 30
0.0
 11
16.6398430748
 21
10.2516623998
 31
0.0
  0
LINE
  5
14F
330
1F
100
AcDbEntity
  8
0
  6
Continuous
 62
   179
370
    15
100
AcDbLine
 10
16.5243076418
 20
10.5479104313
 30
0.0
 11
16.5243076418
 21
10.2516623998
 31
0.0
  0
LINE
  5
150
330
1F
100
AcDbEntity
  8
0
  6
Continuous
 62
   179
370
    15
100
AcDbLine
 10
16.4543548858
 20
10.5479104313
 30
0.0
 11
16.4543548858
 21
10.2516623998
 31
0.0
  0
LINE
  5
151
330
1F
100
AcDbEntity
  8
0
  6
Continuous
 62
   179
370
    15
100
AcDbLine
 10
16.3366029173
 20
10.5479104313
 30
0.0
 11
16.3366029173
 21
10.2516623998
 31
0.0
  0
LINE
  5
152
330
1F
100
AcDbEntity
  8
0
  6
Continuous
 62
   179
370
    15
100
AcDbLine
 10
16.4790438622
 20
10.2516623998
 30
0.0
 11
16.4790438622
 21
10.0829694865
 31
0.0
  0
LINE
  5
153
330
1F
100
AcDbEntity
  8
0
  6
Continuous
 62
   179
370
    15
100
AcDbLine
 10
16.6930084292
 20
9.0748907463
 30
0.0
 11
16.7915753583
 21
9.0748907463
 31
0.0
  0
LINE
  5
154
330
1F
100
AcDbEntity
  8
0
  6
Continuous
 62
   179
370
    15
100
AcDbLine
 10
16.8082131536
 20
9.0584340534
 30
0.0
 11
16.8082131536
 21
9.0131702739
 31
0.0
  0
LINE
  5
155
330
1F
100
AcDbEntity
  8
0
  6
Continuous
 62
   179
370
    15
100
AcDbLine
 10
16.8082131536
 20
9.0131702739
 30
0.0
 11
17.0633233898
 21
9.0131702739
 31
0.0
  0
LINE
  5
156
330
1F
100
AcDbEntity
  8
0
  6
Continuous
 62
   179
370
    15
100
AcDbLine
 10
17.0633233898
 20
9.0131702739
 30
0.0
 11
17.0633233898
 21
9.0584340534
 31
0.0
  0
LINE
  5
157
330
1F
100
AcDbEntity
  8
0
  6
Continuous
 62
   179
370
    15
100
AcDbLine
 10
16.8246698465
 20
9.0954655495
 30
0.0
 11
16.8082131536
 21
9.0625482266
 31
0.0
  0
LINE
  5
158
330
1F
100
AcDbEntity
  8
0
  6
Continuous
 62
   179
370
    15
100
AcDbLine
 10
17.4254021299
 20
9.0748907463
 30
0.0
 11
17.0838903189
 21
9.0748907463
 31
0.0
  0
LINE
  5
159
330
1F
100
AcDbEntity
  8
0
  6
Continuous
 62
   179
370
    15
100
AcDbLine
 10
18.0340697847
 20
9.0831230298
 30
0.0
 11
19.794421815
 21
9.0831230298
 31
0.0
  0
LINE
  5
15A
330
1F
100
AcDbEntity
  8
0
  6
Continuous
 62
   179
370
    15
100
AcDbLine
 10
19.794421815
 20
9.087233266
 30
0.0
 11
19.8273312638
 21
9.1036899589
 31
0.0
  0
LINE
  5
15B
330
1F
100
AcDbEntity
  8
0
  6
Continuous
 62
   179
370
    15
100
AcDbLine
 10
19.8273312638
 20
9.1036899589
 30
0.0
 11
19.8520202402
 21
9.1283789353
 31
0.0
  0
LINE
  5
15C
330
1F
100
AcDbEntity
  8
0
  6
Continuous
 62
   179
370
    15
100
AcDbLine
 10
19.8520202402
 20
9.1283789353
 30
0.0
 11
19.8684848071
 21
9.1612962581
 31
0.0
  0
LINE
  5
15D
330
1F
100
AcDbEntity
  8
0
  6
Continuous
 62
   179
370
    15
100
AcDbLine
 10
19.8684848071
 20
9.1612962581
 30
0.0
 11
19.8725950433
 21
9.1983277542
 31
0.0
  0
LINE
  5
15E
330
1F
100
AcDbEntity
  8
0
  6
Continuous
 62
   179
370
    15
100
AcDbLine
 10
19.8725950433
 20
9.1983277542
 30
0.0
 11
19.8684848071
 21
9.2353592502
 31
0.0
  0
LINE
  5
15F
330
1F
100
AcDbEntity
  8
0
  6
Continuous
 62
   179
370
    15
100
AcDbLine
 10
19.8684848071
 20
9.2353592502
 30
0.0
 11
19.8520202402
 21
9.2682805101
 31
0.0
  0
LINE
  5
160
330
1F
100
AcDbEntity
  8
0
  6
Continuous
 62
   179
370
    15
100
AcDbLine
 10
19.8520202402
 20
9.2682805101
 30
0.0
 11
19.8273312638
 21
9.2929655495
 31
0.0
  0
LINE
  5
161
330
1F
100
AcDbEntity
  8
0
  6
Continuous
 62
   179
370
    15
100
AcDbLine
 10
19.8273312638
 20
9.2929655495
 30
0.0
 11
19.794421815
 21
9.3094222424
 31
0.0
  0
LINE
  5
162
330
1F
100
AcDbEntity
  8
0
  6
Continuous
 62
   179
370
    15
100
AcDbLine
 10
18.0340697847
 20
9.5439537384
 30
0.0
 11
19.794421815
 21
9.5439537384
 31
0.0
  0
LINE
  5
163
330
1F
100
AcDbEntity
  8
0
  6
Continuous
 62
   179
370
    15
100
AcDbLine
 10
17.7175438622
 20
9.6139064943
 30
0.0
 11
18.0340697847
 21
9.6139064943
 31
0.0
  0
LINE
  5
164
330
1F
100
AcDbEntity
  8
0
  6
Continuous
 62
   179
370
    15
100
AcDbLine
 10
18.0340697847
 20
9.6139064943
 30
0.0
 11
18.0340697847
 21
9.0131702739
 31
0.0
  0
LINE
  5
165
330
1F
100
AcDbEntity
  8
0
  6
Continuous
 62
   179
370
    15
100
AcDbLine
 10
17.7175438622
 20
9.6139064943
 30
0.0
 11
17.7175438622
 21
9.0131702739
 31
0.0
  0
LINE
  5
166
330
1F
100
AcDbEntity
  8
0
  6
Continuous
 62
   179
370
    15
100
AcDbLine
 10
17.7175438622
 20
9.0131702739
 30
0.0
 11
18.0340697847
 21
9.0131702739
 31
0.0
  0
LINE
  5
167
330
1F
100
AcDbEntity
  8
0
  6
Continuous
 62
   179
370
    15
100
AcDbLine
 10
17.7175438622
 20
9.5439537384
 30
0.0
 11
17.6434808701
 21
9.5439537384
 31
0.0
  0
LINE
  5
168
330
1F
100
AcDbEntity
  8
0
  6
Continuous
 62
   179
370
    15
100
AcDbLine
 10
17.7175438622
 20
9.0831230298
 30
0.0
 11
17.6434808701
 21
9.0831230298
 31
0.0
  0
LINE
  5
169
330
1F
100
AcDbEntity
  8
0
  6
Continuous
 62
   179
370
    15
100
AcDbLine
 10
13.8427131536
 20
10.6878041321
 30
0.0
 11
13.8427131536
 21
11.152745077
 31
0.0
  0
LINE
  5
16A
330
1F
100
AcDbEntity
  8
0
  6
Continuous
 62
   179
370
    15
100
AcDbLine
 10
14.6388666969
 20
11.2309419274
 30
0.0
 11
14.6388666969
 21
11.6958828723
 31
0.0
  0
LINE
  5
16B
330
1F
100
AcDbEntity
  8
0
  6
Continuous
 62
   179
370
    15
100
AcDbLine
 10
12.4673155158
 20
13.6009458644
 30
0.0
 11
12.2039848071
 21
12.7821348408
 31
0.0
  0
LINE
  5
16C
330
1F
100
AcDbEntity
  8
0
  6
Continuous
 62
   179
370
    15
100
AcDbLine
 10
12.3438785079
 20
13.5844812975
 30
0.0
 11
12.1546107914
 21
12.7821348408
 31
0.0
  0
LINE
  5
16D
330
1F
100
AcDbEntity
  8
0
  6
Continuous
 62
   179
370
    15
100
AcDbLine
 10
11.5168470118
 20
13.5844812975
 30
0.0
 11
11.3234651221
 21
12.7821348408
 31
0.0
  0
LINE
  5
16E
330
1F
100
AcDbEntity
  8
0
  6
Continuous
 62
   179
370
    15
100
AcDbLine
 10
11.4551265394
 20
13.4816190928
 30
0.0
 11
11.6402840197
 21
12.7821348408
 31
0.0
  0
LINE
  5
16F
330
1F
100
AcDbEntity
  8
0
  6
Continuous
 62
   179
370
    15
100
AcDbLine
 10
11.1465320512
 20
13.4980757857
 30
0.0
 11
11.3892958307
 21
12.7821348408
 31
0.0
  0
LINE
  5
170
330
1F
100
AcDbEntity
  8
0
  6
Continuous
 62
   179
370
    15
100
AcDbLine
 10
11.2782013425
 20
13.4692765731
 30
0.0
 11
11.339921815
 21
12.7821348408
 31
0.0
  0
LINE
  5
171
330
1F
100
AcDbEntity
  8
0
  6
Continuous
 62
   179
370
    15
100
AcDbLine
 10
11.3646068544
 20
13.5145403526
 30
0.0
 11
11.4551265394
 21
12.7821348408
 31
0.0
  0
LINE
  5
172
330
1F
100
AcDbEntity
  8
0
  6
Continuous
 62
   179
370
    15
100
AcDbLine
 10
11.1671068544
 20
13.5268828723
 30
0.0
 11
11.1012800827
 21
12.7780246046
 31
0.0
  0
LINE
  5
173
330
1F
100
AcDbEntity
  8
0
  6
Continuous
 62
   179
370
    15
100
AcDbLine
 10
11.2617485866
 20
13.6091663369
 30
0.0
 11
11.2617485866
 21
12.7821348408
 31
0.0
  0
LINE
  5
174
330
1F
100
AcDbEntity
  8
0
  6
Continuous
 62
   179
370
    15
100
AcDbLine
 10
11.1300753583
 20
13.4692765731
 30
0.0
 11
11.195906067
 21
12.7821348408
 31
0.0
  0
LINE
  5
175
330
1F
100
AcDbEntity
  8
0
  6
Continuous
 62
   179
370
    15
100
AcDbLine
 10
11.1136226024
 20
13.4775088565
 30
0.0
 11
11.2823155158
 21
12.7821348408
 31
0.0
  0
LINE
  5
176
330
1F
100
AcDbEntity
  8
0
  6
Continuous
 62
   179
370
    15
100
AcDbLine
 10
11.0642485866
 20
13.4281309038
 30
0.0
 11
11.1712210276
 21
12.7821348408
 31
0.0
  0
LINE
  5
177
330
1F
100
AcDbEntity
  8
0
  6
Continuous
 62
   179
370
    15
100
AcDbLine
 10
11.3316895315
 20
13.4157883841
 30
0.0
 11
11.5045005551
 21
12.7821348408
 31
0.0
  0
LINE
  5
178
330
1F
100
AcDbEntity
  8
0
  6
Continuous
 62
   179
370
    15
100
AcDbLine
 10
12.076437563
 20
13.4816190928
 30
0.0
 11
12.2574729961
 21
12.7821348408
 31
0.0
  0
LINE
  5
179
330
1F
100
AcDbEntity
  8
0
  6
Continuous
 62
   179
370
    15
100
AcDbLine
 10
12.1505005551
 20
13.5309931085
 30
0.0
 11
12.0887800827
 21
12.7821348408
 31
0.0
  0
LINE
  5
17A
330
1F
100
AcDbEntity
  8
0
  6
Continuous
 62
   179
370
    15
100
AcDbLine
 10
12.2410163032
 20
13.6091663369
 30
0.0
 11
12.2410163032
 21
12.7821348408
 31
0.0
  0
LINE
  5
17B
330
1F
100
AcDbEntity
  8
0
  6
Continuous
 62
   179
370
    15
100
AcDbLine
 10
11.6197170906
 20
13.6091663369
 30
0.0
 11
11.6197170906
 21
12.7821348408
 31
0.0
  0
LINE
  5
17C
330
1F
100
AcDbEntity
  8
0
  6
Continuous
 62
   179
370
    15
100
AcDbLine
 10
11.6032525236
 20
13.4610442896
 30
0.0
 11
11.537421815
 21
12.7821348408
 31
0.0
  0
LINE
  5
17D
330
1F
100
AcDbEntity
  8
0
  6
Continuous
 62
   179
370
    15
100
AcDbLine
 10
11.7431540984
 20
13.6091663369
 30
0.0
 11
11.7431540984
 21
12.7821348408
 31
0.0
  0
LINE
  5
17E
330
1F
100
AcDbEntity
  8
0
  6
Continuous
 62
   179
370
    15
100
AcDbLine
 10
11.627937563
 20
13.5145403526
 30
0.0
 11
11.7184651221
 21
12.7821348408
 31
0.0
  0
LINE
  5
17F
330
1F
100
AcDbEntity
  8
0
  6
Continuous
 62
   179
370
    15
100
AcDbLine
 10
11.8830477992
 20
13.6091663369
 30
0.0
 11
11.8830477992
 21
12.7821348408
 31
0.0
  0
LINE
  5
180
330
1F
100
AcDbEntity
  8
0
  6
Continuous
 62
   179
370
    15
100
AcDbLine
 10
11.8254415
 20
13.6091663369
 30
0.0
 11
11.8254415
 21
12.7821348408
 31
0.0
  0
LINE
  5
181
330
1F
100
AcDbEntity
  8
0
  6
Continuous
 62
   179
370
    15
100
AcDbLine
 10
11.6978903189
 20
13.4157883841
 30
0.0
 11
11.8707052795
 21
12.7821348408
 31
0.0
  0
LINE
  5
182
330
1F
100
AcDbEntity
  8
0
  6
Continuous
 62
   179
370
    15
100
AcDbLine
 10
11.627937563
 20
13.4775088565
 30
0.0
 11
11.7925281142
 21
12.7821348408
 31
0.0
  0
LINE
  5
183
330
1F
100
AcDbEntity
  8
0
  6
Continuous
 62
   179
370
    15
100
AcDbLine
 10
11.985910004
 20
13.5145403526
 30
0.0
 11
12.076437563
 21
12.7821348408
 31
0.0
  0
LINE
  5
184
330
1F
100
AcDbEntity
  8
0
  6
Continuous
 62
   179
370
    15
100
AcDbLine
 10
11.9530005551
 20
13.4157883841
 30
0.0
 11
12.1258115788
 21
12.7821348408
 31
0.0
  0
LINE
  5
185
330
1F
100
AcDbEntity
  8
0
  6
Continuous
 62
   179
370
    15
100
AcDbLine
 10
12.0105950433
 20
13.5309931085
 30
0.0
 11
11.9447643347
 21
12.7821348408
 31
0.0
  0
LINE
  5
186
330
1F
100
AcDbEntity
  8
0
  6
Continuous
 62
   179
370
    15
100
AcDbLine
 10
11.8089848071
 20
13.4157883841
 30
0.0
 11
11.985910004
 21
12.7821348408
 31
0.0
  0
LINE
  5
187
330
1F
100
AcDbEntity
  8
0
  6
Continuous
 62
   179
370
    15
100
AcDbLine
 10
18.2185281142
 20
13.6009458644
 30
0.0
 11
18.4818588229
 21
12.7821348408
 31
0.0
  0
LINE
  5
188
330
1F
100
AcDbEntity
  8
0
  6
Continuous
 62
   179
370
    15
100
AcDbLine
 10
18.3419651221
 20
13.5844812975
 30
0.0
 11
18.5312367756
 21
12.7821348408
 31
0.0
  0
LINE
  5
189
330
1F
100
AcDbEntity
  8
0
  6
Continuous
 62
   179
370
    15
100
AcDbLine
 10
19.1690005551
 20
13.5844812975
 30
0.0
 11
19.3623785079
 21
12.7821348408
 31
0.0
  0
LINE
  5
18A
330
1F
100
AcDbEntity
  8
0
  6
Continuous
 62
   179
370
    15
100
AcDbLine
 10
19.2307170906
 20
13.4816190928
 30
0.0
 11
19.0455635473
 21
12.7821348408
 31
0.0
  0
LINE
  5
18B
330
1F
100
AcDbEntity
  8
0
  6
Continuous
 62
   179
370
    15
100
AcDbLine
 10
19.5393115788
 20
13.4980757857
 30
0.0
 11
19.2965477992
 21
12.7821348408
 31
0.0
  0
LINE
  5
18C
330
1F
100
AcDbEntity
  8
0
  6
Continuous
 62
   179
370
    15
100
AcDbLine
 10
19.4076422874
 20
13.4692765731
 30
0.0
 11
19.345925752
 21
12.7821348408
 31
0.0
  0
LINE
  5
18D
330
1F
100
AcDbEntity
  8
0
  6
Continuous
 62
   179
370
    15
100
AcDbLine
 10
19.3212367756
 20
13.5145403526
 30
0.0
 11
19.2307170906
 21
12.7821348408
 31
0.0
  0
LINE
  5
18E
330
1F
100
AcDbEntity
  8
0
  6
Continuous
 62
   179
370
    15
100
AcDbLine
 10
19.5187367756
 20
13.5268828723
 30
0.0
 11
19.5845674843
 21
12.7780246046
 31
0.0
  0
LINE
  5
18F
330
1F
100
AcDbEntity
  8
0
  6
Continuous
 62
   179
370
    15
100
AcDbLine
 10
19.4240989803
 20
13.6091663369
 30
0.0
 11
19.4240989803
 21
12.7821348408
 31
0.0
  0
LINE
  5
190
330
1F
100
AcDbEntity
  8
0
  6
Continuous
 62
   179
370
    15
100
AcDbLine
 10
19.5557682717
 20
13.4692765731
 30
0.0
 11
19.489937563
 21
12.7821348408
 31
0.0
  0
LINE
  5
191
330
1F
100
AcDbEntity
  8
0
  6
Continuous
 62
   179
370
    15
100
AcDbLine
 10
19.5722249646
 20
13.4775088565
 30
0.0
 11
19.4035320512
 21
12.7821348408
 31
0.0
  0
LINE
  5
192
330
1F
100
AcDbEntity
  8
0
  6
Continuous
 62
   179
370
    15
100
AcDbLine
 10
19.6215989803
 20
13.4281309038
 30
0.0
 11
19.5146265394
 21
12.7821348408
 31
0.0
  0
LINE
  5
193
330
1F
100
AcDbEntity
  8
0
  6
Continuous
 62
   179
370
    15
100
AcDbLine
 10
19.3541580355
 20
13.4157883841
 30
0.0
 11
19.1813430748
 21
12.7821348408
 31
0.0
  0
LINE
  5
194
330
1F
100
AcDbEntity
  8
0
  6
Continuous
 62
   179
370
    15
100
AcDbLine
 10
18.609410004
 20
13.4816190928
 30
0.0
 11
18.4283745709
 21
12.7821348408
 31
0.0
  0
LINE
  5
195
330
1F
100
AcDbEntity
  8
0
  6
Continuous
 62
   179
370
    15
100
AcDbLine
 10
18.5353470118
 20
13.5309931085
 30
0.0
 11
18.5970635473
 21
12.7821348408
 31
0.0
  0
LINE
  5
196
330
1F
100
AcDbEntity
  8
0
  6
Continuous
 62
   179
370
    15
100
AcDbLine
 10
18.4448273268
 20
13.6091663369
 30
0.0
 11
18.4448273268
 21
12.7821348408
 31
0.0
  0
LINE
  5
197
330
1F
100
AcDbEntity
  8
0
  6
Continuous
 62
   179
370
    15
100
AcDbLine
 10
19.0661304764
 20
13.6091663369
 30
0.0
 11
19.0661304764
 21
12.7821348408
 31
0.0
  0
LINE
  5
198
330
1F
100
AcDbEntity
  8
0
  6
Continuous
 62
   179
370
    15
100
AcDbLine
 10
19.0825950433
 20
13.4610442896
 30
0.0
 11
19.148421815
 21
12.7821348408
 31
0.0
  0
LINE
  5
199
330
1F
100
AcDbEntity
  8
0
  6
Continuous
 62
   179
370
    15
100
AcDbLine
 10
18.9426895315
 20
13.6091663369
 30
0.0
 11
18.9426895315
 21
12.7821348408
 31
0.0
  0
LINE
  5
19A
330
1F
100
AcDbEntity
  8
0
  6
Continuous
 62
   179
370
    15
100
AcDbLine
 10
19.057906067
 20
13.5145403526
 30
0.0
 11
18.9673785079
 21
12.7821348408
 31
0.0
  0
LINE
  5
19B
330
1F
100
AcDbEntity
  8
0
  6
Continuous
 62
   179
370
    15
100
AcDbLine
 10
18.8027997677
 20
13.6091663369
 30
0.0
 11
18.8027997677
 21
12.7821348408
 31
0.0
  0
LINE
  5
19C
330
1F
100
AcDbEntity
  8
0
  6
Continuous
 62
   179
370
    15
100
AcDbLine
 10
18.860406067
 20
13.6091663369
 30
0.0
 11
18.860406067
 21
12.7821348408
 31
0.0
  0
LINE
  5
19D
330
1F
100
AcDbEntity
  8
0
  6
Continuous
 62
   179
370
    15
100
AcDbLine
 10
18.987953311
 20
13.4157883841
 30
0.0
 11
18.8151422874
 21
12.7821348408
 31
0.0
  0
LINE
  5
19E
330
1F
100
AcDbEntity
  8
0
  6
Continuous
 62
   179
370
    15
100
AcDbLine
 10
19.057906067
 20
13.4775088565
 30
0.0
 11
18.8933155158
 21
12.7821348408
 31
0.0
  0
LINE
  5
19F
330
1F
100
AcDbEntity
  8
0
  6
Continuous
 62
   179
370
    15
100
AcDbLine
 10
18.699937563
 20
13.5145403526
 30
0.0
 11
18.609410004
 21
12.7821348408
 31
0.0
  0
LINE
  5
1A0
330
1F
100
AcDbEntity
  8
0
  6
Continuous
 62
   179
370
    15
100
AcDbLine
 10
18.7328470118
 20
13.4157883841
 30
0.0
 11
18.5600320512
 21
12.7821348408
 31
0.0
  0
LINE
  5
1A1
330
1F
100
AcDbEntity
  8
0
  6
Continuous
 62
   179
370
    15
100
AcDbLine
 10
18.6752485866
 20
13.5309931085
 30
0.0
 11
18.7410792953
 21
12.7821348408
 31
0.0
  0
LINE
  5
1A2
330
1F
100
AcDbEntity
  8
0
  6
Continuous
 62
   179
370
    15
100
AcDbLine
 10
18.8768588229
 20
13.4157883841
 30
0.0
 11
18.699937563
 21
12.7821348408
 31
0.0
  0
LINE
  5
1A3
330
1F
100
AcDbEntity
  8
0
  6
Continuous
 62
   179
370
    15
100
AcDbLine
 10
10.7301147284
 20
10.2508356282
 30
0.0
 11
10.5243824449
 21
10.2508356282
 31
0.0
  0
LINE
  5
1A4
330
1F
100
AcDbEntity
  8
0
  6
Continuous
 62
   179
370
    15
100
AcDbLine
 10
10.5243824449
 20
12.851260825
 30
0.0
 11
10.5243824449
 21
10.2508356282
 31
0.0
  0
LINE
  5
1A5
330
1F
100
AcDbEntity
  8
0
  6
Continuous
 62
   179
370
    15
100
AcDbLine
 10
10.5243824449
 20
10.2508356282
 30
0.0
 11
10.6272446496
 21
10.049225392
 31
0.0
  0
LINE
  5
1A6
330
1F
100
AcDbEntity
  8
0
  6
Continuous
 62
   179
370
    15
100
AcDbLine
 10
10.6272446496
 20
10.049225392
 30
0.0
 11
10.7301147284
 21
10.2508356282
 31
0.0
  0
LINE
  5
1A7
330
1F
100
AcDbEntity
  8
0
  6
Continuous
 62
   179
370
    15
100
AcDbLine
 10
10.7301147284
 20
10.2508356282
 30
0.0
 11
10.7301147284
 21
12.851260825
 31
0.0
  0
LINE
  5
1A8
330
1F
100
AcDbEntity
  8
0
  6
Continuous
 62
   179
370
    15
100
AcDbLine
 10
10.5243824449
 20
13.011729329
 30
0.0
 11
10.5243824449
 21
13.3614655495
 31
0.0
  0
LINE
  5
1A9
330
1F
100
AcDbEntity
  8
0
  6
Continuous
 62
   179
370
    15
100
AcDbLine
 10
10.5243824449
 20
13.3614655495
 30
0.0
 11
10.7301147284
 21
13.3614655495
 31
0.0
  0
LINE
  5
1AA
330
1F
100
AcDbEntity
  8
0
  6
Continuous
 62
   179
370
    15
100
AcDbLine
 10
10.7301147284
 20
13.3614655495
 30
0.0
 11
10.7301147284
 21
13.011729329
 31
0.0
  0
LINE
  5
1AB
330
1F
100
AcDbEntity
  8
0
  6
Continuous
 62
   179
370
    15
100
AcDbLine
 10
10.2816186654
 20
12.9006348408
 30
0.0
 11
10.2445871693
 21
12.9006348408
 31
0.0
  0
LINE
  5
1AC
330
1F
100
AcDbEntity
  8
0
  6
Continuous
 62
   179
370
    15
100
AcDbLine
 10
10.2816186654
 20
12.9705757857
 30
0.0
 11
10.2445871693
 21
12.9705757857
 31
0.0
  0
LINE
  5
1AD
330
1F
100
AcDbEntity
  8
0
  6
Continuous
 62
   179
370
    15
100
AcDbLine
 10
10.310425752
 20
12.9500088565
 30
0.0
 11
10.2816186654
 21
12.9500088565
 31
0.0
  0
LINE
  5
1AE
330
1F
100
AcDbEntity
  8
0
  6
Continuous
 62
   179
370
    15
100
AcDbLine
 10
10.2816186654
 20
12.9170875967
 30
0.0
 11
10.310425752
 21
12.9170875967
 31
0.0
  0
LINE
  5
1AF
330
1F
100
AcDbEntity
  8
0
  6
Continuous
 62
   179
370
    15
100
AcDbLine
 10
10.3885989803
 20
13.011729329
 30
0.0
 11
10.310425752
 21
12.9746978329
 31
0.0
  0
LINE
  5
1B0
330
1F
100
AcDbEntity
  8
0
  6
Continuous
 62
   179
370
    15
100
AcDbLine
 10
10.310425752
 20
12.9746978329
 30
0.0
 11
10.310425752
 21
12.8924025573
 31
0.0
  0
LINE
  5
1B1
330
1F
100
AcDbEntity
  8
0
  6
Continuous
 62
   179
370
    15
100
AcDbLine
 10
10.310425752
 20
12.8924025573
 30
0.0
 11
10.3885989803
 21
12.851260825
 31
0.0
  0
LINE
  5
1B2
330
1F
100
AcDbEntity
  8
0
  6
Continuous
 62
   179
370
    15
100
AcDbLine
 10
13.5782564607
 20
9.5439537384
 30
0.0
 11
12.1134690591
 21
9.5439537384
 31
0.0
  0
LINE
  5
1B3
330
1F
100
AcDbEntity
  8
0
  6
Continuous
 62
   179
370
    15
100
AcDbLine
 10
14.4150753583
 20
9.5439537384
 30
0.0
 11
13.800445437
 21
9.5439537384
 31
0.0
  0
LINE
  5
1B4
330
1F
100
AcDbEntity
  8
0
  6
Continuous
 62
   179
370
    15
100
AcDbLine
 10
16.6518548858
 20
10.0081584628
 30
0.0
 11
16.6518548858
 21
10.0534222424
 31
0.0
  0
LINE
  5
1B5
330
1F
100
AcDbEntity
  8
0
  6
Continuous
 62
   179
370
    15
100
AcDbLine
 10
16.6518548858
 20
10.0534222424
 30
0.0
 11
16.5201974055
 21
10.0534222424
 31
0.0
  0
LINE
  5
1B6
330
1F
100
AcDbEntity
  8
0
  6
Continuous
 62
   179
370
    15
100
AcDbLine
 10
16.5201974055
 20
10.0534222424
 30
0.0
 11
16.5201974055
 21
10.0081584628
 31
0.0
  0
LINE
  5
1B7
330
1F
100
AcDbEntity
  8
0
  6
Continuous
 62
   179
370
    15
100
AcDbLine
 10
16.5860281142
 20
10.0534222424
 30
0.0
 11
16.5860281142
 21
10.0138907463
 31
0.0
  0
LINE
  5
1B8
330
1F
100
AcDbEntity
  8
0
  6
Continuous
 62
   179
370
    15
100
AcDbLine
 10
16.4606619725
 20
9.975249014
 30
0.0
 11
16.4606619725
 21
9.9826938959
 31
0.0
  0
LINE
  5
1B9
330
1F
100
AcDbEntity
  8
0
  6
Continuous
 62
   179
370
    15
100
AcDbLine
 10
16.7108627599
 20
9.9826938959
 30
0.0
 11
16.7108627599
 21
9.975249014
 31
0.0
  0
LINE
  5
1BA
330
1F
100
AcDbEntity
  8
0
  6
Continuous
 62
   179
370
    15
100
AcDbLine
 10
17.3516029173
 20
10.0081584628
 30
0.0
 11
17.3516029173
 21
10.0534222424
 31
0.0
  0
LINE
  5
1BB
330
1F
100
AcDbEntity
  8
0
  6
Continuous
 62
   179
370
    15
100
AcDbLine
 10
17.3516029173
 20
10.0534222424
 30
0.0
 11
17.2199415
 21
10.0534222424
 31
0.0
  0
LINE
  5
1BC
330
1F
100
AcDbEntity
  8
0
  6
Continuous
 62
   179
370
    15
100
AcDbLine
 10
17.2199415
 20
10.0534222424
 30
0.0
 11
17.2199415
 21
10.0081584628
 31
0.0
  0
LINE
  5
1BD
330
1F
100
AcDbEntity
  8
0
  6
Continuous
 62
   179
370
    15
100
AcDbLine
 10
17.2857722087
 20
10.0534222424
 30
0.0
 11
17.2857722087
 21
10.0138907463
 31
0.0
  0
LINE
  5
1BE
330
1F
100
AcDbEntity
  8
0
  6
Continuous
 62
   179
370
    15
100
AcDbLine
 10
17.160410004
 20
9.975249014
 30
0.0
 11
17.160410004
 21
9.9826938959
 31
0.0
  0
LINE
  5
1BF
330
1F
100
AcDbEntity
  8
0
  6
Continuous
 62
   179
370
    15
100
AcDbLine
 10
17.4106107914
 20
9.9826938959
 30
0.0
 11
17.4106107914
 21
9.975249014
 31
0.0
  0
LINE
  5
1C0
330
1F
100
AcDbEntity
  8
0
  6
Continuous
 62
   179
370
    15
100
AcDbLine
 10
16.3702328386
 20
9.975249014
 30
0.0
 11
17.4899690591
 21
9.975249014
 31
0.0
  0
LINE
  5
1C1
330
1F
100
AcDbEntity
  8
0
  6
Continuous
 62
   179
370
    15
100
AcDbLine
 10
17.5478312638
 20
9.9173868093
 30
0.0
 11
17.5478312638
 21
9.7673749983
 31
0.0
  0
LINE
  5
1C2
330
1F
100
AcDbEntity
  8
0
  6
Continuous
 62
   179
370
    15
100
AcDbLine
 10
17.4899690591
 20
9.7095167306
 30
0.0
 11
16.3702328386
 21
9.7095167306
 31
0.0
  0
LINE
  5
1C3
330
1F
100
AcDbEntity
  8
0
  6
Continuous
 62
   179
370
    15
100
AcDbLine
 10
16.3123745709
 20
9.7673749983
 30
0.0
 11
16.3123745709
 21
9.9173868093
 31
0.0
  0
LINE
  5
1C4
330
1F
100
AcDbEntity
  8
0
  6
Continuous
 62
   179
370
    15
100
AcDbLine
 10
14.4150832323
 20
9.9266112187
 30
0.0
 11
14.6331501614
 21
9.9266112187
 31
0.0
  0
LINE
  5
1C5
330
1F
100
AcDbEntity
  8
0
  6
Continuous
 62
   179
370
    15
100
AcDbLine
 10
14.6331501614
 20
9.9266112187
 30
0.0
 11
14.7319021299
 21
10.021249014
 31
0.0
  0
LINE
  5
1C6
330
1F
100
AcDbEntity
  8
0
  6
Continuous
 62
   179
370
    15
100
AcDbLine
 10
14.6331501614
 20
9.9266112187
 30
0.0
 11
14.6331501614
 21
9.2600482266
 31
0.0
  0
LINE
  5
1C7
330
1F
100
AcDbEntity
  8
0
  6
Continuous
 62
   179
370
    15
100
AcDbLine
 10
14.4150832323
 20
9.2600482266
 30
0.0
 11
14.4150832323
 21
9.9266112187
 31
0.0
  0
LINE
  5
1C8
330
1F
100
AcDbEntity
  8
0
  6
Continuous
 62
   179
370
    15
100
AcDbLine
 10
14.4150832323
 20
9.9266112187
 30
0.0
 11
14.3163352008
 21
10.021249014
 31
0.0
  0
LINE
  5
1C9
330
1F
100
AcDbEntity
  8
0
  6
Continuous
 62
   179
370
    15
100
AcDbLine
 10
14.2504926811
 20
10.0377057069
 30
0.0
 11
14.2504926811
 21
10.0541584628
 31
0.0
  0
LINE
  5
1CA
330
1F
100
AcDbEntity
  8
0
  6
Continuous
 62
   179
370
    15
100
AcDbLine
 10
14.2504926811
 20
10.0541584628
 30
0.0
 11
14.7977407126
 21
10.0541584628
 31
0.0
  0
LINE
  5
1CB
330
1F
100
AcDbEntity
  8
0
  6
Continuous
 62
   179
370
    15
100
AcDbLine
 10
14.7977407126
 20
10.0541584628
 30
0.0
 11
14.7977407126
 21
10.0377057069
 31
0.0
  0
LINE
  5
1CC
330
1F
100
AcDbEntity
  8
0
  6
Continuous
 62
   179
370
    15
100
AcDbLine
 10
14.3163352008
 20
10.0541584628
 30
0.0
 11
14.3163352008
 21
10.1117686991
 31
0.0
  0
LINE
  5
1CD
330
1F
100
AcDbEntity
  8
0
  6
Continuous
 62
   179
370
    15
100
AcDbLine
 10
14.3163352008
 20
10.1117686991
 30
0.0
 11
14.4397722087
 21
10.1117686991
 31
0.0
  0
LINE
  5
1CE
330
1F
100
AcDbEntity
  8
0
  6
Continuous
 62
   179
370
    15
100
AcDbLine
 10
14.4397722087
 20
10.1117686991
 30
0.0
 11
14.4397722087
 21
10.0541584628
 31
0.0
  0
LINE
  5
1CF
330
1F
100
AcDbEntity
  8
0
  6
Continuous
 62
   179
370
    15
100
AcDbLine
 10
14.6084611851
 20
10.0541584628
 30
0.0
 11
14.6084611851
 21
10.1117686991
 31
0.0
  0
LINE
  5
1D0
330
1F
100
AcDbEntity
  8
0
  6
Continuous
 62
   179
370
    15
100
AcDbLine
 10
14.6084611851
 20
10.1117686991
 30
0.0
 11
14.7319021299
 21
10.1117686991
 31
0.0
  0
LINE
  5
1D1
330
1F
100
AcDbEntity
  8
0
  6
Continuous
 62
   179
370
    15
100
AcDbLine
 10
14.7319021299
 20
10.1117686991
 30
0.0
 11
14.7319021299
 21
10.0541584628
 31
0.0
  0
LINE
  5
1D2
330
1F
100
AcDbEntity
  8
0
  6
Continuous
 62
   179
370
    15
100
AcDbLine
 10
14.3163352008
 20
10.021249014
 30
0.0
 11
14.7319021299
 21
10.021249014
 31
0.0
  0
LINE
  5
1D3
330
1F
100
AcDbEntity
  8
0
  6
Continuous
 62
   179
370
    15
100
AcDbLine
 10
14.7319021299
 20
10.021249014
 30
0.0
 11
14.7977407126
 21
10.021249014
 31
0.0
  0
LINE
  5
1D4
330
1F
100
AcDbEntity
  8
0
  6
Continuous
 62
   179
370
    15
100
AcDbLine
 10
14.7977407126
 20
10.021249014
 30
0.0
 11
14.7977407126
 21
10.0377057069
 31
0.0
  0
LINE
  5
1D5
330
1F
100
AcDbEntity
  8
0
  6
Continuous
 62
   179
370
    15
100
AcDbLine
 10
14.2504926811
 20
10.0377057069
 30
0.0
 11
14.2504926811
 21
10.021249014
 31
0.0
  0
LINE
  5
1D6
330
1F
100
AcDbEntity
  8
0
  6
Continuous
 62
   179
370
    15
100
AcDbLine
 10
14.2504926811
 20
10.021249014
 30
0.0
 11
14.3163352008
 21
10.021249014
 31
0.0
  0
LINE
  5
1D7
330
1F
100
AcDbEntity
  8
0
  6
Continuous
 62
   179
370
    15
100
AcDbLine
 10
13.5823785079
 20
10.0665127935
 30
0.0
 11
13.800445437
 21
10.0665127935
 31
0.0
  0
LINE
  5
1D8
330
1F
100
AcDbEntity
  8
0
  6
Continuous
 62
   179
370
    15
100
AcDbLine
 10
13.800445437
 20
10.0665127935
 30
0.0
 11
13.8991934685
 21
10.1611545258
 31
0.0
  0
LINE
  5
1D9
330
1F
100
AcDbEntity
  8
0
  6
Continuous
 62
   179
370
    15
100
AcDbLine
 10
13.800445437
 20
10.0665127935
 30
0.0
 11
13.800445437
 21
9.3999498014
 31
0.0
  0
LINE
  5
1DA
330
1F
100
AcDbEntity
  8
0
  6
Continuous
 62
   179
370
    15
100
AcDbLine
 10
13.5823785079
 20
9.3999498014
 30
0.0
 11
13.5823785079
 21
10.0665127935
 31
0.0
  0
LINE
  5
1DB
330
1F
100
AcDbEntity
  8
0
  6
Continuous
 62
   179
370
    15
100
AcDbLine
 10
13.5823785079
 20
10.0665127935
 30
0.0
 11
13.4836265394
 21
10.1611545258
 31
0.0
  0
LINE
  5
1DC
330
1F
100
AcDbEntity
  8
0
  6
Continuous
 62
   179
370
    15
100
AcDbLine
 10
13.4177879567
 20
10.1776072817
 30
0.0
 11
13.4177879567
 21
10.1940639747
 31
0.0
  0
LINE
  5
1DD
330
1F
100
AcDbEntity
  8
0
  6
Continuous
 62
   179
370
    15
100
AcDbLine
 10
13.4177879567
 20
10.1940639747
 30
0.0
 11
13.9650359882
 21
10.1940639747
 31
0.0
  0
LINE
  5
1DE
330
1F
100
AcDbEntity
  8
0
  6
Continuous
 62
   179
370
    15
100
AcDbLine
 10
13.9650359882
 20
10.1940639747
 30
0.0
 11
13.9650359882
 21
10.1776072817
 31
0.0
  0
LINE
  5
1DF
330
1F
100
AcDbEntity
  8
0
  6
Continuous
 62
   179
370
    15
100
AcDbLine
 10
13.4836265394
 20
10.1940639747
 30
0.0
 11
13.4836265394
 21
10.2516702739
 31
0.0
  0
LINE
  5
1E0
330
1F
100
AcDbEntity
  8
0
  6
Continuous
 62
   179
370
    15
100
AcDbLine
 10
13.4836265394
 20
10.2516702739
 30
0.0
 11
13.6070635473
 21
10.2516702739
 31
0.0
  0
LINE
  5
1E1
330
1F
100
AcDbEntity
  8
0
  6
Continuous
 62
   179
370
    15
100
AcDbLine
 10
13.6070635473
 20
10.2516702739
 30
0.0
 11
13.6070635473
 21
10.1940639747
 31
0.0
  0
LINE
  5
1E2
330
1F
100
AcDbEntity
  8
0
  6
Continuous
 62
   179
370
    15
100
AcDbLine
 10
13.7757564607
 20
10.1940639747
 30
0.0
 11
13.7757564607
 21
10.2516702739
 31
0.0
  0
LINE
  5
1E3
330
1F
100
AcDbEntity
  8
0
  6
Continuous
 62
   179
370
    15
100
AcDbLine
 10
13.7757564607
 20
10.2516702739
 30
0.0
 11
13.8991934685
 21
10.2516702739
 31
0.0
  0
LINE
  5
1E4
330
1F
100
AcDbEntity
  8
0
  6
Continuous
 62
   179
370
    15
100
AcDbLine
 10
13.8991934685
 20
10.2516702739
 30
0.0
 11
13.8991934685
 21
10.1940639747
 31
0.0
  0
LINE
  5
1E5
330
1F
100
AcDbEntity
  8
0
  6
Continuous
 62
   179
370
    15
100
AcDbLine
 10
13.4836265394
 20
10.1611545258
 30
0.0
 11
13.8991934685
 21
10.1611545258
 31
0.0
  0
LINE
  5
1E6
330
1F
100
AcDbEntity
  8
0
  6
Continuous
 62
   179
370
    15
100
AcDbLine
 10
13.8991934685
 20
10.1611545258
 30
0.0
 11
13.9650359882
 21
10.1611545258
 31
0.0
  0
LINE
  5
1E7
330
1F
100
AcDbEntity
  8
0
  6
Continuous
 62
   179
370
    15
100
AcDbLine
 10
13.9650359882
 20
10.1611545258
 30
0.0
 11
13.9650359882
 21
10.1776072817
 31
0.0
  0
LINE
  5
1E8
330
1F
100
AcDbEntity
  8
0
  6
Continuous
 62
   179
370
    15
100
AcDbLine
 10
13.4177879567
 20
10.1776072817
 30
0.0
 11
13.4177879567
 21
10.1611545258
 31
0.0
  0
LINE
  5
1E9
330
1F
100
AcDbEntity
  8
0
  6
Continuous
 62
   179
370
    15
100
AcDbLine
 10
13.4177879567
 20
10.1611545258
 30
0.0
 11
13.4836265394
 21
10.1611545258
 31
0.0
  0
LINE
  5
1EA
330
1F
100
AcDbEntity
  8
0
  6
Continuous
 62
   179
370
    15
100
AcDbLine
 10
15.1664926811
 20
10.9799537384
 30
0.0
 11
15.3845596103
 21
10.9799537384
 31
0.0
  0
LINE
  5
1EB
330
1F
100
AcDbEntity
  8
0
  6
Continuous
 62
   179
370
    15
100
AcDbLine
 10
15.3845596103
 20
10.9799537384
 30
0.0
 11
15.4833076418
 21
11.0745915337
 31
0.0
  0
LINE
  5
1EC
330
1F
100
AcDbEntity
  8
0
  6
Continuous
 62
   179
370
    15
100
AcDbLine
 10
15.3845596103
 20
10.9799537384
 30
0.0
 11
15.3845596103
 21
10.3133907463
 31
0.0
  0
LINE
  5
1ED
330
1F
100
AcDbEntity
  8
0
  6
Continuous
 62
   179
370
    15
100
AcDbLine
 10
15.1664926811
 20
10.3133907463
 30
0.0
 11
15.1664926811
 21
10.9799537384
 31
0.0
  0
LINE
  5
1EE
330
1F
100
AcDbEntity
  8
0
  6
Continuous
 62
   179
370
    15
100
AcDbLine
 10
15.1664926811
 20
10.9799537384
 30
0.0
 11
15.0677407126
 21
11.0745915337
 31
0.0
  0
LINE
  5
1EF
330
1F
100
AcDbEntity
  8
0
  6
Continuous
 62
   179
370
    15
100
AcDbLine
 10
15.0019021299
 20
11.0910482266
 30
0.0
 11
15.0019021299
 21
11.1075009825
 31
0.0
  0
LINE
  5
1F0
330
1F
100
AcDbEntity
  8
0
  6
Continuous
 62
   179
370
    15
100
AcDbLine
 10
15.0019021299
 20
11.1075009825
 30
0.0
 11
15.5491501614
 21
11.1075009825
 31
0.0
  0
LINE
  5
1F1
330
1F
100
AcDbEntity
  8
0
  6
Continuous
 62
   179
370
    15
100
AcDbLine
 10
15.5491501614
 20
11.1075009825
 30
0.0
 11
15.5491501614
 21
11.0910482266
 31
0.0
  0
LINE
  5
1F2
330
1F
100
AcDbEntity
  8
0
  6
Continuous
 62
   179
370
    15
100
AcDbLine
 10
15.0677407126
 20
11.1075009825
 30
0.0
 11
15.0677407126
 21
11.1651112187
 31
0.0
  0
LINE
  5
1F3
330
1F
100
AcDbEntity
  8
0
  6
Continuous
 62
   179
370
    15
100
AcDbLine
 10
15.0677407126
 20
11.1651112187
 30
0.0
 11
15.1911777205
 21
11.1651112187
 31
0.0
  0
LINE
  5
1F4
330
1F
100
AcDbEntity
  8
0
  6
Continuous
 62
   179
370
    15
100
AcDbLine
 10
15.1911777205
 20
11.1651112187
 30
0.0
 11
15.1911777205
 21
11.1075009825
 31
0.0
  0
LINE
  5
1F5
330
1F
100
AcDbEntity
  8
0
  6
Continuous
 62
   179
370
    15
100
AcDbLine
 10
15.3598706339
 20
11.1075009825
 30
0.0
 11
15.3598706339
 21
11.1651112187
 31
0.0
  0
LINE
  5
1F6
330
1F
100
AcDbEntity
  8
0
  6
Continuous
 62
   179
370
    15
100
AcDbLine
 10
15.3598706339
 20
11.1651112187
 30
0.0
 11
15.4833076418
 21
11.1651112187
 31
0.0
  0
LINE
  5
1F7
330
1F
100
AcDbEntity
  8
0
  6
Continuous
 62
   179
370
    15
100
AcDbLine
 10
15.4833076418
 20
11.1651112187
 30
0.0
 11
15.4833076418
 21
11.1075009825
 31
0.0
  0
LINE
  5
1F8
330
1F
100
AcDbEntity
  8
0
  6
Continuous
 62
   179
370
    15
100
AcDbLine
 10
15.0677407126
 20
11.0745915337
 30
0.0
 11
15.4833076418
 21
11.0745915337
 31
0.0
  0
LINE
  5
1F9
330
1F
100
AcDbEntity
  8
0
  6
Continuous
 62
   179
370
    15
100
AcDbLine
 10
15.4833076418
 20
11.0745915337
 30
0.0
 11
15.5491501614
 21
11.0745915337
 31
0.0
  0
LINE
  5
1FA
330
1F
100
AcDbEntity
  8
0
  6
Continuous
 62
   179
370
    15
100
AcDbLine
 10
15.5491501614
 20
11.0745915337
 30
0.0
 11
15.5491501614
 21
11.0910482266
 31
0.0
  0
LINE
  5
1FB
330
1F
100
AcDbEntity
  8
0
  6
Continuous
 62
   179
370
    15
100
AcDbLine
 10
15.0019021299
 20
11.0910482266
 30
0.0
 11
15.0019021299
 21
11.0745915337
 31
0.0
  0
LINE
  5
1FC
330
1F
100
AcDbEntity
  8
0
  6
Continuous
 62
   179
370
    15
100
AcDbLine
 10
15.0019021299
 20
11.0745915337
 30
0.0
 11
15.0677407126
 21
11.0745915337
 31
0.0
  0
LINE
  5
1FD
330
1F
100
AcDbEntity
  8
0
  6
Continuous
 62
   179
370
    15
100
AcDbLine
 10
15.7055084292
 20
10.8400521636
 30
0.0
 11
15.9235753583
 21
10.8400521636
 31
0.0
  0
LINE
  5
1FE
330
1F
100
AcDbEntity
  8
0
  6
Continuous
 62
   179
370
    15
100
AcDbLine
 10
15.9235753583
 20
10.8400521636
 30
0.0
 11
16.0223233898
 21
10.9346899589
 31
0.0
  0
LINE
  5
1FF
330
1F
100
AcDbEntity
  8
0
  6
Continuous
 62
   179
370
    15
100
AcDbLine
 10
15.9235753583
 20
10.8400521636
 30
0.0
 11
15.9235753583
 21
10.1734852345
 31
0.0
  0
LINE
  5
200
330
1F
100
AcDbEntity
  8
0
  6
Continuous
 62
   179
370
    15
100
AcDbLine
 10
15.7055084292
 20
10.1734852345
 30
0.0
 11
15.7055084292
 21
10.8400521636
 31
0.0
  0
LINE
  5
201
330
1F
100
AcDbEntity
  8
0
  6
Continuous
 62
   179
370
    15
100
AcDbLine
 10
15.7055084292
 20
10.8400521636
 30
0.0
 11
15.6067564607
 21
10.9346899589
 31
0.0
  0
LINE
  5
202
330
1F
100
AcDbEntity
  8
0
  6
Continuous
 62
   179
370
    15
100
AcDbLine
 10
15.540917878
 20
10.9511466518
 30
0.0
 11
15.540917878
 21
10.9675994077
 31
0.0
  0
LINE
  5
203
330
1F
100
AcDbEntity
  8
0
  6
Continuous
 62
   179
370
    15
100
AcDbLine
 10
15.540917878
 20
10.9675994077
 30
0.0
 11
16.0881619725
 21
10.9675994077
 31
0.0
  0
LINE
  5
204
330
1F
100
AcDbEntity
  8
0
  6
Continuous
 62
   179
370
    15
100
AcDbLine
 10
16.0881619725
 20
10.9675994077
 30
0.0
 11
16.0881619725
 21
10.9511466518
 31
0.0
  0
LINE
  5
205
330
1F
100
AcDbEntity
  8
0
  6
Continuous
 62
   179
370
    15
100
AcDbLine
 10
15.6067564607
 20
10.9675994077
 30
0.0
 11
15.6067564607
 21
11.0252057069
 31
0.0
  0
LINE
  5
206
330
1F
100
AcDbEntity
  8
0
  6
Continuous
 62
   179
370
    15
100
AcDbLine
 10
15.6067564607
 20
11.0252057069
 30
0.0
 11
15.7301934685
 21
11.0252057069
 31
0.0
  0
LINE
  5
207
330
1F
100
AcDbEntity
  8
0
  6
Continuous
 62
   179
370
    15
100
AcDbLine
 10
15.7301934685
 20
11.0252057069
 30
0.0
 11
15.7301934685
 21
10.9675994077
 31
0.0
  0
LINE
  5
208
330
1F
100
AcDbEntity
  8
0
  6
Continuous
 62
   179
370
    15
100
AcDbLine
 10
15.8988863819
 20
10.9675994077
 30
0.0
 11
15.8988863819
 21
11.0252057069
 31
0.0
  0
LINE
  5
209
330
1F
100
AcDbEntity
  8
0
  6
Continuous
 62
   179
370
    15
100
AcDbLine
 10
15.8988863819
 20
11.0252057069
 30
0.0
 11
16.0223233898
 21
11.0252057069
 31
0.0
  0
LINE
  5
20A
330
1F
100
AcDbEntity
  8
0
  6
Continuous
 62
   179
370
    15
100
AcDbLine
 10
16.0223233898
 20
11.0252057069
 30
0.0
 11
16.0223233898
 21
10.9675994077
 31
0.0
  0
LINE
  5
20B
330
1F
100
AcDbEntity
  8
0
  6
Continuous
 62
   179
370
    15
100
AcDbLine
 10
15.6067564607
 20
10.9346899589
 30
0.0
 11
16.0223233898
 21
10.9346899589
 31
0.0
  0
LINE
  5
20C
330
1F
100
AcDbEntity
  8
0
  6
Continuous
 62
   179
370
    15
100
AcDbLine
 10
16.0223233898
 20
10.9346899589
 30
0.0
 11
16.0881619725
 21
10.9346899589
 31
0.0
  0
LINE
  5
20D
330
1F
100
AcDbEntity
  8
0
  6
Continuous
 62
   179
370
    15
100
AcDbLine
 10
16.0881619725
 20
10.9346899589
 30
0.0
 11
16.0881619725
 21
10.9511466518
 31
0.0
  0
LINE
  5
20E
330
1F
100
AcDbEntity
  8
0
  6
Continuous
 62
   179
370
    15
100
AcDbLine
 10
15.540917878
 20
10.9511466518
 30
0.0
 11
15.540917878
 21
10.9346899589
 31
0.0
  0
LINE
  5
20F
330
1F
100
AcDbEntity
  8
0
  6
Continuous
 62
   179
370
    15
100
AcDbLine
 10
15.540917878
 20
10.9346899589
 30
0.0
 11
15.6067564607
 21
10.9346899589
 31
0.0
  0
LINE
  5
210
330
1F
100
AcDbEntity
  8
0
  6
Continuous
 62
   179
370
    15
100
AcDbLine
 10
13.7963352008
 20
10.6878041321
 30
0.0
 11
14.6768627599
 21
10.6878041321
 31
0.0
  0
LINE
  5
211
330
1F
100
AcDbEntity
  8
0
  6
Continuous
 62
   179
370
    15
100
AcDbLine
 10
14.6768627599
 20
10.6878041321
 30
0.0
 11
14.6768627599
 21
11.152756888
 31
0.0
  0
LINE
  5
212
330
1F
100
AcDbEntity
  8
0
  6
Continuous
 62
   179
370
    15
100
AcDbLine
 10
14.6768627599
 20
11.152756888
 30
0.0
 11
13.7963352008
 21
11.152756888
 31
0.0
  0
LINE
  5
213
330
1F
100
AcDbEntity
  8
0
  6
Continuous
 62
   179
370
    15
100
AcDbLine
 10
13.7963352008
 20
11.152756888
 30
0.0
 11
13.7963352008
 21
10.6878041321
 31
0.0
  0
LINE
  5
214
330
1F
100
AcDbEntity
  8
0
  6
Continuous
 62
   179
370
    15
100
AcDbLine
 10
13.800445437
 20
11.2309458644
 30
0.0
 11
14.6809729961
 21
11.2309458644
 31
0.0
  0
LINE
  5
215
330
1F
100
AcDbEntity
  8
0
  6
Continuous
 62
   179
370
    15
100
AcDbLine
 10
14.6809729961
 20
11.2309458644
 30
0.0
 11
14.6809729961
 21
11.6958907463
 31
0.0
  0
LINE
  5
216
330
1F
100
AcDbEntity
  8
0
  6
Continuous
 62
   179
370
    15
100
AcDbLine
 10
14.6809729961
 20
11.6958907463
 30
0.0
 11
13.800445437
 21
11.6958907463
 31
0.0
  0
LINE
  5
217
330
1F
100
AcDbEntity
  8
0
  6
Continuous
 62
   179
370
    15
100
AcDbLine
 10
13.800445437
 20
11.6958907463
 30
0.0
 11
13.800445437
 21
11.2309458644
 31
0.0
  0
LINE
  5
218
330
1F
100
AcDbEntity
  8
0
  6
Continuous
 62
   179
370
    15
100
AcDbLine
 10
16.6395123662
 20
10.7371938959
 30
0.0
 11
16.8905044921
 21
10.7371938959
 31
0.0
  0
LINE
  5
219
330
1F
100
AcDbEntity
  8
0
  6
Continuous
 62
   179
370
    15
100
AcDbLine
 10
16.8905044921
 20
10.7371938959
 30
0.0
 11
16.8905044921
 21
10.9017686991
 31
0.0
  0
LINE
  5
21A
330
1F
100
AcDbEntity
  8
0
  6
Continuous
 62
   179
370
    15
100
AcDbLine
 10
16.8905044921
 20
10.9017686991
 30
0.0
 11
16.6395123662
 21
10.9017686991
 31
0.0
  0
LINE
  5
21B
330
1F
100
AcDbEntity
  8
0
  6
Continuous
 62
   179
370
    15
100
AcDbLine
 10
16.6395123662
 20
10.9017686991
 30
0.0
 11
16.6395123662
 21
10.7371938959
 31
0.0
  0
LINE
  5
21C
330
1F
100
AcDbEntity
  8
0
  6
Continuous
 62
   179
370
    15
100
AcDbLine
 10
16.9851383504
 20
10.7371938959
 30
0.0
 11
17.2320123662
 21
10.7371938959
 31
0.0
  0
LINE
  5
21D
330
1F
100
AcDbEntity
  8
0
  6
Continuous
 62
   179
370
    15
100
AcDbLine
 10
17.2320123662
 20
10.7371938959
 30
0.0
 11
17.2320123662
 21
10.9017686991
 31
0.0
  0
LINE
  5
21E
330
1F
100
AcDbEntity
  8
0
  6
Continuous
 62
   179
370
    15
100
AcDbLine
 10
17.2320123662
 20
10.9017686991
 30
0.0
 11
16.9851383504
 21
10.9017686991
 31
0.0
  0
LINE
  5
21F
330
1F
100
AcDbEntity
  8
0
  6
Continuous
 62
   179
370
    15
100
AcDbLine
 10
16.9851383504
 20
10.9017686991
 30
0.0
 11
16.9851383504
 21
10.7371938959
 31
0.0
  0
LINE
  5
220
330
1F
100
AcDbEntity
  8
0
  6
Continuous
 62
   179
370
    15
100
AcDbLine
 10
16.0346659095
 20
10.0829694865
 30
0.0
 11
16.7382643347
 21
10.0829694865
 31
0.0
  0
LINE
  5
221
330
1F
100
AcDbEntity
  8
0
  6
Continuous
 62
   179
370
    15
100
AcDbLine
 10
16.7382643347
 20
10.0829694865
 30
0.0
 11
16.7382643347
 21
10.2516623998
 31
0.0
  0
LINE
  5
222
330
1F
100
AcDbEntity
  8
0
  6
Continuous
 62
   179
370
    15
100
AcDbLine
 10
16.7382643347
 20
10.2516623998
 30
0.0
 11
16.0346659095
 21
10.2516623998
 31
0.0
  0
LINE
  5
223
330
1F
100
AcDbEntity
  8
0
  6
Continuous
 62
   179
370
    15
100
AcDbLine
 10
16.0346659095
 20
10.2516623998
 30
0.0
 11
16.0346659095
 21
10.0829694865
 31
0.0
  0
LINE
  5
224
330
1F
100
AcDbEntity
  8
0
  6
Continuous
 62
   179
370
    15
100
AcDbLine
 10
16.0346659095
 20
10.0829694865
 30
0.0
 11
16.7382643347
 21
10.0829694865
 31
0.0
  0
LINE
  5
225
330
1F
100
AcDbEntity
  8
0
  6
Continuous
 62
   179
370
    15
100
AcDbLine
 10
16.7382643347
 20
10.0829694865
 30
0.0
 11
16.7382643347
 21
10.2516623998
 31
0.0
  0
LINE
  5
226
330
1F
100
AcDbEntity
  8
0
  6
Continuous
 62
   179
370
    15
100
AcDbLine
 10
16.7382643347
 20
10.2516623998
 30
0.0
 11
16.0346659095
 21
10.2516623998
 31
0.0
  0
LINE
  5
227
330
1F
100
AcDbEntity
  8
0
  6
Continuous
 62
   179
370
    15
100
AcDbLine
 10
16.0346659095
 20
10.2516623998
 30
0.0
 11
16.0346659095
 21
10.0829694865
 31
0.0
  0
LINE
  5
228
330
1F
100
AcDbEntity
  8
0
  6
Continuous
 62
   179
370
    15
100
AcDbLine
 10
10.3885989803
 20
12.8512647621
 30
0.0
 11
10.8658981929
 21
12.8512647621
 31
0.0
  0
LINE
  5
229
330
1F
100
AcDbEntity
  8
0
  6
Continuous
 62
   179
370
    15
100
AcDbLine
 10
10.8658981929
 20
12.8512647621
 30
0.0
 11
10.8658981929
 21
13.011729329
 31
0.0
  0
LINE
  5
22A
330
1F
100
AcDbEntity
  8
0
  6
Continuous
 62
   179
370
    15
100
AcDbLine
 10
10.8658981929
 20
13.011729329
 30
0.0
 11
10.3885989803
 21
13.011729329
 31
0.0
  0
LINE
  5
22B
330
1F
100
AcDbEntity
  8
0
  6
Continuous
 62
   179
370
    15
100
AcDbLine
 10
10.3885989803
 20
13.011729329
 30
0.0
 11
10.3885989803
 21
12.8512647621
 31
0.0
  0
LINE
  5
22C
330
1F
100
AcDbEntity
  8
0
  6
Continuous
 62
   179
370
    15
100
AcDbLine
 10
10.2445950433
 20
12.867713581
 30
0.0
 11
10.2816186654
 21
12.867713581
 31
0.0
  0
LINE
  5
22D
330
1F
100
AcDbEntity
  8
0
  6
Continuous
 62
   179
370
    15
100
AcDbLine
 10
10.2816186654
 20
12.867713581
 30
0.0
 11
10.2816186654
 21
13.0034852345
 31
0.0
  0
LINE
  5
22E
330
1F
100
AcDbEntity
  8
0
  6
Continuous
 62
   179
370
    15
100
AcDbLine
 10
10.2816186654
 20
13.0034852345
 30
0.0
 11
10.2445950433
 21
13.0034852345
 31
0.0
  0
LINE
  5
22F
330
1F
100
AcDbEntity
  8
0
  6
Continuous
 62
   179
370
    15
100
AcDbLine
 10
10.2445950433
 20
13.0034852345
 30
0.0
 11
10.2445950433
 21
12.867713581
 31
0.0
  0
LINE
  5
230
330
1F
100
AcDbEntity
  8
0
  6
Continuous
 62
   179
370
    15
100
AcDbLine
 10
12.4014848071
 20
12.2019773605
 30
0.0
 11
18.3337289016
 21
12.2019773605
 31
0.0
  0
LINE
  5
231
330
1F
100
AcDbEntity
  8
0
  6
Continuous
 62
   179
370
    15
100
AcDbLine
 10
18.3337289016
 20
12.2019773605
 30
0.0
 11
18.3337289016
 21
12.7821348408
 31
0.0
  0
LINE
  5
232
330
1F
100
AcDbEntity
  8
0
  6
Continuous
 62
   179
370
    15
100
AcDbLine
 10
18.3337289016
 20
12.7821348408
 30
0.0
 11
12.4014848071
 21
12.7821348408
 31
0.0
  0
LINE
  5
233
330
1F
100
AcDbEntity
  8
0
  6
Continuous
 62
   179
370
    15
100
AcDbLine
 10
12.4014848071
 20
12.7821348408
 30
0.0
 11
12.4014848071
 21
12.2019773605
 31
0.0
  0
LINE
  5
234
330
1F
100
AcDbEntity
  8
0
  6
Continuous
 62
   179
370
    15
100
AcDbLine
 10
14.8933745709
 20
7.276229329
 30
0.0
 11
18.832917878
 21
7.276229329
 31
0.0
  0
LINE
  5
235
330
1F
100
AcDbEntity
  8
0
  6
Continuous
 62
   179
370
    15
100
AcDbLine
 10
18.832917878
 20
7.276229329
 30
0.0
 11
18.832917878
 21
7.3474891715
 31
0.0
  0
LINE
  5
236
330
1F
100
AcDbEntity
  8
0
  6
Continuous
 62
   179
370
    15
100
AcDbLine
 10
18.832917878
 20
7.3474891715
 30
0.0
 11
14.8933745709
 21
7.3474891715
 31
0.0
  0
LINE
  5
237
330
1F
100
AcDbEntity
  8
0
  6
Continuous
 62
   179
370
    15
100
AcDbLine
 10
14.8933745709
 20
7.3474891715
 30
0.0
 11
14.8933745709
 21
7.276229329
 31
0.0
  0
LINE
  5
238
330
1F
100
AcDbEntity
  8
0
  6
Continuous
 62
   179
370
    15
100
AcDbLine
 10
10.5992958307
 20
7.1808631872
 30
0.0
 11
12.4422879567
 21
7.1808631872
 31
0.0
  0
LINE
  5
239
330
1F
100
AcDbEntity
  8
0
  6
Continuous
 62
   179
370
    15
100
AcDbLine
 10
12.4422879567
 20
7.1808631872
 30
0.0
 11
12.4422879567
 21
7.2521230298
 31
0.0
  0
LINE
  5
23A
330
1F
100
AcDbEntity
  8
0
  6
Continuous
 62
   179
370
    15
100
AcDbLine
 10
12.4422879567
 20
7.2521230298
 30
0.0
 11
10.5992958307
 21
7.2521230298
 31
0.0
  0
LINE
  5
23B
330
1F
100
AcDbEntity
  8
0
  6
Continuous
 62
   179
370
    15
100
AcDbLine
 10
10.5992958307
 20
7.2521230298
 30
0.0
 11
10.5992958307
 21
7.1808631872
 31
0.0
  0
LINE
  5
23C
330
1F
100
AcDbEntity
  8
0
  6
Continuous
 62
   179
370
    15
100
AcDbLine
 10
16.2404021299
 20
9.9019222424
 30
0.0
 11
16.277433626
 21
9.9019222424
 31
0.0
  0
LINE
  5
23D
330
1F
100
AcDbEntity
  8
0
  6
Continuous
 62
     7
370
     0
100
AcDbLine
 10
17.4030438622
 20
12.2019773605
 30
0.0
 11
17.3516029173
 21
12.0181724752
 31
0.0
  0
LINE
  5
23E
330
1F
100
AcDbEntity
  8
0
  6
Continuous
 62
     7
370
     0
100
AcDbLine
 10
17.3516029173
 20
12.0181724752
 30
0.0
 11
17.4492643347
 21
12.0181724752
 31
0.0
  0
LINE
  5
23F
330
1F
100
AcDbEntity
  8
0
  6
Continuous
 62
     7
370
     0
100
AcDbLine
 10
17.4492643347
 20
12.0181724752
 30
0.0
 11
17.4030438622
 21
12.2019773605
 31
0.0
  0
LINE
  5
240
330
1F
100
AcDbEntity
  8
0
  6
Continuous
 62
     7
370
     0
100
AcDbLine
 10
17.4030458307
 20
10.9881742109
 30
0.0
 11
17.4492643347
 21
11.1363001951
 31
0.0
  0
LINE
  5
241
330
1F
100
AcDbEntity
  8
0
  6
Continuous
 62
     7
370
     0
100
AcDbLine
 10
17.4492643347
 20
11.1363001951
 30
0.0
 11
17.3516029173
 21
11.1363001951
 31
0.0
  0
LINE
  5
242
330
1F
100
AcDbEntity
  8
0
  6
Continuous
 62
     7
370
     0
100
AcDbLine
 10
17.3516029173
 20
11.1363001951
 30
0.0
 11
17.4030458307
 21
10.9881742109
 31
0.0
  0
SPLINE
  5
243
330
1F
100
AcDbEntity
  8
0
  6
Continuous
 62
   179
370
    15
100
AcDbSpline
210
0.0
220
0.0
230
1.0
 70
     8
 71
     3
 72
     8
 73
     4
 74
     0
 42
0.00000001
 43
0.00000001
 40
0.0
 40
0.0
 40
0.0
 40
0.0
 40
0.2
 40
0.2
 40
0.2
 40
0.2
 10
12.11346905907627
 20
9.543953738430911
 30
0.0
 10
12.06160291734399
 20
9.506894683312801
 30
0.0
 10
12.02213441340698
 20
9.460241140005714
 30
0.0
 10
12.04351630317076
 20
9.391717517958469
 30
0.0
  0
SPLINE
  5
244
330
1F
100
AcDbEntity
  8
0
  6
Continuous
 62
   179
370
    15
100
AcDbSpline
210
0.0
220
0.0
230
1.0
 70
     8
 71
     3
 72
     8
 73
     4
 74
     0
 42
0.00000001
 43
0.00000001
 40
0.2
 40
0.2
 40
0.2
 40
0.2
 40
0.4
 40
0.4
 40
0.4
 40
0.4
 10
12.04351630317076
 20
9.391717517958469
 30
0.0
 10
12.05428401970619
 20
9.357221454966345
 30
0.0
 10
12.08562260238336
 20
9.333430116383667
 30
0.0
 10
12.11346905907627
 20
9.31353247858839
 30
0.0
  0
SPLINE
  5
245
330
1F
100
AcDbEntity
  8
0
  6
Continuous
 62
   179
370
    15
100
AcDbSpline
210
0.0
220
0.0
230
1.0
 70
     8
 71
     3
 72
     8
 73
     4
 74
     0
 42
0.00000001
 43
0.00000001
 40
0.4
 40
0.4
 40
0.4
 40
0.4
 40
0.6
 40
0.6
 40
0.6
 40
0.6
 10
12.11346905907627
 20
9.31353247858839
 30
0.0
 10
12.14131551576919
 20
9.293666336856107
 30
0.0
 10
12.17265016143848
 20
9.26983562819469
 30
0.0
 10
12.18341000395816
 20
9.235359250241933
 30
0.0
  0
SPLINE
  5
246
330
1F
100
AcDbEntity
  8
0
  6
Continuous
 62
   179
370
    15
100
AcDbSpline
210
0.0
220
0.0
230
1.0
 70
     8
 71
     3
 72
     8
 73
     4
 74
     0
 42
0.00000001
 43
0.00000001
 40
0.6
 40
0.6
 40
0.6
 40
0.6
 40
1.0
 40
1.0
 40
1.0
 40
1.0
 10
12.18341000395816
 20
9.235359250241933
 30
0.0
 10
12.20478401970619
 20
9.166886809297052
 30
0.0
 10
12.16535094884005
 20
9.120146651816738
 30
0.0
 10
12.11346905907627
 20
9.083123029769494
 30
0.0
  0
SPLINE
  5
247
330
1F
100
AcDbEntity
  8
0
  6
Continuous
 62
   179
370
    15
100
AcDbSpline
210
0.0
220
0.0
230
1.0
 70
     8
 71
     3
 72
     8
 73
     4
 74
     0
 42
0.00000001
 43
0.00000001
 40
0.0
 40
0.0
 40
0.0
 40
0.0
 40
0.3333333333333333
 40
0.3333333333333333
 40
0.3333333333333333
 40
0.3333333333333333
 10
12.11346905907627
 20
9.30942224236792
 30
0.0
 10
12.06668953151722
 20
9.286056100635635
 30
0.0
 10
12.03528401970619
 20
9.265780510084454
 30
0.0
 10
12.03528401970619
 20
9.198327754178942
 30
0.0
  0
SPLINE
  5
248
330
1F
100
AcDbEntity
  8
0
  6
Continuous
 62
   179
370
    15
100
AcDbSpline
210
0.0
220
0.0
230
1.0
 70
     8
 71
     3
 72
     8
 73
     4
 74
     0
 42
0.00000001
 43
0.00000001
 40
0.3333333333333333
 40
0.3333333333333333
 40
0.3333333333333333
 40
0.3333333333333333
 40
1.0
 40
1.0
 40
1.0
 40
1.0
 10
12.03528401970619
 20
9.198327754178942
 30
0.0
 10
12.03528401970619
 20
9.13087499827343
 30
0.0
 10
12.06668953151722
 20
9.11059940772225
 30
0.0
 10
12.11346905907627
 20
9.087233265989966
 30
0.0
  0
SPLINE
  5
249
330
1F
100
AcDbEntity
  8
0
  6
Continuous
 62
   179
370
    15
100
AcDbSpline
210
0.0
220
0.0
230
1.0
 70
     8
 71
     3
 72
     8
 73
     4
 74
     0
 42
0.00000001
 43
0.00000001
 40
0.2857142857142857
 40
0.2857142857142857
 40
0.2857142857142857
 40
0.2857142857142857
 40
0.4285714285714285
 40
0.4285714285714285
 40
0.4285714285714285
 40
0.4285714285714285
 10
17.42540212994242
 20
9.31353247858839
 30
0.0
 10
17.36642575198966
 20
9.287477360478155
 30
0.0
 10
17.32041394096604
 20
9.261280510084454
 30
0.0
 10
17.26294150002115
 20
9.232142714808862
 30
0.0
  0
SPLINE
  5
24A
330
1F
100
AcDbEntity
  8
0
  6
Continuous
 62
   179
370
    15
100
AcDbSpline
210
0.0
220
0.0
230
1.0
 70
     8
 71
     3
 72
     8
 73
     4
 74
     0
 42
0.00000001
 43
0.00000001
 40
0.4285714285714285
 40
0.4285714285714285
 40
0.4285714285714285
 40
0.4285714285714285
 40
0.5714285714285714
 40
0.5714285714285714
 40
0.5714285714285714
 40
0.5714285714285714
 10
17.26294150002115
 20
9.232142714808862
 30
0.0
 10
17.18805173624163
 20
9.194189958903351
 30
0.0
 10
17.10228795671407
 20
9.15692224236792
 30
0.0
 10
16.93210685435186
 20
9.11603247858839
 30
0.0
  0
SPLINE
  5
24B
330
1F
100
AcDbEntity
  8
0
  6
Continuous
 62
   179
370
    15
100
AcDbSpline
210
0.0
220
0.0
230
1.0
 70
     8
 71
     3
 72
     8
 73
     4
 74
     0
 42
0.00000001
 43
0.00000001
 40
0.5714285714285714
 40
0.5714285714285714
 40
0.5714285714285714
 40
0.5714285714285714
 40
0.7142857142857143
 40
0.7142857142857143
 40
0.7142857142857143
 40
0.7142857142857143
 10
16.93210685435186
 20
9.11603247858839
 30
0.0
 10
16.82438638191092
 20
9.09015846284036
 30
0.0
 10
16.71311866537549
 20
9.079819880163194
 30
0.0
 10
16.6569493740369
 20
9.079819880163194
 30
0.0
  0
SPLINE
  5
24C
330
1F
100
AcDbEntity
  8
0
  6
Continuous
 62
   179
370
    15
100
AcDbSpline
210
0.0
220
0.0
230
1.0
 70
     8
 71
     3
 72
     8
 73
     4
 74
     0
 42
0.00000001
 43
0.00000001
 40
0.125
 40
0.125
 40
0.125
 40
0.125
 40
0.25
 40
0.25
 40
0.25
 40
0.25
 10
16.39263835041485
 20
9.057308069139571
 30
0.0
 10
16.39263835041485
 20
9.03273720299784
 30
0.0
 10
16.38120527954871
 20
9.026469486462407
 30
0.0
 10
16.35663441340698
 20
9.026469486462407
 30
0.0
  0
SPLINE
  5
24D
330
1F
100
AcDbEntity
  8
0
  6
Continuous
 62
   179
370
    15
100
AcDbSpline
210
0.0
220
0.0
230
1.0
 70
     8
 71
     3
 72
     8
 73
     4
 74
     0
 42
0.00000001
 43
0.00000001
 40
0.375
 40
0.375
 40
0.375
 40
0.375
 40
0.5
 40
0.5
 40
0.5
 40
0.5
 10
16.23074071261958
 20
9.026469486462407
 30
0.0
 10
16.19832338978494
 20
9.026469486462407
 30
0.0
 10
16.1717525236432
 20
9.053012793549021
 30
0.0
 10
16.1717525236432
 20
9.085457675438784
 30
0.0
  0
SPLINE
  5
24E
330
1F
100
AcDbEntity
  8
0
  6
Continuous
 62
   179
370
    15
100
AcDbSpline
210
0.0
220
0.0
230
1.0
 70
     8
 71
     3
 72
     8
 73
     4
 74
     0
 42
0.00000001
 43
0.00000001
 40
0.625
 40
0.625
 40
0.625
 40
0.625
 40
0.75
 40
0.75
 40
0.75
 40
0.75
 10
16.1717525236432
 20
9.543953738430911
 30
0.0
 10
16.1717525236432
 20
9.576398620320674
 30
0.0
 10
16.19829583072982
 20
9.602941927407288
 30
0.0
 10
16.23074071261958
 20
9.602941927407288
 30
0.0
  0
SPLINE
  5
24F
330
1F
100
AcDbEntity
  8
0
  6
Continuous
 62
   179
370
    15
100
AcDbSpline
210
0.0
220
0.0
230
1.0
 70
     8
 71
     3
 72
     8
 73
     4
 74
     0
 42
0.00000001
 43
0.00000001
 40
0.125
 40
0.125
 40
0.125
 40
0.125
 40
0.25
 40
0.25
 40
0.25
 40
0.25
 10
17.42540212994242
 20
9.046965549454532
 30
0.0
 10
17.42540212994242
 20
9.037693895911225
 30
0.0
 10
17.4319336260054
 20
9.025516730556895
 30
0.0
 10
17.44926433466682
 20
9.025516730556895
 30
0.0
  0
SPLINE
  5
250
330
1F
100
AcDbEntity
  8
0
  6
Continuous
 62
   179
370
    15
100
AcDbSpline
210
0.0
220
0.0
230
1.0
 70
     8
 71
     3
 72
     8
 73
     4
 74
     0
 42
0.00000001
 43
0.00000001
 40
0.375
 40
0.375
 40
0.375
 40
0.375
 40
0.5
 40
0.5
 40
0.5
 40
0.5
 10
17.60232732679281
 20
9.025516730556895
 30
0.0
 10
17.62453598821013
 20
9.025516730556895
 30
0.0
 10
17.64348087009989
 20
9.048229328982092
 30
0.0
 10
17.64348087009989
 20
9.070780510084454
 30
0.0
  0
SPLINE
  5
251
330
1F
100
AcDbEntity
  8
0
  6
Continuous
 62
   179
370
    15
100
AcDbSpline
210
0.0
220
0.0
230
1.0
 70
     8
 71
     3
 72
     8
 73
     4
 74
     0
 42
0.00000001
 43
0.00000001
 40
0.5
 40
0.5
 40
0.5
 40
0.5
 40
0.625
 40
0.625
 40
0.625
 40
0.625
 10
17.64348087009989
 20
9.070780510084454
 30
0.0
 10
17.64348087009989
 20
9.233989171501776
 30
0.0
 10
17.64479189372194
 20
9.397209643942722
 30
0.0
 10
17.64348087009989
 20
9.560410431344296
 30
0.0
  0
SPLINE
  5
252
330
1F
100
AcDbEntity
  8
0
  6
Continuous
 62
   179
370
    15
100
AcDbSpline
210
0.0
220
0.0
230
1.0
 70
     8
 71
     3
 72
     8
 73
     4
 74
     0
 42
0.00000001
 43
0.00000001
 40
0.625
 40
0.625
 40
0.625
 40
0.625
 40
0.75
 40
0.75
 40
0.75
 40
0.75
 10
17.64348087009989
 20
9.560410431344296
 30
0.0
 10
17.64330370474557
 20
9.585902557328549
 30
0.0
 10
17.62793756301328
 20
9.601560037643509
 30
0.0
 10
17.60232732679281
 20
9.601560037643509
 30
0.0
  0
SPLINE
  5
253
330
1F
100
AcDbEntity
  8
0
  6
Continuous
 62
   179
370
    15
100
AcDbSpline
210
0.0
220
0.0
230
1.0
 70
     8
 71
     3
 72
     8
 73
     4
 74
     0
 42
0.00000001
 43
0.00000001
 40
0.125
 40
0.125
 40
0.125
 40
0.125
 40
0.25
 40
0.25
 40
0.25
 40
0.25
 10
16.79157535828887
 20
9.074890746304925
 30
0.0
 10
16.80169346852509
 20
9.074890746304925
 30
0.0
 10
16.80821315356446
 20
9.068292321108077
 30
0.0
 10
16.80821315356446
 20
9.05843405339154
 30
0.0
  0
SPLINE
  5
254
330
1F
100
AcDbEntity
  8
0
  6
Continuous
 62
   179
370
    15
100
AcDbSpline
210
0.0
220
0.0
230
1.0
 70
     8
 71
     3
 72
     8
 73
     4
 74
     0
 42
0.00000001
 43
0.00000001
 40
0.625
 40
0.625
 40
0.625
 40
0.625
 40
0.75
 40
0.75
 40
0.75
 40
0.75
 10
17.06332338978493
 20
9.05843405339154
 30
0.0
 10
17.06332338978493
 20
9.073997045517524
 30
0.0
 10
17.05035488584792
 20
9.095174210871855
 30
0.0
 10
17.03772102758021
 20
9.107812006147446
 30
0.0
  0
SPLINE
  5
255
330
1F
100
AcDbEntity
  8
0
  6
Continuous
 62
   179
370
    15
100
AcDbSpline
210
0.0
220
0.0
230
1.0
 70
     8
 71
     3
 72
     8
 73
     4
 74
     0
 42
0.00000001
 43
0.00000001
 40
0.75
 40
0.75
 40
0.75
 40
0.75
 40
1.0
 40
1.0
 40
1.0
 40
1.0
 10
17.03772102758021
 20
9.107812006147446
 30
0.0
 10
17.02508716931249
 20
9.120445864415162
 30
0.0
 10
17.01458716931249
 20
9.126871061265556
 30
0.0
 10
16.99829976773769
 20
9.132859250241934
 30
0.0
  0
SPLINE
  5
256
330
1F
100
AcDbEntity
  8
0
  6
Continuous
 62
   179
370
    15
100
AcDbSpline
210
0.0
220
0.0
230
1.0
 70
     8
 71
     3
 72
     8
 73
     4
 74
     0
 42
0.00000001
 43
0.00000001
 40
0.25
 40
0.25
 40
0.25
 40
0.25
 40
0.5
 40
0.5
 40
0.5
 40
0.5
 10
17.08389031891879
 20
9.074890746304925
 30
0.0
 10
17.07956354726525
 20
9.074890746304925
 30
0.0
 10
17.07401236616289
 20
9.07431594315532
 30
0.0
 10
17.07154386222588
 20
9.070780510084454
 30
0.0
  0
SPLINE
  5
257
330
1F
100
AcDbEntity
  8
0
  6
Continuous
 62
   179
370
    15
100
AcDbSpline
210
0.0
220
0.0
230
1.0
 70
     8
 71
     3
 72
     8
 73
     4
 74
     0
 42
0.00000001
 43
0.00000001
 40
0.5
 40
0.5
 40
0.5
 40
0.5
 40
1.0
 40
1.0
 40
1.0
 40
1.0
 10
17.07154386222588
 20
9.070780510084454
 30
0.0
 10
17.0684651220684
 20
9.066367124257683
 30
0.0
 10
17.06759898033611
 20
9.062351376226186
 30
0.0
 10
17.06743362600541
 20
9.05843405339154
 30
0.0
  0
SPLINE
  5
258
330
1F
100
AcDbEntity
  8
0
  6
Continuous
 62
   179
370
    15
100
AcDbSpline
210
0.0
220
0.0
230
1.0
 70
     8
 71
     3
 72
     8
 73
     4
 74
     0
 42
0.00000001
 43
0.00000001
 40
0.0
 40
0.0
 40
0.0
 40
0.0
 40
0.2
 40
0.2
 40
0.2
 40
0.2
 10
19.79442181498178
 20
9.083123029769494
 30
0.0
 10
19.75278401970619
 20
9.11285531323406
 30
0.0
 10
19.7203588228558
 20
9.143489171501777
 30
0.0
 10
19.7203588228558
 20
9.198327754178942
 30
0.0
  0
SPLINE
  5
259
330
1F
100
AcDbEntity
  8
0
  6
Continuous
 62
   179
370
    15
100
AcDbSpline
210
0.0
220
0.0
230
1.0
 70
     8
 71
     3
 72
     8
 73
     4
 74
     0
 42
0.00000001
 43
0.00000001
 40
0.2
 40
0.2
 40
0.2
 40
0.2
 40
0.4
 40
0.4
 40
0.4
 40
0.4
 10
19.7203588228558
 20
9.198327754178942
 30
0.0
 10
19.7203588228558
 20
9.253166336856108
 30
0.0
 10
19.75278401970619
 20
9.283800195123824
 30
0.0
 10
19.79442181498178
 20
9.31353247858839
 30
0.0
  0
SPLINE
  5
25A
330
1F
100
AcDbEntity
  8
0
  6
Continuous
 62
   179
370
    15
100
AcDbSpline
210
0.0
220
0.0
230
1.0
 70
     8
 71
     3
 72
     8
 73
     4
 74
     0
 42
0.00000001
 43
0.00000001
 40
0.4
 40
0.4
 40
0.4
 40
0.4
 40
0.6
 40
0.6
 40
0.6
 40
0.6
 10
19.79442181498178
 20
9.31353247858839
 30
0.0
 10
19.83603992521801
 20
9.343264762052957
 30
0.0
 10
19.86848480710777
 20
9.373922242367918
 30
0.0
 10
19.86848480710777
 20
9.428749014021461
 30
0.0
  0
SPLINE
  5
25B
330
1F
100
AcDbEntity
  8
0
  6
Continuous
 62
   179
370
    15
100
AcDbSpline
210
0.0
220
0.0
230
1.0
 70
     8
 71
     3
 72
     8
 73
     4
 74
     0
 42
0.00000001
 43
0.00000001
 40
0.6
 40
0.6
 40
0.6
 40
0.6
 40
1.0
 40
1.0
 40
1.0
 40
1.0
 10
19.86848480710777
 20
9.428749014021461
 30
0.0
 10
19.86848480710777
 20
9.483567911659257
 30
0.0
 10
19.83603992521801
 20
9.514221454966343
 30
0.0
 10
19.79442181498178
 20
9.543953738430911
 30
0.0
  0
SPLINE
  5
25C
330
1F
100
AcDbEntity
  8
0
  6
Continuous
 62
   179
370
    15
100
AcDbSpline
210
0.0
220
0.0
230
1.0
 70
     8
 71
     3
 72
     8
 73
     4
 74
     0
 42
0.00000001
 43
0.00000001
 40
0.2
 40
0.2
 40
0.2
 40
0.2
 40
0.4
 40
0.4
 40
0.4
 40
0.4
 10
16.4606619724621
 20
9.982693895911225
 30
0.0
 10
16.48497299608415
 20
10.00129625811595
 30
0.0
 10
16.53187850789517
 20
10.01389074630493
 30
0.0
 10
16.58576433466682
 20
10.01389074630493
 30
0.0
  0
SPLINE
  5
25D
330
1F
100
AcDbEntity
  8
0
  6
Continuous
 62
   179
370
    15
100
AcDbSpline
210
0.0
220
0.0
230
1.0
 70
     8
 71
     3
 72
     8
 73
     4
 74
     0
 42
0.00000001
 43
0.00000001
 40
0.4
 40
0.4
 40
0.4
 40
0.4
 40
0.6
 40
0.6
 40
0.6
 40
0.6
 10
16.58576433466682
 20
10.01389074630493
 30
0.0
 10
16.63965016143848
 20
10.01389074630493
 30
0.0
 10
16.6865556732495
 20
10.00129625811595
 30
0.0
 10
16.71086275986367
 20
9.982693895911225
 30
0.0
  0
SPLINE
  5
25E
330
1F
100
AcDbEntity
  8
0
  6
Continuous
 62
   179
370
    15
100
AcDbSpline
210
0.0
220
0.0
230
1.0
 70
     8
 71
     3
 72
     8
 73
     4
 74
     0
 42
0.00000001
 43
0.00000001
 40
0.2
 40
0.2
 40
0.2
 40
0.2
 40
0.4
 40
0.4
 40
0.4
 40
0.4
 10
17.16041000395816
 20
9.982693895911225
 30
0.0
 10
17.18471709057233
 20
10.00129625811595
 30
0.0
 10
17.23162653939123
 20
10.01389074630493
 30
0.0
 10
17.28550842915501
 20
10.01389074630493
 30
0.0
  0
SPLINE
  5
25F
330
1F
100
AcDbEntity
  8
0
  6
Continuous
 62
   179
370
    15
100
AcDbSpline
210
0.0
220
0.0
230
1.0
 70
     8
 71
     3
 72
     8
 73
     4
 74
     0
 42
0.00000001
 43
0.00000001
 40
0.4
 40
0.4
 40
0.4
 40
0.4
 40
0.6
 40
0.6
 40
0.6
 40
0.6
 10
17.28550842915501
 20
10.01389074630493
 30
0.0
 10
17.33939425592667
 20
10.01389074630493
 30
0.0
 10
17.38629976773769
 20
10.00129625811595
 30
0.0
 10
17.41061079135974
 20
9.982693895911225
 30
0.0
  0
SPLINE
  5
260
330
1F
100
AcDbEntity
  8
0
  6
Continuous
 62
   179
370
    15
100
AcDbSpline
210
0.0
220
0.0
230
1.0
 70
     8
 71
     3
 72
     8
 73
     4
 74
     0
 42
0.00000001
 43
0.00000001
 40
0.1111111111111111
 40
0.1111111111111111
 40
0.1111111111111111
 40
0.1111111111111111
 40
0.2222222222222222
 40
0.2222222222222222
 40
0.2222222222222222
 40
0.2222222222222222
 10
17.48996905907627
 20
9.975249014021461
 30
0.0
 10
17.52179189372194
 20
9.975249014021461
 30
0.0
 10
17.54783126380068
 20
9.949209643942723
 30
0.0
 10
17.54783126380068
 20
9.917386809297051
 30
0.0
  0
SPLINE
  5
261
330
1F
100
AcDbEntity
  8
0
  6
Continuous
 62
   179
370
    15
100
AcDbSpline
210
0.0
220
0.0
230
1.0
 70
     8
 71
     3
 72
     8
 73
     4
 74
     0
 42
0.00000001
 43
0.00000001
 40
0.3333333333333333
 40
0.3333333333333333
 40
0.3333333333333333
 40
0.3333333333333333
 40
0.4444444444444444
 40
0.4444444444444444
 40
0.4444444444444444
 40
0.4444444444444444
 10
17.54783126380068
 20
9.76737499827343
 30
0.0
 10
17.54783126380068
 20
9.735556100635636
 30
0.0
 10
17.52179189372194
 20
9.709516730556896
 30
0.0
 10
17.48996905907627
 20
9.709516730556896
 30
0.0
  0
SPLINE
  5
262
330
1F
100
AcDbEntity
  8
0
  6
Continuous
 62
   179
370
    15
100
AcDbSpline
210
0.0
220
0.0
230
1.0
 70
     8
 71
     3
 72
     8
 73
     4
 74
     0
 42
0.00000001
 43
0.00000001
 40
0.5555555555555556
 40
0.5555555555555556
 40
0.5555555555555556
 40
0.5555555555555556
 40
0.6666666666666666
 40
0.6666666666666666
 40
0.6666666666666666
 40
0.6666666666666666
 10
16.37023283860383
 20
9.709516730556896
 30
0.0
 10
16.33841000395816
 20
9.709516730556896
 30
0.0
 10
16.3123745708873
 20
9.735556100635636
 30
0.0
 10
16.3123745708873
 20
9.76737499827343
 30
0.0
  0
SPLINE
  5
263
330
1F
100
AcDbEntity
  8
0
  6
Continuous
 62
   179
370
    15
100
AcDbSpline
210
0.0
220
0.0
230
1.0
 70
     8
 71
     3
 72
     8
 73
     4
 74
     0
 42
0.00000001
 43
0.00000001
 40
0.7777777777777778
 40
0.7777777777777778
 40
0.7777777777777778
 40
0.7777777777777778
 40
1.0
 40
1.0
 40
1.0
 40
1.0
 10
16.3123745708873
 20
9.917386809297051
 30
0.0
 10
16.3123745708873
 20
9.949209643942723
 30
0.0
 10
16.33841000395816
 20
9.975249014021461
 30
0.0
 10
16.37023283860383
 20
9.975249014021461
 30
0.0
  0
SPLINE
  5
264
330
1F
100
AcDbEntity
  8
0
  6
Continuous
 62
   179
370
    15
100
AcDbSpline
210
0.0
220
0.0
230
1.0
 70
     8
 71
     3
 72
     8
 73
     4
 74
     0
 42
0.00000001
 43
0.00000001
 40
0.1666666666666667
 40
0.1666666666666667
 40
0.1666666666666667
 40
0.1666666666666667
 40
0.3333333333333333
 40
0.3333333333333333
 40
0.3333333333333333
 40
0.3333333333333333
 10
14.63315016143848
 20
9.260048226619887
 30
0.0
 10
14.63315016143848
 20
9.19979625811595
 30
0.0
 10
14.58744150002115
 20
9.153063974651383
 30
0.0
 10
14.5220556732495
 20
9.153063974651383
 30
0.0
  0
SPLINE
  5
265
330
1F
100
AcDbEntity
  8
0
  6
Continuous
 62
   179
370
    15
100
AcDbSpline
210
0.0
220
0.0
230
1.0
 70
     8
 71
     3
 72
     8
 73
     4
 74
     0
 42
0.00000001
 43
0.00000001
 40
0.3333333333333333
 40
0.3333333333333333
 40
0.3333333333333333
 40
0.3333333333333333
 40
0.5
 40
0.5
 40
0.5
 40
0.5
 10
14.5220556732495
 20
9.153063974651383
 30
0.0
 10
14.4566619724621
 20
9.153063974651383
 30
0.0
 10
14.41508323230462
 20
9.19979625811595
 30
0.0
 10
14.41508323230462
 20
9.260048226619887
 30
0.0
  0
SPLINE
  5
266
330
1F
100
AcDbEntity
  8
0
  6
Continuous
 62
   179
370
    15
100
AcDbSpline
210
0.0
220
0.0
230
1.0
 70
     8
 71
     3
 72
     8
 73
     4
 74
     0
 42
0.00000001
 43
0.00000001
 40
0.1666666666666667
 40
0.1666666666666667
 40
0.1666666666666667
 40
0.1666666666666667
 40
0.3333333333333333
 40
0.3333333333333333
 40
0.3333333333333333
 40
0.3333333333333333
 10
13.80044543702903
 20
9.399949801423036
 30
0.0
 10
13.80044543702903
 20
9.3396978329191
 30
0.0
 10
13.75473283860383
 20
9.292965549454532
 30
0.0
 10
13.68935094884005
 20
9.292965549454532
 30
0.0
  0
SPLINE
  5
267
330
1F
100
AcDbEntity
  8
0
  6
Continuous
 62
   179
370
    15
100
AcDbSpline
210
0.0
220
0.0
230
1.0
 70
     8
 71
     3
 72
     8
 73
     4
 74
     0
 42
0.00000001
 43
0.00000001
 40
0.3333333333333333
 40
0.3333333333333333
 40
0.3333333333333333
 40
0.3333333333333333
 40
0.5
 40
0.5
 40
0.5
 40
0.5
 10
13.68935094884005
 20
9.292965549454532
 30
0.0
 10
13.62395724805265
 20
9.292965549454532
 30
0.0
 10
13.58237850789517
 20
9.3396978329191
 30
0.0
 10
13.58237850789517
 20
9.399949801423036
 30
0.0
  0
SPLINE
  5
268
330
1F
100
AcDbEntity
  8
0
  6
Continuous
 62
   179
370
    15
100
AcDbSpline
210
0.0
220
0.0
230
1.0
 70
     8
 71
     3
 72
     8
 73
     4
 74
     0
 42
0.00000001
 43
0.00000001
 40
0.1666666666666667
 40
0.1666666666666667
 40
0.1666666666666667
 40
0.1666666666666667
 40
0.3333333333333333
 40
0.3333333333333333
 40
0.3333333333333333
 40
0.3333333333333333
 10
15.38455961025737
 20
10.31339074630493
 30
0.0
 10
15.38455961025737
 20
10.25313877780099
 30
0.0
 10
15.33884701183218
 20
10.20640649433642
 30
0.0
 10
15.2734651220684
 20
10.20640649433642
 30
0.0
  0
SPLINE
  5
269
330
1F
100
AcDbEntity
  8
0
  6
Continuous
 62
   179
370
    15
100
AcDbSpline
210
0.0
220
0.0
230
1.0
 70
     8
 71
     3
 72
     8
 73
     4
 74
     0
 42
0.00000001
 43
0.00000001
 40
0.3333333333333333
 40
0.3333333333333333
 40
0.3333333333333333
 40
0.3333333333333333
 40
0.5
 40
0.5
 40
0.5
 40
0.5
 10
15.2734651220684
 20
10.20640649433642
 30
0.0
 10
15.208071421281
 20
10.20640649433642
 30
0.0
 10
15.16649268112351
 20
10.25313877780099
 30
0.0
 10
15.16649268112351
 20
10.31339074630493
 30
0.0
  0
SPLINE
  5
26A
330
1F
100
AcDbEntity
  8
0
  6
Continuous
 62
   179
370
    15
100
AcDbSpline
210
0.0
220
0.0
230
1.0
 70
     8
 71
     3
 72
     8
 73
     4
 74
     0
 42
0.00000001
 43
0.00000001
 40
0.1666666666666667
 40
0.1666666666666667
 40
0.1666666666666667
 40
0.1666666666666667
 40
0.3333333333333333
 40
0.3333333333333333
 40
0.3333333333333333
 40
0.3333333333333333
 10
15.92357535828887
 20
10.1734852344939
 30
0.0
 10
15.92357535828887
 20
10.11323720299784
 30
0.0
 10
15.87786275986367
 20
10.06650491953327
 30
0.0
 10
15.8124808700999
 20
10.06650491953327
 30
0.0
  0
SPLINE
  5
26B
330
1F
100
AcDbEntity
  8
0
  6
Continuous
 62
   179
370
    15
100
AcDbSpline
210
0.0
220
0.0
230
1.0
 70
     8
 71
     3
 72
     8
 73
     4
 74
     0
 42
0.00000001
 43
0.00000001
 40
0.3333333333333333
 40
0.3333333333333333
 40
0.3333333333333333
 40
0.3333333333333333
 40
0.5
 40
0.5
 40
0.5
 40
0.5
 10
15.8124808700999
 20
10.06650491953327
 30
0.0
 10
15.74708716931249
 20
10.06650491953327
 30
0.0
 10
15.70550842915501
 20
10.11323720299784
 30
0.0
 10
15.70550842915501
 20
10.1734852344939
 30
0.0
  0
SPLINE
  5
26C
330
1F
100
AcDbEntity
  8
0
  6
Continuous
 62
   179
370
    15
100
AcDbSpline
210
0.0
220
0.0
230
1.0
 70
     8
 71
     3
 72
     8
 73
     4
 74
     0
 42
0.00000001
 43
0.00000001
 40
0.0
 40
0.0
 40
0.0
 40
0.0
 40
0.2
 40
0.2
 40
0.2
 40
0.2
 10
12.52700842915501
 20
8.332252951029336
 30
0.0
 10
12.54356354726525
 20
8.300512793549021
 30
0.0
 10
12.51976433466682
 20
8.255367124257681
 30
0.0
 10
12.4738588228558
 20
8.231422242367918
 30
0.0
  0
SPLINE
  5
26D
330
1F
100
AcDbEntity
  8
0
  6
Continuous
 62
   179
370
    15
100
AcDbSpline
210
0.0
220
0.0
230
1.0
 70
     8
 71
     3
 72
     8
 73
     4
 74
     0
 42
0.00000001
 43
0.00000001
 40
0.2
 40
0.2
 40
0.2
 40
0.2
 40
0.4
 40
0.4
 40
0.4
 40
0.4
 10
12.4738588228558
 20
8.231422242367918
 30
0.0
 10
12.42795331104478
 20
8.207477360478155
 30
0.0
 10
12.37731157876131
 20
8.21379625811595
 30
0.0
 10
12.36075646065107
 20
8.245532478588391
 30
0.0
  0
SPLINE
  5
26E
330
1F
100
AcDbEntity
  8
0
  6
Continuous
 62
   179
370
    15
100
AcDbSpline
210
0.0
220
0.0
230
1.0
 70
     8
 71
     3
 72
     8
 73
     4
 74
     0
 42
0.00000001
 43
0.00000001
 40
0.4
 40
0.4
 40
0.4
 40
0.4
 40
0.6
 40
0.6
 40
0.6
 40
0.6
 10
12.36075646065107
 20
8.245532478588391
 30
0.0
 10
12.34420134254084
 20
8.277272636068705
 30
0.0
 10
12.36800055513926
 20
8.322418305360044
 30
0.0
 10
12.41390606695029
 20
8.346363187249807
 30
0.0
  0
SPLINE
  5
26F
330
1F
100
AcDbEntity
  8
0
  6
Continuous
 62
   179
370
    15
100
AcDbSpline
210
0.0
220
0.0
230
1.0
 70
     8
 71
     3
 72
     8
 73
     4
 74
     0
 42
0.00000001
 43
0.00000001
 40
0.6
 40
0.6
 40
0.6
 40
0.6
 40
1.0
 40
1.0
 40
1.0
 40
1.0
 10
12.41390606695029
 20
8.346363187249807
 30
0.0
 10
12.45981157876131
 20
8.370308069139572
 30
0.0
 10
12.51045331104478
 20
8.36399310850965
 30
0.0
 10
12.52700842915501
 20
8.332252951029336
 30
0.0
  0
SPLINE
  5
270
330
1F
100
AcDbEntity
  8
0
  6
Continuous
 62
   179
370
    15
100
AcDbSpline
210
0.0
220
0.0
230
1.0
 70
     8
 71
     3
 72
     8
 73
     4
 74
     0
 42
0.00000001
 43
0.00000001
 40
0.0
 40
0.0
 40
0.0
 40
0.0
 40
0.2
 40
0.2
 40
0.2
 40
0.2
 10
13.22455961025737
 20
8.668016730556895
 30
0.0
 10
13.24648480710777
 20
8.682063974651383
 30
0.0
 10
13.2858588228558
 20
8.659725391974217
 30
0.0
 10
13.31252024017863
 20
8.618119092761619
 30
0.0
  0
SPLINE
  5
271
330
1F
100
AcDbEntity
  8
0
  6
Continuous
 62
   179
370
    15
100
AcDbSpline
210
0.0
220
0.0
230
1.0
 70
     8
 71
     3
 72
     8
 73
     4
 74
     0
 42
0.00000001
 43
0.00000001
 40
0.2
 40
0.2
 40
0.2
 40
0.2
 40
0.4
 40
0.4
 40
0.4
 40
0.4
 10
13.31252024017863
 20
8.618119092761619
 30
0.0
 10
13.33918165750147
 20
8.576512793549021
 30
0.0
 10
13.34302417718651
 20
8.531406494336423
 30
0.0
 10
13.32109898033611
 20
8.51735531323406
 30
0.0
  0
SPLINE
  5
272
330
1F
100
AcDbEntity
  8
0
  6
Continuous
 62
   179
370
    15
100
AcDbSpline
210
0.0
220
0.0
230
1.0
 70
     8
 71
     3
 72
     8
 73
     4
 74
     0
 42
0.00000001
 43
0.00000001
 40
0.4
 40
0.4
 40
0.4
 40
0.4
 40
0.6
 40
0.6
 40
0.6
 40
0.6
 10
13.32109898033611
 20
8.51735531323406
 30
0.0
 10
13.2991777204936
 20
8.503308069139573
 30
0.0
 10
13.25979976773769
 20
8.525646651816736
 30
0.0
 10
13.23313835041485
 20
8.567252951029335
 30
0.0
  0
SPLINE
  5
273
330
1F
100
AcDbEntity
  8
0
  6
Continuous
 62
   179
370
    15
100
AcDbSpline
210
0.0
220
0.0
230
1.0
 70
     8
 71
     3
 72
     8
 73
     4
 74
     0
 42
0.00000001
 43
0.00000001
 40
0.6
 40
0.6
 40
0.6
 40
0.6
 40
1.0
 40
1.0
 40
1.0
 40
1.0
 10
13.23313835041485
 20
8.567252951029335
 30
0.0
 10
13.20648087009989
 20
8.608859250241935
 30
0.0
 10
13.20263441340698
 20
8.653965549454533
 30
0.0
 10
13.22455961025737
 20
8.668016730556895
 30
0.0
  0
SPLINE
  5
274
330
1F
100
AcDbEntity
  8
0
  6
Continuous
 62
   179
370
    15
100
AcDbSpline
210
0.0
220
0.0
230
1.0
 70
     8
 71
     3
 72
     8
 73
     4
 74
     0
 42
0.00000001
 43
0.00000001
 40
0.0
 40
0.0
 40
0.0
 40
0.0
 40
0.2
 40
0.2
 40
0.2
 40
0.2
 10
12.77479583072981
 20
8.786276573076579
 30
0.0
 10
12.79638638191092
 20
8.771721454966343
 30
0.0
 10
12.79149268112352
 20
8.72671751795847
 30
0.0
 10
12.76387063387942
 20
8.685741140005714
 30
0.0
  0
SPLINE
  5
275
330
1F
100
AcDbEntity
  8
0
  6
Continuous
 62
   179
370
    15
100
AcDbSpline
210
0.0
220
0.0
230
1.0
 70
     8
 71
     3
 72
     8
 73
     4
 74
     0
 42
0.00000001
 43
0.00000001
 40
0.2
 40
0.2
 40
0.2
 40
0.2
 40
0.4
 40
0.4
 40
0.4
 40
0.4
 10
12.76387063387942
 20
8.685741140005714
 30
0.0
 10
12.73624858663532
 20
8.644768699060831
 30
0.0
 10
12.69636275986367
 20
8.623351376226186
 30
0.0
 10
12.67477220868257
 20
8.637910431344295
 30
0.0
  0
SPLINE
  5
276
330
1F
100
AcDbEntity
  8
0
  6
Continuous
 62
   179
370
    15
100
AcDbSpline
210
0.0
220
0.0
230
1.0
 70
     8
 71
     3
 72
     8
 73
     4
 74
     0
 42
0.00000001
 43
0.00000001
 40
0.4
 40
0.4
 40
0.4
 40
0.4
 40
0.6
 40
0.6
 40
0.6
 40
0.6
 10
12.67477220868257
 20
8.637910431344295
 30
0.0
 10
12.65318165750147
 20
8.652461612446658
 30
0.0
 10
12.65807535828887
 20
8.697469486462406
 30
0.0
 10
12.68569740553296
 20
8.738445864415162
 30
0.0
  0
SPLINE
  5
277
330
1F
100
AcDbEntity
  8
0
  6
Continuous
 62
   179
370
    15
100
AcDbSpline
210
0.0
220
0.0
230
1.0
 70
     8
 71
     3
 72
     8
 73
     4
 74
     0
 42
0.00000001
 43
0.00000001
 40
0.6
 40
0.6
 40
0.6
 40
0.6
 40
1.0
 40
1.0
 40
1.0
 40
1.0
 10
12.68569740553296
 20
8.738445864415162
 30
0.0
 10
12.71331945277706
 20
8.779414368352171
 30
0.0
 10
12.75320134254084
 20
8.80083562819469
 30
0.0
 10
12.77479583072981
 20
8.786276573076579
 30
0.0
  0
SPLINE
  5
278
330
1F
100
AcDbEntity
  8
0
  6
Continuous
 62
   179
370
    15
100
AcDbSpline
210
0.0
220
0.0
230
1.0
 70
     8
 71
     3
 72
     8
 73
     4
 74
     0
 42
0.00000001
 43
0.00000001
 40
0.0
 40
0.0
 40
0.0
 40
0.0
 40
0.2
 40
0.2
 40
0.2
 40
0.2
 10
13.32979583072982
 20
8.33479625811595
 30
0.0
 10
13.35153598821013
 20
8.302705706934846
 30
0.0
 10
13.32943756301328
 20
8.249784447092328
 30
0.0
 10
13.2804493740369
 20
8.216595470714376
 30
0.0
  0
SPLINE
  5
279
330
1F
100
AcDbEntity
  8
0
  6
Continuous
 62
   179
370
    15
100
AcDbSpline
210
0.0
220
0.0
230
1.0
 70
     8
 71
     3
 72
     8
 73
     4
 74
     0
 42
0.00000001
 43
0.00000001
 40
0.2
 40
0.2
 40
0.2
 40
0.2
 40
0.4
 40
0.4
 40
0.4
 40
0.4
 10
13.2804493740369
 20
8.216595470714376
 30
0.0
 10
13.23146118506052
 20
8.183410431344296
 30
0.0
 10
13.17411472836761
 20
8.182516730556895
 30
0.0
 10
13.15237850789517
 20
8.214607281737997
 30
0.0
  0
SPLINE
  5
27A
330
1F
100
AcDbEntity
  8
0
  6
Continuous
 62
   179
370
    15
100
AcDbSpline
210
0.0
220
0.0
230
1.0
 70
     8
 71
     3
 72
     8
 73
     4
 74
     0
 42
0.00000001
 43
0.00000001
 40
0.4
 40
0.4
 40
0.4
 40
0.4
 40
0.6
 40
0.6
 40
0.6
 40
0.6
 10
13.15237850789517
 20
8.214607281737997
 30
0.0
 10
13.13063835041485
 20
8.246701769926974
 30
0.0
 10
13.15273283860383
 20
8.299623029769494
 30
0.0
 10
13.20172496458808
 20
8.332808069139572
 30
0.0
  0
SPLINE
  5
27B
330
1F
100
AcDbEntity
  8
0
  6
Continuous
 62
   179
370
    15
100
AcDbSpline
210
0.0
220
0.0
230
1.0
 70
     8
 71
     3
 72
     8
 73
     4
 74
     0
 42
0.00000001
 43
0.00000001
 40
0.6
 40
0.6
 40
0.6
 40
0.6
 40
1.0
 40
1.0
 40
1.0
 40
1.0
 10
13.20172496458808
 20
8.332808069139572
 30
0.0
 10
13.25071315356446
 20
8.365997045517524
 30
0.0
 10
13.3080556732495
 20
8.366886809297052
 30
0.0
 10
13.32979583072982
 20
8.33479625811595
 30
0.0
  0
SPLINE
  5
27C
330
1F
100
AcDbEntity
  8
0
  6
Continuous
 62
   179
370
    15
100
AcDbSpline
210
0.0
220
0.0
230
1.0
 70
     8
 71
     3
 72
     8
 73
     4
 74
     0
 42
0.00000001
 43
0.00000001
 40
0.0
 40
0.0
 40
0.0
 40
0.0
 40
0.2
 40
0.2
 40
0.2
 40
0.2
 10
13.74841394096604
 20
8.784815943155321
 30
0.0
 10
13.73171315356446
 20
8.76127657307658
 30
0.0
 10
13.75472102758021
 20
8.716268699060832
 30
0.0
 10
13.79979189372194
 20
8.684292321108076
 30
0.0
  0
SPLINE
  5
27D
330
1F
100
AcDbEntity
  8
0
  6
Continuous
 62
   179
370
    15
100
AcDbSpline
210
0.0
220
0.0
230
1.0
 70
     8
 71
     3
 72
     8
 73
     4
 74
     0
 42
0.00000001
 43
0.00000001
 40
0.2
 40
0.2
 40
0.2
 40
0.2
 40
0.4
 40
0.4
 40
0.4
 40
0.4
 10
13.79979189372194
 20
8.684292321108076
 30
0.0
 10
13.84486669687155
 20
8.65231594315532
 30
0.0
 10
13.89494543702903
 20
8.645469486462407
 30
0.0
 10
13.9116462244306
 20
8.669008856541147
 30
0.0
  0
SPLINE
  5
27E
330
1F
100
AcDbEntity
  8
0
  6
Continuous
 62
   179
370
    15
100
AcDbSpline
210
0.0
220
0.0
230
1.0
 70
     8
 71
     3
 72
     8
 73
     4
 74
     0
 42
0.00000001
 43
0.00000001
 40
0.4
 40
0.4
 40
0.4
 40
0.4
 40
0.6
 40
0.6
 40
0.6
 40
0.6
 10
13.9116462244306
 20
8.669008856541147
 30
0.0
 10
13.92834701183218
 20
8.692552163627761
 30
0.0
 10
13.9053430748243
 20
8.737556100635636
 30
0.0
 10
13.8602682716747
 20
8.76953247858839
 30
0.0
  0
SPLINE
  5
27F
330
1F
100
AcDbEntity
  8
0
  6
Continuous
 62
   179
370
    15
100
AcDbSpline
210
0.0
220
0.0
230
1.0
 70
     8
 71
     3
 72
     8
 73
     4
 74
     0
 42
0.00000001
 43
0.00000001
 40
0.6
 40
0.6
 40
0.6
 40
0.6
 40
1.0
 40
1.0
 40
1.0
 40
1.0
 10
13.8602682716747
 20
8.76953247858839
 30
0.0
 10
13.81519346852509
 20
8.801512793549021
 30
0.0
 10
13.76511472836761
 20
8.80835531323406
 30
0.0
 10
13.74841394096604
 20
8.784815943155321
 30
0.0
  0
SPLINE
  5
280
330
1F
100
AcDbEntity
  8
0
  6
Continuous
 62
   179
370
    15
100
AcDbSpline
210
0.0
220
0.0
230
1.0
 70
     8
 71
     3
 72
     8
 73
     4
 74
     0
 42
0.00000001
 43
0.00000001
 40
0.0
 40
0.0
 40
0.0
 40
0.0
 40
0.2
 40
0.2
 40
0.2
 40
0.2
 10
16.90276433466682
 20
8.350166336856107
 30
0.0
 10
16.9237367756117
 20
8.319036415596265
 30
0.0
 10
16.89484701183218
 20
8.259520667564768
 30
0.0
 10
16.83824858663533
 20
8.217233265989965
 30
0.0
  0
SPLINE
  5
281
330
1F
100
AcDbEntity
  8
0
  6
Continuous
 62
   179
370
    15
100
AcDbSpline
210
0.0
220
0.0
230
1.0
 70
     8
 71
     3
 72
     8
 73
     4
 74
     0
 42
0.00000001
 43
0.00000001
 40
0.2
 40
0.2
 40
0.2
 40
0.2
 40
0.4
 40
0.4
 40
0.4
 40
0.4
 10
16.83824858663533
 20
8.217233265989965
 30
0.0
 10
16.78165016143848
 20
8.174945864415163
 30
0.0
 10
16.71876433466682
 20
8.1658946833128
 30
0.0
 10
16.69779189372194
 20
8.197024604572643
 30
0.0
  0
SPLINE
  5
282
330
1F
100
AcDbEntity
  8
0
  6
Continuous
 62
   179
370
    15
100
AcDbSpline
210
0.0
220
0.0
230
1.0
 70
     8
 71
     3
 72
     8
 73
     4
 74
     0
 42
0.00000001
 43
0.00000001
 40
0.4
 40
0.4
 40
0.4
 40
0.4
 40
0.6
 40
0.6
 40
0.6
 40
0.6
 10
16.69779189372194
 20
8.197024604572643
 30
0.0
 10
16.67682338978493
 20
8.228154525832485
 30
0.0
 10
16.70570921655659
 20
8.28767027386398
 30
0.0
 10
16.76230764175344
 20
8.329957675438784
 30
0.0
  0
SPLINE
  5
283
330
1F
100
AcDbEntity
  8
0
  6
Continuous
 62
   179
370
    15
100
AcDbSpline
210
0.0
220
0.0
230
1.0
 70
     8
 71
     3
 72
     8
 73
     4
 74
     0
 42
0.00000001
 43
0.00000001
 40
0.6
 40
0.6
 40
0.6
 40
0.6
 40
1.0
 40
1.0
 40
1.0
 40
1.0
 10
16.76230764175344
 20
8.329957675438784
 30
0.0
 10
16.81891000395816
 20
8.372245077013588
 30
0.0
 10
16.88179189372194
 20
8.38129625811595
 30
0.0
 10
16.90276433466682
 20
8.350166336856107
 30
0.0
  0
SPLINE
  5
284
330
1F
100
AcDbEntity
  8
0
  6
Continuous
 62
   179
370
    15
100
AcDbSpline
210
0.0
220
0.0
230
1.0
 70
     8
 71
     3
 72
     8
 73
     4
 74
     0
 42
0.00000001
 43
0.00000001
 40
0.0
 40
0.0
 40
0.0
 40
0.0
 40
0.2
 40
0.2
 40
0.2
 40
0.2
 10
14.37000842915501
 20
8.359422242367918
 30
0.0
 10
14.4007367756117
 20
8.34413090378524
 30
0.0
 10
14.40855173624163
 20
8.297378935281305
 30
0.0
 10
14.38745724805265
 20
8.25499310850965
 30
0.0
  0
SPLINE
  5
285
330
1F
100
AcDbEntity
  8
0
  6
Continuous
 62
   179
370
    15
100
AcDbSpline
210
0.0
220
0.0
230
1.0
 70
     8
 71
     3
 72
     8
 73
     4
 74
     0
 42
0.00000001
 43
0.00000001
 40
0.2
 40
0.2
 40
0.2
 40
0.2
 40
0.4
 40
0.4
 40
0.4
 40
0.4
 10
14.38745724805265
 20
8.25499310850965
 30
0.0
 10
14.36636275986367
 20
8.212607281737997
 30
0.0
 10
14.32435488584793
 20
8.190654525832485
 30
0.0
 10
14.29363047639911
 20
8.205945864415163
 30
0.0
  0
SPLINE
  5
286
330
1F
100
AcDbEntity
  8
0
  6
Continuous
 62
   179
370
    15
100
AcDbSpline
210
0.0
220
0.0
230
1.0
 70
     8
 71
     3
 72
     8
 73
     4
 74
     0
 42
0.00000001
 43
0.00000001
 40
0.4
 40
0.4
 40
0.4
 40
0.4
 40
0.6
 40
0.6
 40
0.6
 40
0.6
 10
14.29363047639911
 20
8.205945864415163
 30
0.0
 10
14.26290212994241
 20
8.22123720299784
 30
0.0
 10
14.25508716931249
 20
8.267989171501776
 30
0.0
 10
14.27618165750147
 20
8.310371061265556
 30
0.0
  0
SPLINE
  5
287
330
1F
100
AcDbEntity
  8
0
  6
Continuous
 62
   179
370
    15
100
AcDbSpline
210
0.0
220
0.0
230
1.0
 70
     8
 71
     3
 72
     8
 73
     4
 74
     0
 42
0.00000001
 43
0.00000001
 40
0.6
 40
0.6
 40
0.6
 40
0.6
 40
1.0
 40
1.0
 40
1.0
 40
1.0
 10
14.27618165750147
 20
8.310371061265556
 30
0.0
 10
14.29727614569044
 20
8.35275688803721
 30
0.0
 10
14.3392840197062
 20
8.374713580950594
 30
0.0
 10
14.37000842915501
 20
8.359422242367918
 30
0.0
  0
SPLINE
  5
288
330
1F
100
AcDbEntity
  8
0
  6
Continuous
 62
   179
370
    15
100
AcDbSpline
210
0.0
220
0.0
230
1.0
 70
     8
 71
     3
 72
     8
 73
     4
 74
     0
 42
0.00000001
 43
0.00000001
 40
0.0
 40
0.0
 40
0.0
 40
0.0
 40
0.2
 40
0.2
 40
0.2
 40
0.2
 10
17.09686275986367
 20
8.42565846284036
 30
0.0
 10
17.12603598821013
 20
8.410367124257682
 30
0.0
 10
17.13345724805265
 20
8.363615155753745
 30
0.0
 10
17.11342968899753
 20
8.321233265989965
 30
0.0
  0
SPLINE
  5
289
330
1F
100
AcDbEntity
  8
0
  6
Continuous
 62
   179
370
    15
100
AcDbSpline
210
0.0
220
0.0
230
1.0
 70
     8
 71
     3
 72
     8
 73
     4
 74
     0
 42
0.00000001
 43
0.00000001
 40
0.2
 40
0.2
 40
0.2
 40
0.2
 40
0.4
 40
0.4
 40
0.4
 40
0.4
 10
17.11342968899753
 20
8.321233265989965
 30
0.0
 10
17.09339819293454
 20
8.278847439218312
 30
0.0
 10
17.05350842915501
 20
8.256890746304926
 30
0.0
 10
17.02433126380068
 20
8.272182084887602
 30
0.0
  0
SPLINE
  5
28A
330
1F
100
AcDbEntity
  8
0
  6
Continuous
 62
   179
370
    15
100
AcDbSpline
210
0.0
220
0.0
230
1.0
 70
     8
 71
     3
 72
     8
 73
     4
 74
     0
 42
0.00000001
 43
0.00000001
 40
0.4
 40
0.4
 40
0.4
 40
0.4
 40
0.6
 40
0.6
 40
0.6
 40
0.6
 10
17.02433126380068
 20
8.272182084887602
 30
0.0
 10
16.99515803545422
 20
8.28747342347028
 30
0.0
 10
16.9877367756117
 20
8.334225391974218
 30
0.0
 10
17.00776433466682
 20
8.376611218745872
 30
0.0
  0
SPLINE
  5
28B
330
1F
100
AcDbEntity
  8
0
  6
Continuous
 62
   179
370
    15
100
AcDbSpline
210
0.0
220
0.0
230
1.0
 70
     8
 71
     3
 72
     8
 73
     4
 74
     0
 42
0.00000001
 43
0.00000001
 40
0.6
 40
0.6
 40
0.6
 40
0.6
 40
1.0
 40
1.0
 40
1.0
 40
1.0
 10
17.00776433466682
 20
8.376611218745872
 30
0.0
 10
17.02779583072981
 20
8.418997045517525
 30
0.0
 10
17.06768559450934
 20
8.440949801423036
 30
0.0
 10
17.09686275986367
 20
8.42565846284036
 30
0.0
  0
SPLINE
  5
28C
330
1F
100
AcDbEntity
  8
0
  6
Continuous
 62
   179
370
    15
100
AcDbSpline
210
0.0
220
0.0
230
1.0
 70
     8
 71
     3
 72
     8
 73
     4
 74
     0
 42
0.00000001
 43
0.00000001
 40
0.0
 40
0.0
 40
0.0
 40
0.0
 40
0.2
 40
0.2
 40
0.2
 40
0.2
 10
14.23571709057233
 20
8.666997045517526
 30
0.0
 10
14.27355173624163
 20
8.694949801423036
 30
0.0
 10
14.34970134254084
 20
8.656071848667132
 30
0.0
 10
14.40579189372194
 20
8.580158462840359
 30
0.0
  0
SPLINE
  5
28D
330
1F
100
AcDbEntity
  8
0
  6
Continuous
 62
   179
370
    15
100
AcDbSpline
210
0.0
220
0.0
230
1.0
 70
     8
 71
     3
 72
     8
 73
     4
 74
     0
 42
0.00000001
 43
0.00000001
 40
0.2
 40
0.2
 40
0.2
 40
0.2
 40
0.4
 40
0.4
 40
0.4
 40
0.4
 10
14.40579189372194
 20
8.580158462840359
 30
0.0
 10
14.46188244490304
 20
8.504245077013588
 30
0.0
 10
14.47668165750147
 20
8.420036415596265
 30
0.0
 10
14.43884701183218
 20
8.392083659690753
 30
0.0
  0
SPLINE
  5
28E
330
1F
100
AcDbEntity
  8
0
  6
Continuous
 62
   179
370
    15
100
AcDbSpline
210
0.0
220
0.0
230
1.0
 70
     8
 71
     3
 72
     8
 73
     4
 74
     0
 42
0.00000001
 43
0.00000001
 40
0.4
 40
0.4
 40
0.4
 40
0.4
 40
0.6
 40
0.6
 40
0.6
 40
0.6
 10
14.43884701183218
 20
8.392083659690753
 30
0.0
 10
14.40101236616289
 20
8.364126966777366
 30
0.0
 10
14.32486275986367
 20
8.403004919533272
 30
0.0
 10
14.26877220868257
 20
8.478918305360043
 30
0.0
  0
SPLINE
  5
28F
330
1F
100
AcDbEntity
  8
0
  6
Continuous
 62
   179
370
    15
100
AcDbSpline
210
0.0
220
0.0
230
1.0
 70
     8
 71
     3
 72
     8
 73
     4
 74
     0
 42
0.00000001
 43
0.00000001
 40
0.6
 40
0.6
 40
0.6
 40
0.6
 40
1.0
 40
1.0
 40
1.0
 40
1.0
 10
14.26877220868257
 20
8.478918305360043
 30
0.0
 10
14.21268165750147
 20
8.554831691186816
 30
0.0
 10
14.19788244490304
 20
8.63904035260414
 30
0.0
 10
14.23571709057233
 20
8.666997045517526
 30
0.0
  0
SPLINE
  5
290
330
1F
100
AcDbEntity
  8
0
  6
Continuous
 62
   179
370
    15
100
AcDbSpline
210
0.0
220
0.0
230
1.0
 70
     8
 71
     3
 72
     8
 73
     4
 74
     0
 42
0.00000001
 43
0.00000001
 40
0.0
 40
0.0
 40
0.0
 40
0.0
 40
0.2
 40
0.2
 40
0.2
 40
0.2
 10
12.55469346852509
 20
8.584898620320674
 30
0.0
 10
12.58695724805265
 20
8.60873720299784
 30
0.0
 10
12.65189819293454
 20
8.57557972268288
 30
0.0
 10
12.69973283860383
 20
8.510839565202563
 30
0.0
  0
SPLINE
  5
291
330
1F
100
AcDbEntity
  8
0
  6
Continuous
 62
   179
370
    15
100
AcDbSpline
210
0.0
220
0.0
230
1.0
 70
     8
 71
     3
 72
     8
 73
     4
 74
     0
 42
0.00000001
 43
0.00000001
 40
0.2
 40
0.2
 40
0.2
 40
0.2
 40
0.4
 40
0.4
 40
0.4
 40
0.4
 10
12.69973283860383
 20
8.510839565202563
 30
0.0
 10
12.74756748427312
 20
8.446099407722249
 30
0.0
 10
12.76018953151722
 20
8.374288384100202
 30
0.0
 10
12.72792181498178
 20
8.350449801423036
 30
0.0
  0
SPLINE
  5
292
330
1F
100
AcDbEntity
  8
0
  6
Continuous
 62
   179
370
    15
100
AcDbSpline
210
0.0
220
0.0
230
1.0
 70
     8
 71
     3
 72
     8
 73
     4
 74
     0
 42
0.00000001
 43
0.00000001
 40
0.4
 40
0.4
 40
0.4
 40
0.4
 40
0.6
 40
0.6
 40
0.6
 40
0.6
 10
12.72792181498178
 20
8.350449801423036
 30
0.0
 10
12.69565803545422
 20
8.326607281737997
 30
0.0
 10
12.63071709057233
 20
8.359760825045084
 30
0.0
 10
12.58288244490304
 20
8.4245009825254
 30
0.0
  0
SPLINE
  5
293
330
1F
100
AcDbEntity
  8
0
  6
Continuous
 62
   179
370
    15
100
AcDbSpline
210
0.0
220
0.0
230
1.0
 70
     8
 71
     3
 72
     8
 73
     4
 74
     0
 42
0.00000001
 43
0.00000001
 40
0.6
 40
0.6
 40
0.6
 40
0.6
 40
1.0
 40
1.0
 40
1.0
 40
1.0
 10
12.58288244490304
 20
8.4245009825254
 30
0.0
 10
12.53504779923375
 20
8.489241140005714
 30
0.0
 10
12.52242575198966
 20
8.561056100635636
 30
0.0
 10
12.55469346852509
 20
8.584898620320674
 30
0.0
  0
SPLINE
  5
294
330
1F
100
AcDbEntity
  8
0
  6
Continuous
 62
   179
370
    15
100
AcDbSpline
210
0.0
220
0.0
230
1.0
 70
     8
 71
     3
 72
     8
 73
     4
 74
     0
 42
0.00000001
 43
0.00000001
 40
0.0
 40
0.0
 40
0.0
 40
0.0
 40
0.2
 40
0.2
 40
0.2
 40
0.2
 10
17.24521315356446
 20
8.666997045517526
 30
0.0
 10
17.28113835041486
 20
8.694949801423036
 30
0.0
 10
17.3534493740369
 20
8.656071848667132
 30
0.0
 10
17.40670921655659
 20
8.580158462840359
 30
0.0
  0
SPLINE
  5
295
330
1F
100
AcDbEntity
  8
0
  6
Continuous
 62
   179
370
    15
100
AcDbSpline
210
0.0
220
0.0
230
1.0
 70
     8
 71
     3
 72
     8
 73
     4
 74
     0
 42
0.00000001
 43
0.00000001
 40
0.2
 40
0.2
 40
0.2
 40
0.2
 40
0.4
 40
0.4
 40
0.4
 40
0.4
 10
17.40670921655659
 20
8.580158462840359
 30
0.0
 10
17.45996905907627
 20
8.504245077013588
 30
0.0
 10
17.47402417718651
 20
8.420036415596265
 30
0.0
 10
17.43809504332824
 20
8.392083659690753
 30
0.0
  0
SPLINE
  5
296
330
1F
100
AcDbEntity
  8
0
  6
Continuous
 62
   179
370
    15
100
AcDbSpline
210
0.0
220
0.0
230
1.0
 70
     8
 71
     3
 72
     8
 73
     4
 74
     0
 42
0.00000001
 43
0.00000001
 40
0.4
 40
0.4
 40
0.4
 40
0.4
 40
0.6
 40
0.6
 40
0.6
 40
0.6
 10
17.43809504332824
 20
8.392083659690753
 30
0.0
 10
17.40216984647785
 20
8.364126966777366
 30
0.0
 10
17.32986275986368
 20
8.403004919533272
 30
0.0
 10
17.27659898033611
 20
8.478918305360043
 30
0.0
  0
SPLINE
  5
297
330
1F
100
AcDbEntity
  8
0
  6
Continuous
 62
   179
370
    15
100
AcDbSpline
210
0.0
220
0.0
230
1.0
 70
     8
 71
     3
 72
     8
 73
     4
 74
     0
 42
0.00000001
 43
0.00000001
 40
0.6
 40
0.6
 40
0.6
 40
0.6
 40
1.0
 40
1.0
 40
1.0
 40
1.0
 10
17.27659898033611
 20
8.478918305360043
 30
0.0
 10
17.22333913781643
 20
8.554831691186816
 30
0.0
 10
17.20928401970619
 20
8.63904035260414
 30
0.0
 10
17.24521315356446
 20
8.666997045517526
 30
0.0
  0
SPLINE
  5
298
330
1F
100
AcDbEntity
  8
0
  6
Continuous
 62
   179
370
    15
100
AcDbSpline
210
0.0
220
0.0
230
1.0
 70
     8
 71
     3
 72
     8
 73
     4
 74
     0
 42
0.00000001
 43
0.00000001
 40
0.0
 40
0.0
 40
0.0
 40
0.0
 40
0.2
 40
0.2
 40
0.2
 40
0.2
 10
14.78518165750147
 20
8.69637499827343
 30
0.0
 10
14.80642181498178
 20
8.712540352604139
 30
0.0
 10
14.84831157876131
 20
8.69321751795847
 30
0.0
 10
14.87874464962745
 20
8.653229328982091
 30
0.0
  0
SPLINE
  5
299
330
1F
100
AcDbEntity
  8
0
  6
Continuous
 62
   179
370
    15
100
AcDbSpline
210
0.0
220
0.0
230
1.0
 70
     8
 71
     3
 72
     8
 73
     4
 74
     0
 42
0.00000001
 43
0.00000001
 40
0.2
 40
0.2
 40
0.2
 40
0.2
 40
0.4
 40
0.4
 40
0.4
 40
0.4
 10
14.87874464962745
 20
8.653229328982091
 30
0.0
 10
14.90917378348572
 20
8.613241140005712
 30
0.0
 10
14.91662653939123
 20
8.567713580950596
 30
0.0
 10
14.89539031891879
 20
8.551552163627761
 30
0.0
  0
SPLINE
  5
29A
330
1F
100
AcDbEntity
  8
0
  6
Continuous
 62
   179
370
    15
100
AcDbSpline
210
0.0
220
0.0
230
1.0
 70
     8
 71
     3
 72
     8
 73
     4
 74
     0
 42
0.00000001
 43
0.00000001
 40
0.4
 40
0.4
 40
0.4
 40
0.4
 40
0.6
 40
0.6
 40
0.6
 40
0.6
 10
14.89539031891879
 20
8.551552163627761
 30
0.0
 10
14.87415016143848
 20
8.535390746304927
 30
0.0
 10
14.83225646065108
 20
8.554709643942722
 30
0.0
 10
14.80182732679281
 20
8.594697832919099
 30
0.0
  0
SPLINE
  5
29B
330
1F
100
AcDbEntity
  8
0
  6
Continuous
 62
   179
370
    15
100
AcDbSpline
210
0.0
220
0.0
230
1.0
 70
     8
 71
     3
 72
     8
 73
     4
 74
     0
 42
0.00000001
 43
0.00000001
 40
0.6
 40
0.6
 40
0.6
 40
0.6
 40
1.0
 40
1.0
 40
1.0
 40
1.0
 10
14.80182732679281
 20
8.594697832919099
 30
0.0
 10
14.77139819293454
 20
8.634689958903351
 30
0.0
 10
14.76394150002115
 20
8.680213580950594
 30
0.0
 10
14.78518165750147
 20
8.69637499827343
 30
0.0
  0
SPLINE
  5
29C
330
1F
100
AcDbEntity
  8
0
  6
Continuous
 62
   179
370
    15
100
AcDbSpline
210
0.0
220
0.0
230
1.0
 70
     8
 71
     3
 72
     8
 73
     4
 74
     0
 42
0.00000001
 43
0.00000001
 40
0.0
 40
0.0
 40
0.0
 40
0.0
 40
0.2
 40
0.2
 40
0.2
 40
0.2
 10
17.81368953151722
 20
8.759000982525398
 30
0.0
 10
17.8338588228558
 20
8.775162399848233
 30
0.0
 10
17.87363835041485
 20
8.755839565202564
 30
0.0
 10
17.90253205120226
 20
8.715851376226187
 30
0.0
  0
SPLINE
  5
29D
330
1F
100
AcDbEntity
  8
0
  6
Continuous
 62
   179
370
    15
100
AcDbSpline
210
0.0
220
0.0
230
1.0
 70
     8
 71
     3
 72
     8
 73
     4
 74
     0
 42
0.00000001
 43
0.00000001
 40
0.2
 40
0.2
 40
0.2
 40
0.2
 40
0.4
 40
0.4
 40
0.4
 40
0.4
 10
17.90253205120226
 20
8.715851376226187
 30
0.0
 10
17.93142575198966
 20
8.675863187249808
 30
0.0
 10
17.93850842915501
 20
8.63033562819469
 30
0.0
 10
17.91833913781643
 20
8.614174210871855
 30
0.0
  0
SPLINE
  5
29E
330
1F
100
AcDbEntity
  8
0
  6
Continuous
 62
   179
370
    15
100
AcDbSpline
210
0.0
220
0.0
230
1.0
 70
     8
 71
     3
 72
     8
 73
     4
 74
     0
 42
0.00000001
 43
0.00000001
 40
0.4
 40
0.4
 40
0.4
 40
0.4
 40
0.6
 40
0.6
 40
0.6
 40
0.6
 10
17.91833913781643
 20
8.614174210871854
 30
0.0
 10
17.89816984647785
 20
8.598012793549021
 30
0.0
 10
17.85839031891879
 20
8.61733562819469
 30
0.0
 10
17.82949661813139
 20
8.657323817171068
 30
0.0
  0
SPLINE
  5
29F
330
1F
100
AcDbEntity
  8
0
  6
Continuous
 62
   179
370
    15
100
AcDbSpline
210
0.0
220
0.0
230
1.0
 70
     8
 71
     3
 72
     8
 73
     4
 74
     0
 42
0.00000001
 43
0.00000001
 40
0.6
 40
0.6
 40
0.6
 40
0.6
 40
1.0
 40
1.0
 40
1.0
 40
1.0
 10
17.82949661813139
 20
8.657323817171068
 30
0.0
 10
17.80060291734399
 20
8.697312006147447
 30
0.0
 10
17.79352024017863
 20
8.74283562819469
 30
0.0
 10
17.81368953151722
 20
8.759000982525398
 30
0.0
  0
SPLINE
  5
2A0
330
1F
100
AcDbEntity
  8
0
  6
Continuous
 62
   179
370
    15
100
AcDbSpline
210
0.0
220
0.0
230
1.0
 70
     8
 71
     3
 72
     8
 73
     4
 74
     0
 42
0.00000001
 43
0.00000001
 40
0.0
 40
0.0
 40
0.0
 40
0.0
 40
0.2
 40
0.2
 40
0.2
 40
0.2
 10
14.96845724805265
 20
8.40725688803721
 30
0.0
 10
14.99101236616289
 20
8.376839565202564
 30
0.0
 10
14.97018953151722
 20
8.323178147879728
 30
0.0
 10
14.92193756301328
 20
8.287402557328548
 30
0.0
  0
SPLINE
  5
2A1
330
1F
100
AcDbEntity
  8
0
  6
Continuous
 62
   179
370
    15
100
AcDbSpline
210
0.0
220
0.0
230
1.0
 70
     8
 71
     3
 72
     8
 73
     4
 74
     0
 42
0.00000001
 43
0.00000001
 40
0.2
 40
0.2
 40
0.2
 40
0.2
 40
0.4
 40
0.4
 40
0.4
 40
0.4
 10
14.92193756301328
 20
8.287402557328548
 30
0.0
 10
14.87368559450934
 20
8.251630903785241
 30
0.0
 10
14.81629189372194
 20
8.24729625811595
 30
0.0
 10
14.79373677561171
 20
8.27771751795847
 30
0.0
  0
SPLINE
  5
2A2
330
1F
100
AcDbEntity
  8
0
  6
Continuous
 62
   179
370
    15
100
AcDbSpline
210
0.0
220
0.0
230
1.0
 70
     8
 71
     3
 72
     8
 73
     4
 74
     0
 42
0.00000001
 43
0.00000001
 40
0.4
 40
0.4
 40
0.4
 40
0.4
 40
0.6
 40
0.6
 40
0.6
 40
0.6
 10
14.79373677561171
 20
8.27771751795847
 30
0.0
 10
14.77118559450934
 20
8.308134840793116
 30
0.0
 10
14.79200842915501
 20
8.36179625811595
 30
0.0
 10
14.84026039765895
 20
8.397567911659259
 30
0.0
  0
SPLINE
  5
2A3
330
1F
100
AcDbEntity
  8
0
  6
Continuous
 62
   179
370
    15
100
AcDbSpline
210
0.0
220
0.0
230
1.0
 70
     8
 71
     3
 72
     8
 73
     4
 74
     0
 42
0.00000001
 43
0.00000001
 40
0.6
 40
0.6
 40
0.6
 40
0.6
 40
1.0
 40
1.0
 40
1.0
 40
1.0
 10
14.84026039765895
 20
8.397567911659259
 30
0.0
 10
14.88850842915501
 20
8.433343502210437
 30
0.0
 10
14.94590606695029
 20
8.437674210871856
 30
0.0
 10
14.96845724805265
 20
8.40725688803721
 30
0.0
  0
SPLINE
  5
2A4
330
1F
100
AcDbEntity
  8
0
  6
Continuous
 62
   179
370
    15
100
AcDbSpline
210
0.0
220
0.0
230
1.0
 70
     8
 71
     3
 72
     8
 73
     4
 74
     0
 42
0.00000001
 43
0.00000001
 40
0.0
 40
0.0
 40
0.0
 40
0.0
 40
0.2
 40
0.2
 40
0.2
 40
0.2
 10
17.71621709057234
 20
8.430437990399414
 30
0.0
 10
17.73763441340698
 20
8.40002066756477
 30
0.0
 10
17.71786275986367
 20
8.346359250241935
 30
0.0
 10
17.67204386222588
 20
8.310583659690753
 30
0.0
  0
SPLINE
  5
2A5
330
1F
100
AcDbEntity
  8
0
  6
Continuous
 62
   179
370
    15
100
AcDbSpline
210
0.0
220
0.0
230
1.0
 70
     8
 71
     3
 72
     8
 73
     4
 74
     0
 42
0.00000001
 43
0.00000001
 40
0.2
 40
0.2
 40
0.2
 40
0.2
 40
0.4
 40
0.4
 40
0.4
 40
0.4
 10
17.67204386222588
 20
8.310583659690753
 30
0.0
 10
17.62622496458808
 20
8.274812006147446
 30
0.0
 10
17.57172496458808
 20
8.270477360478154
 30
0.0
 10
17.55030764175344
 20
8.300898620320675
 30
0.0
  0
SPLINE
  5
2A6
330
1F
100
AcDbEntity
  8
0
  6
Continuous
 62
   179
370
    15
100
AcDbSpline
210
0.0
220
0.0
230
1.0
 70
     8
 71
     3
 72
     8
 73
     4
 74
     0
 42
0.00000001
 43
0.00000001
 40
0.4
 40
0.4
 40
0.4
 40
0.4
 40
0.6
 40
0.6
 40
0.6
 40
0.6
 10
17.55030764175344
 20
8.300898620320675
 30
0.0
 10
17.52889425592667
 20
8.331315943155321
 30
0.0
 10
17.54866590946997
 20
8.384977360478153
 30
0.0
 10
17.59448480710777
 20
8.420749014021462
 30
0.0
  0
SPLINE
  5
2A7
330
1F
100
AcDbEntity
  8
0
  6
Continuous
 62
   179
370
    15
100
AcDbSpline
210
0.0
220
0.0
230
1.0
 70
     8
 71
     3
 72
     8
 73
     4
 74
     0
 42
0.00000001
 43
0.00000001
 40
0.6
 40
0.6
 40
0.6
 40
0.6
 40
1.0
 40
1.0
 40
1.0
 40
1.0
 10
17.59448480710777
 20
8.420749014021462
 30
0.0
 10
17.64029976773769
 20
8.456524604572643
 30
0.0
 10
17.69480370474556
 20
8.46085531323406
 30
0.0
 10
17.71621709057234
 20
8.430437990399414
 30
0.0
  0
SPLINE
  5
2A8
330
1F
100
AcDbEntity
  8
0
  6
Continuous
 62
   179
370
    15
100
AcDbSpline
210
0.0
220
0.0
230
1.0
 70
     8
 71
     3
 72
     8
 73
     4
 74
     0
 42
0.00000001
 43
0.00000001
 40
0.0
 40
0.0
 40
0.0
 40
0.0
 40
0.2
 40
0.2
 40
0.2
 40
0.2
 10
15.06608323230462
 20
8.80637499827343
 30
0.0
 10
15.08464228742273
 20
8.824804132131698
 30
0.0
 10
15.13293756301328
 20
8.806280510084454
 30
0.0
 10
15.17394150002115
 20
8.76499310850965
 30
0.0
  0
SPLINE
  5
2A9
330
1F
100
AcDbEntity
  8
0
  6
Continuous
 62
   179
370
    15
100
AcDbSpline
210
0.0
220
0.0
230
1.0
 70
     8
 71
     3
 72
     8
 73
     4
 74
     0
 42
0.00000001
 43
0.00000001
 40
0.2
 40
0.2
 40
0.2
 40
0.2
 40
0.4
 40
0.4
 40
0.4
 40
0.4
 10
15.17394150002115
 20
8.76499310850965
 30
0.0
 10
15.21494543702903
 20
8.723705706934847
 30
0.0
 10
15.23313835041485
 20
8.675288384100202
 30
0.0
 10
15.21457929529675
 20
8.65685531323406
 30
0.0
  0
SPLINE
  5
2AA
330
1F
100
AcDbEntity
  8
0
  6
Continuous
 62
   179
370
    15
100
AcDbSpline
210
0.0
220
0.0
230
1.0
 70
     8
 71
     3
 72
     8
 73
     4
 74
     0
 42
0.00000001
 43
0.00000001
 40
0.4
 40
0.4
 40
0.4
 40
0.4
 40
0.6
 40
0.6
 40
0.6
 40
0.6
 10
15.21457929529675
 20
8.65685531323406
 30
0.0
 10
15.19602024017864
 20
8.638422242367918
 30
0.0
 10
15.14772890159596
 20
8.656949801423035
 30
0.0
 10
15.10672102758021
 20
8.698233265989966
 30
0.0
  0
SPLINE
  5
2AB
330
1F
100
AcDbEntity
  8
0
  6
Continuous
 62
   179
370
    15
100
AcDbSpline
210
0.0
220
0.0
230
1.0
 70
     8
 71
     3
 72
     8
 73
     4
 74
     0
 42
0.00000001
 43
0.00000001
 40
0.6
 40
0.6
 40
0.6
 40
0.6
 40
1.0
 40
1.0
 40
1.0
 40
1.0
 10
15.10672102758021
 20
8.698233265989966
 30
0.0
 10
15.06571709057233
 20
8.739520667564769
 30
0.0
 10
15.04752417718651
 20
8.787941927407289
 30
0.0
 10
15.06608323230462
 20
8.80637499827343
 30
0.0
  0
SPLINE
  5
2AC
330
1F
100
AcDbEntity
  8
0
  6
Continuous
 62
   179
370
    15
100
AcDbSpline
210
0.0
220
0.0
230
1.0
 70
     8
 71
     3
 72
     8
 73
     4
 74
     0
 42
0.00000001
 43
0.00000001
 40
0.0
 40
0.0
 40
0.0
 40
0.0
 40
0.2
 40
0.2
 40
0.2
 40
0.2
 10
17.97523283860383
 20
8.861083659690754
 30
0.0
 10
17.99285488584793
 20
8.879516730556896
 30
0.0
 10
18.03871315356446
 20
8.86099310850965
 30
0.0
 10
18.07765016143848
 20
8.819705706934847
 30
0.0
  0
SPLINE
  5
2AD
330
1F
100
AcDbEntity
  8
0
  6
Continuous
 62
   179
370
    15
100
AcDbSpline
210
0.0
220
0.0
230
1.0
 70
     8
 71
     3
 72
     8
 73
     4
 74
     0
 42
0.00000001
 43
0.00000001
 40
0.2
 40
0.2
 40
0.2
 40
0.2
 40
0.4
 40
0.4
 40
0.4
 40
0.4
 10
18.07765016143848
 20
8.819705706934847
 30
0.0
 10
18.11658716931249
 20
8.778418305360045
 30
0.0
 10
18.13386275986367
 20
8.729997045517525
 30
0.0
 10
18.11623677561171
 20
8.711567911659257
 30
0.0
  0
SPLINE
  5
2AE
330
1F
100
AcDbEntity
  8
0
  6
Continuous
 62
   179
370
    15
100
AcDbSpline
210
0.0
220
0.0
230
1.0
 70
     8
 71
     3
 72
     8
 73
     4
 74
     0
 42
0.00000001
 43
0.00000001
 40
0.4
 40
0.4
 40
0.4
 40
0.4
 40
0.6
 40
0.6
 40
0.6
 40
0.6
 10
18.11623677561171
 20
8.711567911659257
 30
0.0
 10
18.09861472836761
 20
8.693134840793116
 30
0.0
 10
18.05275646065108
 20
8.71165846284036
 30
0.0
 10
18.01381945277706
 20
8.752945864415162
 30
0.0
  0
SPLINE
  5
2AF
330
1F
100
AcDbEntity
  8
0
  6
Continuous
 62
   179
370
    15
100
AcDbSpline
210
0.0
220
0.0
230
1.0
 70
     8
 71
     3
 72
     8
 73
     4
 74
     0
 42
0.00000001
 43
0.00000001
 40
0.6
 40
0.6
 40
0.6
 40
0.6
 40
1.0
 40
1.0
 40
1.0
 40
1.0
 10
18.01381945277706
 20
8.752945864415162
 30
0.0
 10
17.97488244490305
 20
8.794233265989964
 30
0.0
 10
17.95760685435186
 20
8.842650588824611
 30
0.0
 10
17.97523283860383
 20
8.861083659690754
 30
0.0
  0
SPLINE
  5
2B0
330
1F
100
AcDbEntity
  8
0
  6
Continuous
 62
   179
370
    15
100
AcDbSpline
210
0.0
220
0.0
230
1.0
 70
     8
 71
     3
 72
     8
 73
     4
 74
     0
 42
0.00000001
 43
0.00000001
 40
0.0
 40
0.0
 40
0.0
 40
0.0
 40
0.2
 40
0.2
 40
0.2
 40
0.2
 10
15.02063835041485
 20
8.60157972268288
 30
0.0
 10
15.06299661813139
 20
8.626441927407289
 30
0.0
 10
15.1347367756117
 20
8.582886809297051
 30
0.0
 10
15.18086669687155
 20
8.50429625811595
 30
0.0
  0
SPLINE
  5
2B1
330
1F
100
AcDbEntity
  8
0
  6
Continuous
 62
   179
370
    15
100
AcDbSpline
210
0.0
220
0.0
230
1.0
 70
     8
 71
     3
 72
     8
 73
     4
 74
     0
 42
0.00000001
 43
0.00000001
 40
0.2
 40
0.2
 40
0.2
 40
0.2
 40
0.4
 40
0.4
 40
0.4
 40
0.4
 10
15.18086669687155
 20
8.50429625811595
 30
0.0
 10
15.22700055513926
 20
8.425705706934847
 30
0.0
 10
15.2300556732495
 20
8.34183562819469
 30
0.0
 10
15.18770134254084
 20
8.31697342347028
 30
0.0
  0
SPLINE
  5
2B2
330
1F
100
AcDbEntity
  8
0
  6
Continuous
 62
   179
370
    15
100
AcDbSpline
210
0.0
220
0.0
230
1.0
 70
     8
 71
     3
 72
     8
 73
     4
 74
     0
 42
0.00000001
 43
0.00000001
 40
0.4
 40
0.4
 40
0.4
 40
0.4
 40
0.6
 40
0.6
 40
0.6
 40
0.6
 10
15.18770134254084
 20
8.31697342347028
 30
0.0
 10
15.14534701183218
 20
8.292111218745871
 30
0.0
 10
15.07360685435186
 20
8.335666336856107
 30
0.0
 10
15.02747299608414
 20
8.41425688803721
 30
0.0
  0
SPLINE
  5
2B3
330
1F
100
AcDbEntity
  8
0
  6
Continuous
 62
   179
370
    15
100
AcDbSpline
210
0.0
220
0.0
230
1.0
 70
     8
 71
     3
 72
     8
 73
     4
 74
     0
 42
0.00000001
 43
0.00000001
 40
0.6
 40
0.6
 40
0.6
 40
0.6
 40
1.0
 40
1.0
 40
1.0
 40
1.0
 10
15.02747299608414
 20
8.41425688803721
 30
0.0
 10
14.9813430748243
 20
8.492847439218313
 30
0.0
 10
14.97828401970619
 20
8.57671751795847
 30
0.0
 10
15.02063835041485
 20
8.60157972268288
 30
0.0
  0
SPLINE
  5
2B4
330
1F
100
AcDbEntity
  8
0
  6
Continuous
 62
   179
370
    15
100
AcDbSpline
210
0.0
220
0.0
230
1.0
 70
     8
 71
     3
 72
     8
 73
     4
 74
     0
 42
0.00000001
 43
0.00000001
 40
0.0
 40
0.0
 40
0.0
 40
0.0
 40
0.2
 40
0.2
 40
0.2
 40
0.2
 10
17.87222496458808
 20
8.539182084887603
 30
0.0
 10
17.91244543702903
 20
8.564044289612013
 30
0.0
 10
17.98056748427312
 20
8.520489171501776
 30
0.0
 10
18.0243745708873
 20
8.441898620320673
 30
0.0
  0
SPLINE
  5
2B5
330
1F
100
AcDbEntity
  8
0
  6
Continuous
 62
   179
370
    15
100
AcDbSpline
210
0.0
220
0.0
230
1.0
 70
     8
 71
     3
 72
     8
 73
     4
 74
     0
 42
0.00000001
 43
0.00000001
 40
0.2
 40
0.2
 40
0.2
 40
0.2
 40
0.4
 40
0.4
 40
0.4
 40
0.4
 10
18.0243745708873
 20
8.441898620320673
 30
0.0
 10
18.06817772049359
 20
8.363308069139572
 30
0.0
 10
18.07108323230462
 20
8.27943405339154
 30
0.0
 10
18.03086275986367
 20
8.254571848667132
 30
0.0
  0
SPLINE
  5
2B6
330
1F
100
AcDbEntity
  8
0
  6
Continuous
 62
   179
370
    15
100
AcDbSpline
210
0.0
220
0.0
230
1.0
 70
     8
 71
     3
 72
     8
 73
     4
 74
     0
 42
0.00000001
 43
0.00000001
 40
0.4
 40
0.4
 40
0.4
 40
0.4
 40
0.6
 40
0.6
 40
0.6
 40
0.6
 10
18.03086275986367
 20
8.254571848667132
 30
0.0
 10
17.99064228742273
 20
8.229713580950595
 30
0.0
 10
17.92252024017863
 20
8.273264762052959
 30
0.0
 10
17.87871709057233
 20
8.35185531323406
 30
0.0
  0
SPLINE
  5
2B7
330
1F
100
AcDbEntity
  8
0
  6
Continuous
 62
   179
370
    15
100
AcDbSpline
210
0.0
220
0.0
230
1.0
 70
     8
 71
     3
 72
     8
 73
     4
 74
     0
 42
0.00000001
 43
0.00000001
 40
0.6
 40
0.6
 40
0.6
 40
0.6
 40
1.0
 40
1.0
 40
1.0
 40
1.0
 10
17.87871709057233
 20
8.35185531323406
 30
0.0
 10
17.83491000395816
 20
8.430449801423036
 30
0.0
 10
17.83200842915501
 20
8.514319880163194
 30
0.0
 10
17.87222496458808
 20
8.539182084887603
 30
0.0
  0
SPLINE
  5
2B8
330
1F
100
AcDbEntity
  8
0
  6
Continuous
 62
   179
370
    15
100
AcDbSpline
210
0.0
220
0.0
230
1.0
 70
     8
 71
     3
 72
     8
 73
     4
 74
     0
 42
0.00000001
 43
0.00000001
 40
0.0
 40
0.0
 40
0.0
 40
0.0
 40
0.2
 40
0.2
 40
0.2
 40
0.2
 10
15.36073677561171
 20
8.405556100635636
 30
0.0
 10
15.37979189372194
 20
8.422871061265555
 30
0.0
 10
15.4247525236432
 20
8.404422242367918
 30
0.0
 10
15.46116984647785
 20
8.364351376226185
 30
0.0
  0
SPLINE
  5
2B9
330
1F
100
AcDbEntity
  8
0
  6
Continuous
 62
   179
370
    15
100
AcDbSpline
210
0.0
220
0.0
230
1.0
 70
     8
 71
     3
 72
     8
 73
     4
 74
     0
 42
0.00000001
 43
0.00000001
 40
0.2
 40
0.2
 40
0.2
 40
0.2
 40
0.4
 40
0.4
 40
0.4
 40
0.4
 10
15.46116984647785
 20
8.364351376226185
 30
0.0
 10
15.49758716931249
 20
8.324280510084455
 30
0.0
 10
15.51166590946997
 20
8.277760825045084
 30
0.0
 10
15.49261079135974
 20
8.260445864415162
 30
0.0
  0
SPLINE
  5
2BA
330
1F
100
AcDbEntity
  8
0
  6
Continuous
 62
   179
370
    15
100
AcDbSpline
210
0.0
220
0.0
230
1.0
 70
     8
 71
     3
 72
     8
 73
     4
 74
     0
 42
0.00000001
 43
0.00000001
 40
0.4
 40
0.4
 40
0.4
 40
0.4
 40
0.6
 40
0.6
 40
0.6
 40
0.6
 10
15.49261079135974
 20
8.260445864415162
 30
0.0
 10
15.4735556732495
 20
8.243130903785241
 30
0.0
 10
15.42859110632037
 20
8.26157972268288
 30
0.0
 10
15.3921777204936
 20
8.30165058882461
 30
0.0
  0
SPLINE
  5
2BB
330
1F
100
AcDbEntity
  8
0
  6
Continuous
 62
   179
370
    15
100
AcDbSpline
210
0.0
220
0.0
230
1.0
 70
     8
 71
     3
 72
     8
 73
     4
 74
     0
 42
0.00000001
 43
0.00000001
 40
0.6
 40
0.6
 40
0.6
 40
0.6
 40
1.0
 40
1.0
 40
1.0
 40
1.0
 10
15.3921777204936
 20
8.30165058882461
 30
0.0
 10
15.35576039765895
 20
8.341721454966343
 30
0.0
 10
15.34168165750147
 20
8.388241140005714
 30
0.0
 10
15.36073677561171
 20
8.405556100635636
 30
0.0
  0
SPLINE
  5
2BC
330
1F
100
AcDbEntity
  8
0
  6
Continuous
 62
   179
370
    15
100
AcDbSpline
210
0.0
220
0.0
230
1.0
 70
     8
 71
     3
 72
     8
 73
     4
 74
     0
 42
0.00000001
 43
0.00000001
 40
0.0
 40
0.0
 40
0.0
 40
0.0
 40
0.2
 40
0.2
 40
0.2
 40
0.2
 10
18.37410685435186
 20
8.532083659690754
 30
0.0
 10
18.39220134254084
 20
8.549402557328548
 30
0.0
 10
18.43489819293454
 20
8.53095373843091
 30
0.0
 10
18.46947693309202
 20
8.490878935281305
 30
0.0
  0
SPLINE
  5
2BD
330
1F
100
AcDbEntity
  8
0
  6
Continuous
 62
   179
370
    15
100
AcDbSpline
210
0.0
220
0.0
230
1.0
 70
     8
 71
     3
 72
     8
 73
     4
 74
     0
 42
0.00000001
 43
0.00000001
 40
0.2
 40
0.2
 40
0.2
 40
0.2
 40
0.4
 40
0.4
 40
0.4
 40
0.4
 10
18.46947693309202
 20
8.490878935281305
 30
0.0
 10
18.5040556732495
 20
8.450808069139573
 30
0.0
 10
18.51742575198966
 20
8.404288384100203
 30
0.0
 10
18.49933126380068
 20
8.38697342347028
 30
0.0
  0
SPLINE
  5
2BE
330
1F
100
AcDbEntity
  8
0
  6
Continuous
 62
   179
370
    15
100
AcDbSpline
210
0.0
220
0.0
230
1.0
 70
     8
 71
     3
 72
     8
 73
     4
 74
     0
 42
0.00000001
 43
0.00000001
 40
0.4
 40
0.4
 40
0.4
 40
0.4
 40
0.6
 40
0.6
 40
0.6
 40
0.6
 10
18.49933126380068
 20
8.38697342347028
 30
0.0
 10
18.48123677561171
 20
8.36965846284036
 30
0.0
 10
18.43854386222588
 20
8.388107281737996
 30
0.0
 10
18.40396118506052
 20
8.428178147879729
 30
0.0
  0
SPLINE
  5
2BF
330
1F
100
AcDbEntity
  8
0
  6
Continuous
 62
   179
370
    15
100
AcDbSpline
210
0.0
220
0.0
230
1.0
 70
     8
 71
     3
 72
     8
 73
     4
 74
     0
 42
0.00000001
 43
0.00000001
 40
0.6
 40
0.6
 40
0.6
 40
0.6
 40
1.0
 40
1.0
 40
1.0
 40
1.0
 10
18.40396118506052
 20
8.428178147879729
 30
0.0
 10
18.36938244490304
 20
8.468249014021463
 30
0.0
 10
18.35601630317076
 20
8.514768699060832
 30
0.0
 10
18.37410685435186
 20
8.532083659690754
 30
0.0
  0
SPLINE
  5
2C0
330
1F
100
AcDbEntity
  8
0
  6
Continuous
 62
   179
370
    15
100
AcDbSpline
210
0.0
220
0.0
230
1.0
 70
     8
 71
     3
 72
     8
 73
     4
 74
     0
 42
0.00000001
 43
0.00000001
 40
0.0
 40
0.0
 40
0.0
 40
0.0
 40
0.2
 40
0.2
 40
0.2
 40
0.2
 10
15.5697525236432
 20
8.490162399848233
 30
0.0
 10
15.6096462244306
 20
8.519812006147445
 30
0.0
 10
15.69149661813139
 20
8.477233265989964
 30
0.0
 10
15.75256354726525
 20
8.395063974651382
 30
0.0
  0
SPLINE
  5
2C1
330
1F
100
AcDbEntity
  8
0
  6
Continuous
 62
   179
370
    15
100
AcDbSpline
210
0.0
220
0.0
230
1.0
 70
     8
 71
     3
 72
     8
 73
     4
 74
     0
 42
0.00000001
 43
0.00000001
 40
0.2
 40
0.2
 40
0.2
 40
0.2
 40
0.4
 40
0.4
 40
0.4
 40
0.4
 10
15.75256354726525
 20
8.395063974651382
 30
0.0
 10
15.81362653939123
 20
8.3128946833128
 30
0.0
 10
15.83078795671407
 20
8.222245077013588
 30
0.0
 10
15.79089425592667
 20
8.192595470714375
 30
0.0
  0
SPLINE
  5
2C2
330
1F
100
AcDbEntity
  8
0
  6
Continuous
 62
   179
370
    15
100
AcDbSpline
210
0.0
220
0.0
230
1.0
 70
     8
 71
     3
 72
     8
 73
     4
 74
     0
 42
0.00000001
 43
0.00000001
 40
0.4
 40
0.4
 40
0.4
 40
0.4
 40
0.6
 40
0.6
 40
0.6
 40
0.6
 10
15.79089425592667
 20
8.192595470714375
 30
0.0
 10
15.75100055513926
 20
8.162945864415162
 30
0.0
 10
15.66915016143848
 20
8.205524604572643
 30
0.0
 10
15.60808716931249
 20
8.287693895911225
 30
0.0
  0
SPLINE
  5
2C3
330
1F
100
AcDbEntity
  8
0
  6
Continuous
 62
   179
370
    15
100
AcDbSpline
210
0.0
220
0.0
230
1.0
 70
     8
 71
     3
 72
     8
 73
     4
 74
     0
 42
0.00000001
 43
0.00000001
 40
0.6
 40
0.6
 40
0.6
 40
0.6
 40
1.0
 40
1.0
 40
1.0
 40
1.0
 10
15.60808716931249
 20
8.287693895911225
 30
0.0
 10
15.54702024017864
 20
8.369863187249807
 30
0.0
 10
15.5298588228558
 20
8.460512793549022
 30
0.0
 10
15.5697525236432
 20
8.490162399848233
 30
0.0
  0
SPLINE
  5
2C4
330
1F
100
AcDbEntity
  8
0
  6
Continuous
 62
   179
370
    15
100
AcDbSpline
210
0.0
220
0.0
230
1.0
 70
     8
 71
     3
 72
     8
 73
     4
 74
     0
 42
0.00000001
 43
0.00000001
 40
0.0
 40
0.0
 40
0.0
 40
0.0
 40
0.2
 40
0.2
 40
0.2
 40
0.2
 10
15.60854796882564
 20
8.722074792882756
 30
0.0
 10
15.62918952788255
 20
8.73794250610542
 30
0.0
 10
15.67107489528927
 20
8.718098879294484
 30
0.0
 10
15.70209165426701
 20
8.67775001561585
 30
0.0
  0
SPLINE
  5
2C5
330
1F
100
AcDbEntity
  8
0
  6
Continuous
 62
   179
370
    15
100
AcDbSpline
210
0.0
220
0.0
230
1.0
 70
     8
 71
     3
 72
     8
 73
     4
 74
     0
 42
0.00000001
 43
0.00000001
 40
0.2
 40
0.2
 40
0.2
 40
0.2
 40
0.4
 40
0.4
 40
0.4
 40
0.4
 10
15.70209165426701
 20
8.67775001561585
 30
0.0
 10
15.73429855617327
 20
8.640843056072299
 30
0.0
 10
15.74509869491491
 20
8.597559142799907
 30
0.0
 10
15.72621237363729
 20
8.581078579980034
 30
0.0
  0
SPLINE
  5
2C6
330
1F
100
AcDbEntity
  8
0
  6
Continuous
 62
   179
370
    15
100
AcDbSpline
210
0.0
220
0.0
230
1.0
 70
     8
 71
     3
 72
     8
 73
     4
 74
     0
 42
0.00000001
 43
0.00000001
 40
0.4
 40
0.4
 40
0.4
 40
0.4
 40
0.6
 40
0.6
 40
0.6
 40
0.6
 10
15.72621237363729
 20
8.581078579980034
 30
0.0
 10
15.70633927234621
 20
8.564258409698752
 30
0.0
 10
15.66356768675645
 20
8.582111840571974
 30
0.0
 10
15.63068921582502
 20
8.620954656493675
 30
0.0
  0
SPLINE
  5
2C7
330
1F
100
AcDbEntity
  8
0
  6
Continuous
 62
   179
370
    15
100
AcDbSpline
210
0.0
220
0.0
230
1.0
 70
     8
 71
     3
 72
     8
 73
     4
 74
     0
 42
0.00000001
 43
0.00000001
 40
0.6
 40
0.6
 40
0.6
 40
0.6
 40
1.0
 40
1.0
 40
1.0
 40
1.0
 10
15.63068921582502
 20
8.620954656493675
 30
0.0
 10
15.59835318477084
 20
8.660254163275614
 30
0.0
 10
15.58843934720755
 20
8.705528194428283
 30
0.0
 10
15.60854796882564
 20
8.722074792882756
 30
0.0
  0
SPLINE
  5
2C8
330
1F
100
AcDbEntity
  8
0
  6
Continuous
 62
   179
370
    15
100
AcDbSpline
210
0.0
220
0.0
230
1.0
 70
     8
 71
     3
 72
     8
 73
     4
 74
     0
 42
0.00000001
 43
0.00000001
 40
0.0
 40
0.0
 40
0.0
 40
0.0
 40
0.2
 40
0.2
 40
0.2
 40
0.2
 10
18.6936777204936
 20
8.425993108509651
 30
0.0
 10
18.71911866537548
 20
8.426166336856106
 30
0.0
 10
18.73942968899753
 20
8.473075785675006
 30
0.0
 10
18.73903992521801
 20
8.53077657307658
 30
0.0
  0
SPLINE
  5
2C9
330
1F
100
AcDbEntity
  8
0
  6
Continuous
 62
   179
370
    15
100
AcDbSpline
210
0.0
220
0.0
230
1.0
 70
     8
 71
     3
 72
     8
 73
     4
 74
     0
 42
0.00000001
 43
0.00000001
 40
0.2
 40
0.2
 40
0.2
 40
0.2
 40
0.4
 40
0.4
 40
0.4
 40
0.4
 10
18.73903992521801
 20
8.53077657307658
 30
0.0
 10
18.73865409844635
 20
8.588481297486029
 30
0.0
 10
18.71771315356446
 20
8.635111218745871
 30
0.0
 10
18.69226433466682
 20
8.634937990399413
 30
0.0
  0
SPLINE
  5
2CA
330
1F
100
AcDbEntity
  8
0
  6
Continuous
 62
   179
370
    15
100
AcDbSpline
210
0.0
220
0.0
230
1.0
 70
     8
 71
     3
 72
     8
 73
     4
 74
     0
 42
0.00000001
 43
0.00000001
 40
0.4
 40
0.4
 40
0.4
 40
0.4
 40
0.6
 40
0.6
 40
0.6
 40
0.6
 10
18.69226433466682
 20
8.634937990399413
 30
0.0
 10
18.66681945277706
 20
8.634768699060832
 30
0.0
 10
18.64651630317076
 20
8.587859250241934
 30
0.0
 10
18.64690212994241
 20
8.530154525832485
 30
0.0
  0
SPLINE
  5
2CB
330
1F
100
AcDbEntity
  8
0
  6
Continuous
 62
   179
370
    15
100
AcDbSpline
210
0.0
220
0.0
230
1.0
 70
     8
 71
     3
 72
     8
 73
     4
 74
     0
 42
0.00000001
 43
0.00000001
 40
0.6
 40
0.6
 40
0.6
 40
0.6
 40
1.0
 40
1.0
 40
1.0
 40
1.0
 10
18.64690212994241
 20
8.530154525832485
 30
0.0
 10
18.64729189372194
 20
8.472449801423036
 30
0.0
 10
18.66823283860383
 20
8.425819880163194
 30
0.0
 10
18.6936777204936
 20
8.425993108509651
 30
0.0
  0
SPLINE
  5
2CC
330
1F
100
AcDbEntity
  8
0
  6
Continuous
 62
   179
370
    15
100
AcDbSpline
210
0.0
220
0.0
230
1.0
 70
     8
 71
     3
 72
     8
 73
     4
 74
     0
 42
0.00000001
 43
0.00000001
 40
0.0
 40
0.0
 40
0.0
 40
0.0
 40
0.2
 40
0.2
 40
0.2
 40
0.2
 10
18.65643756301328
 20
8.755961612446658
 30
0.0
 10
18.65421709057233
 20
8.795544289612014
 30
0.0
 10
18.60595724805265
 20
8.825028541580517
 30
0.0
 10
18.54864228742273
 20
8.821808069139571
 30
0.0
  0
SPLINE
  5
2CD
330
1F
100
AcDbEntity
  8
0
  6
Continuous
 62
   179
370
    15
100
AcDbSpline
210
0.0
220
0.0
230
1.0
 70
     8
 71
     3
 72
     8
 73
     4
 74
     0
 42
0.00000001
 43
0.00000001
 40
0.2
 40
0.2
 40
0.2
 40
0.2
 40
0.4
 40
0.4
 40
0.4
 40
0.4
 10
18.54864228742273
 20
8.821808069139571
 30
0.0
 10
18.49133126380068
 20
8.8185915337065
 30
0.0
 10
18.44668165750147
 20
8.783890746304927
 30
0.0
 10
18.44890212994241
 20
8.744304132131699
 30
0.0
  0
SPLINE
  5
2CE
330
1F
100
AcDbEntity
  8
0
  6
Continuous
 62
   179
370
    15
100
AcDbSpline
210
0.0
220
0.0
230
1.0
 70
     8
 71
     3
 72
     8
 73
     4
 74
     0
 42
0.00000001
 43
0.00000001
 40
0.4
 40
0.4
 40
0.4
 40
0.4
 40
0.6
 40
0.6
 40
0.6
 40
0.6
 10
18.44890212994241
 20
8.744304132131699
 30
0.0
 10
18.45112260238336
 20
8.704725391974216
 30
0.0
 10
18.49938244490304
 20
8.67523720299784
 30
0.0
 10
18.55669740553297
 20
8.678457675438784
 30
0.0
  0
SPLINE
  5
2CF
330
1F
100
AcDbEntity
  8
0
  6
Continuous
 62
   179
370
    15
100
AcDbSpline
210
0.0
220
0.0
230
1.0
 70
     8
 71
     3
 72
     8
 73
     4
 74
     0
 42
0.00000001
 43
0.00000001
 40
0.6
 40
0.6
 40
0.6
 40
0.6
 40
1.0
 40
1.0
 40
1.0
 40
1.0
 10
18.55669740553297
 20
8.678457675438784
 30
0.0
 10
18.61400842915501
 20
8.68167814787973
 30
0.0
 10
18.65865803545422
 20
8.716378935281305
 30
0.0
 10
18.65643756301328
 20
8.755961612446658
 30
0.0
  0
SPLINE
  5
2D0
330
1F
100
AcDbEntity
  8
0
  6
Continuous
 62
   179
370
    15
100
AcDbSpline
210
0.0
220
0.0
230
1.0
 70
     8
 71
     3
 72
     8
 73
     4
 74
     0
 42
0.00000001
 43
0.00000001
 40
0.0
 40
0.0
 40
0.0
 40
0.0
 40
0.2
 40
0.2
 40
0.2
 40
0.2
 10
16.36958323230462
 20
8.526134840793116
 30
0.0
 10
16.4157682716747
 20
8.559953738430911
 30
0.0
 10
16.4992682716747
 20
8.524469486462406
 30
0.0
 10
16.55607929529674
 20
8.446878935281305
 30
0.0
  0
SPLINE
  5
2D1
330
1F
100
AcDbEntity
  8
0
  6
Continuous
 62
   179
370
    15
100
AcDbSpline
210
0.0
220
0.0
230
1.0
 70
     8
 71
     3
 72
     8
 73
     4
 74
     0
 42
0.00000001
 43
0.00000001
 40
0.2
 40
0.2
 40
0.2
 40
0.2
 40
0.4
 40
0.4
 40
0.4
 40
0.4
 10
16.55607929529674
 20
8.446878935281305
 30
0.0
 10
16.61289425592667
 20
8.369292321108077
 30
0.0
 10
16.62150842915501
 20
8.27897342347028
 30
0.0
 10
16.57532338978493
 20
8.24515846284036
 30
0.0
  0
SPLINE
  5
2D2
330
1F
100
AcDbEntity
  8
0
  6
Continuous
 62
   179
370
    15
100
AcDbSpline
210
0.0
220
0.0
230
1.0
 70
     8
 71
     3
 72
     8
 73
     4
 74
     0
 42
0.00000001
 43
0.00000001
 40
0.4
 40
0.4
 40
0.4
 40
0.4
 40
0.6
 40
0.6
 40
0.6
 40
0.6
 10
16.57532338978493
 20
8.24515846284036
 30
0.0
 10
16.52914228742273
 20
8.211343502210438
 30
0.0
 10
16.44564228742273
 20
8.246827754178941
 30
0.0
 10
16.38882732679281
 20
8.324414368352171
 30
0.0
  0
SPLINE
  5
2D3
330
1F
100
AcDbEntity
  8
0
  6
Continuous
 62
   179
370
    15
100
AcDbSpline
210
0.0
220
0.0
230
1.0
 70
     8
 71
     3
 72
     8
 73
     4
 74
     0
 42
0.00000001
 43
0.00000001
 40
0.6
 40
0.6
 40
0.6
 40
0.6
 40
1.0
 40
1.0
 40
1.0
 40
1.0
 10
16.38882732679281
 20
8.324414368352171
 30
0.0
 10
16.33201630317076
 20
8.402000982525399
 30
0.0
 10
16.32340212994241
 20
8.492319880163194
 30
0.0
 10
16.36958323230462
 20
8.526134840793116
 30
0.0
  0
SPLINE
  5
2D4
330
1F
100
AcDbEntity
  8
0
  6
Continuous
 62
   179
370
    15
100
AcDbSpline
210
0.0
220
0.0
230
1.0
 70
     8
 71
     3
 72
     8
 73
     4
 74
     0
 42
0.00000001
 43
0.00000001
 40
0.0
 40
0.0
 40
0.0
 40
0.0
 40
0.2
 40
0.2
 40
0.2
 40
0.2
 10
16.44620527954871
 20
8.711264762052958
 30
0.0
 10
16.46781945277706
 20
8.72731594315532
 30
0.0
 10
16.51294543702903
 20
8.703158462840358
 30
0.0
 10
16.54698480710777
 20
8.657312006147446
 30
0.0
  0
SPLINE
  5
2D5
330
1F
100
AcDbEntity
  8
0
  6
Continuous
 62
   179
370
    15
100
AcDbSpline
210
0.0
220
0.0
230
1.0
 70
     8
 71
     3
 72
     8
 73
     4
 74
     0
 42
0.00000001
 43
0.00000001
 40
0.2
 40
0.2
 40
0.2
 40
0.2
 40
0.4
 40
0.4
 40
0.4
 40
0.4
 10
16.54698480710777
 20
8.657312006147446
 30
0.0
 10
16.58102417718651
 20
8.611465549454532
 30
0.0
 10
16.59109504332824
 20
8.561284447092328
 30
0.0
 10
16.56948087009989
 20
8.545233265989966
 30
0.0
  0
SPLINE
  5
2D6
330
1F
100
AcDbEntity
  8
0
  6
Continuous
 62
   179
370
    15
100
AcDbSpline
210
0.0
220
0.0
230
1.0
 70
     8
 71
     3
 72
     8
 73
     4
 74
     0
 42
0.00000001
 43
0.00000001
 40
0.4
 40
0.4
 40
0.4
 40
0.4
 40
0.6
 40
0.6
 40
0.6
 40
0.6
 10
16.56948087009989
 20
8.545233265989966
 30
0.0
 10
16.54786275986367
 20
8.529186021895477
 30
0.0
 10
16.50274071261958
 20
8.553339565202563
 30
0.0
 10
16.46870134254084
 20
8.599186021895477
 30
0.0
  0
SPLINE
  5
2D7
330
1F
100
AcDbEntity
  8
0
  6
Continuous
 62
   179
370
    15
100
AcDbSpline
210
0.0
220
0.0
230
1.0
 70
     8
 71
     3
 72
     8
 73
     4
 74
     0
 42
0.00000001
 43
0.00000001
 40
0.6
 40
0.6
 40
0.6
 40
0.6
 40
1.0
 40
1.0
 40
1.0
 40
1.0
 10
16.46870134254084
 20
8.599186021895477
 30
0.0
 10
16.43465803545422
 20
8.645032478588393
 30
0.0
 10
16.42458716931249
 20
8.695213580950595
 30
0.0
 10
16.44620527954871
 20
8.711264762052958
 30
0.0
  0
SPLINE
  5
2D8
330
1F
100
AcDbEntity
  8
0
  6
Continuous
 62
   179
370
    15
100
AcDbSpline
210
0.0
220
0.0
230
1.0
 70
     8
 71
     3
 72
     8
 73
     4
 74
     0
 42
0.00000001
 43
0.00000001
 40
0.0
 40
0.0
 40
0.0
 40
0.0
 40
0.2
 40
0.2
 40
0.2
 40
0.2
 10
17.19171315356446
 20
8.370457675438784
 30
0.0
 10
17.15388244490304
 20
8.350630903785241
 30
0.0
 10
17.14426039765895
 20
8.290008856541148
 30
0.0
 10
17.17023283860383
 20
8.235052163627762
 30
0.0
  0
SPLINE
  5
2D9
330
1F
100
AcDbEntity
  8
0
  6
Continuous
 62
   179
370
    15
100
AcDbSpline
210
0.0
220
0.0
230
1.0
 70
     8
 71
     3
 72
     8
 73
     4
 74
     0
 42
0.00000001
 43
0.00000001
 40
0.2
 40
0.2
 40
0.2
 40
0.2
 40
0.4
 40
0.4
 40
0.4
 40
0.4
 10
17.17023283860383
 20
8.235052163627762
 30
0.0
 10
17.19620134254084
 20
8.180095470714376
 30
0.0
 10
17.24792575198966
 20
8.151626966777368
 30
0.0
 10
17.28575646065108
 20
8.17145373843091
 30
0.0
  0
SPLINE
  5
2DA
330
1F
100
AcDbEntity
  8
0
  6
Continuous
 62
   179
370
    15
100
AcDbSpline
210
0.0
220
0.0
230
1.0
 70
     8
 71
     3
 72
     8
 73
     4
 74
     0
 42
0.00000001
 43
0.00000001
 40
0.4
 40
0.4
 40
0.4
 40
0.4
 40
0.6
 40
0.6
 40
0.6
 40
0.6
 10
17.28575646065108
 20
8.17145373843091
 30
0.0
 10
17.32358716931249
 20
8.191280510084454
 30
0.0
 10
17.33320921655659
 20
8.251902557328547
 30
0.0
 10
17.30723677561171
 20
8.306859250241933
 30
0.0
  0
SPLINE
  5
2DB
330
1F
100
AcDbEntity
  8
0
  6
Continuous
 62
   179
370
    15
100
AcDbSpline
210
0.0
220
0.0
230
1.0
 70
     8
 71
     3
 72
     8
 73
     4
 74
     0
 42
0.00000001
 43
0.00000001
 40
0.6
 40
0.6
 40
0.6
 40
0.6
 40
1.0
 40
1.0
 40
1.0
 40
1.0
 10
17.30723677561171
 20
8.306859250241933
 30
0.0
 10
17.28126433466682
 20
8.36181594315532
 30
0.0
 10
17.22954386222588
 20
8.390284447092329
 30
0.0
 10
17.19171315356446
 20
8.370457675438784
 30
0.0
  0
SPLINE
  5
2DC
330
1F
100
AcDbEntity
  8
0
  6
Continuous
 62
   179
370
    15
100
AcDbSpline
210
0.0
220
0.0
230
1.0
 70
     8
 71
     3
 72
     8
 73
     4
 74
     0
 42
0.00000001
 43
0.00000001
 40
0.0
 40
0.0
 40
0.0
 40
0.0
 40
0.1666666666666667
 40
0.1666666666666667
 40
0.1666666666666667
 40
0.1666666666666667
 10
10.52438244490304
 20
12.85126082504508
 30
0.0
 10
10.00666984647785
 20
12.16043405339154
 30
0.0
 10
9.3648588228558
 20
11.20056791165926
 30
0.0
 10
10.56309504332824
 20
9.586221454966344
 30
0.0
  0
SPLINE
  5
2DD
330
1F
100
AcDbEntity
  8
0
  6
Continuous
 62
   179
370
    15
100
AcDbSpline
210
0.0
220
0.0
230
1.0
 70
     8
 71
     3
 72
     8
 73
     4
 74
     0
 42
0.00000001
 43
0.00000001
 40
0.1666666666666667
 40
0.1666666666666667
 40
0.1666666666666667
 40
0.1666666666666667
 40
0.3333333333333333
 40
0.3333333333333333
 40
0.3333333333333333
 40
0.3333333333333333
 10
10.56309504332824
 20
9.586221454966344
 30
0.0
 10
10.9486619724621
 20
9.066752951029335
 30
0.0
 10
9.855303704745564
 20
8.67085531323406
 30
0.0
 10
10.4596462244306
 20
7.777103344730123
 30
0.0
  0
SPLINE
  5
2DE
330
1F
100
AcDbEntity
  8
0
  6
Continuous
 62
   179
370
    15
100
AcDbSpline
210
0.0
220
0.0
230
1.0
 70
     8
 71
     3
 72
     8
 73
     4
 74
     0
 42
0.00000001
 43
0.00000001
 40
0.3333333333333333
 40
0.3333333333333333
 40
0.3333333333333333
 40
0.3333333333333333
 40
0.5
 40
0.5
 40
0.5
 40
0.5
 10
10.4596462244306
 20
7.777103344730123
 30
0.0
 10
10.70830764175344
 20
7.409359250241934
 30
0.0
 10
11.90005961025737
 20
7.363536415596265
 30
0.0
 10
12.56583520080856
 20
7.616528541580516
 30
0.0
  0
SPLINE
  5
2DF
330
1F
100
AcDbEntity
  8
0
  6
Continuous
 62
   179
370
    15
100
AcDbSpline
210
0.0
220
0.0
230
1.0
 70
     8
 71
     3
 72
     8
 73
     4
 74
     0
 42
0.00000001
 43
0.00000001
 40
0.5
 40
0.5
 40
0.5
 40
0.5
 40
0.6666666666666666
 40
0.6666666666666666
 40
0.6666666666666666
 40
0.6666666666666666
 10
12.56583520080856
 20
7.616528541580516
 30
0.0
 10
13.70445724805265
 20
8.049197832919099
 30
0.0
 10
12.72691394096604
 20
9.789733265989966
 30
0.0
 10
12.44152024017863
 20
10.48080019512382
 30
0.0
  0
SPLINE
  5
2E0
330
1F
100
AcDbEntity
  8
0
  6
Continuous
 62
   179
370
    15
100
AcDbSpline
210
0.0
220
0.0
230
1.0
 70
     8
 71
     3
 72
     8
 73
     4
 74
     0
 42
0.00000001
 43
0.00000001
 40
0.6666666666666666
 40
0.6666666666666666
 40
0.6666666666666666
 40
0.6666666666666666
 40
1.0
 40
1.0
 40
1.0
 40
1.0
 10
12.44152024017863
 20
10.48080019512382
 30
0.0
 10
12.10507929529674
 20
11.29550885654115
 30
0.0
 10
13.27990606695029
 20
11.24147736047815
 30
0.0
 10
13.79633126380068
 20
10.94771358095059
 30
0.0
  0
SPLINE
  5
2E1
330
1F
100
AcDbEntity
  8
0
  6
Continuous
 62
   179
370
    15
100
AcDbSpline
210
0.0
220
0.0
230
1.0
 70
     8
 71
     3
 72
     8
 73
     4
 74
     0
 42
0.00000001
 43
0.00000001
 40
0.0
 40
0.0
 40
0.0
 40
0.0
 40
0.3333333333333333
 40
0.3333333333333333
 40
0.3333333333333333
 40
0.3333333333333333
 10
13.79633126380068
 20
10.92447342347028
 30
0.0
 10
13.69132338978493
 20
10.91482381717107
 30
0.0
 10
13.42631157876131
 20
10.80664665181674
 30
0.0
 10
13.59678008269832
 20
10.5972883841002
 30
0.0
  0
SPLINE
  5
2E2
330
1F
100
AcDbEntity
  8
0
  6
Continuous
 62
   179
370
    15
100
AcDbSpline
210
0.0
220
0.0
230
1.0
 70
     8
 71
     3
 72
     8
 73
     4
 74
     0
 42
0.00000001
 43
0.00000001
 40
0.3333333333333333
 40
0.3333333333333333
 40
0.3333333333333333
 40
0.3333333333333333
 40
1.0
 40
1.0
 40
1.0
 40
1.0
 10
13.59678008269832
 20
10.5972883841002
 30
0.0
 10
13.67826039765895
 20
10.49722539197422
 30
0.0
 10
14.27329976773769
 20
10.30076476205296
 30
0.0
 10
13.89919346852509
 20
10.22895767543879
 30
0.0
  0
SPLINE
  5
2E3
330
1F
100
AcDbEntity
  8
0
  6
Continuous
 62
   179
370
    15
100
AcDbSpline
210
0.0
220
0.0
230
1.0
 70
     8
 71
     3
 72
     8
 73
     4
 74
     0
 42
0.00000001
 43
0.00000001
 40
0.0
 40
0.0
 40
0.0
 40
0.0
 40
0.3333333333333333
 40
0.3333333333333333
 40
0.3333333333333333
 40
0.3333333333333333
 10
13.79633126380068
 20
10.92028444709233
 30
0.0
 10
13.64876039765895
 20
10.82827263606871
 30
0.0
 10
13.46201236616289
 20
10.657575785675
 30
0.0
 10
14.27403598821013
 20
10.43187106126556
 30
0.0
  0
SPLINE
  5
2E4
330
1F
100
AcDbEntity
  8
0
  6
Continuous
 62
   179
370
    15
100
AcDbSpline
210
0.0
220
0.0
230
1.0
 70
     8
 71
     3
 72
     8
 73
     4
 74
     0
 42
0.00000001
 43
0.00000001
 40
0.3333333333333333
 40
0.3333333333333333
 40
0.3333333333333333
 40
0.3333333333333333
 40
1.0
 40
1.0
 40
1.0
 40
1.0
 10
14.27403598821013
 20
10.43187106126556
 30
0.0
 10
14.28442575198966
 20
10.4289852344939
 30
0.0
 10
15.14150449214714
 20
10.25264271480886
 30
0.0
 10
14.73190212994241
 20
10.08295767543878
 30
0.0
  0
SPLINE
  5
2E5
330
1F
100
AcDbEntity
  8
0
  6
Continuous
 62
   179
370
    15
100
AcDbSpline
210
0.0
220
0.0
230
1.0
 70
     8
 71
     3
 72
     8
 73
     4
 74
     0
 42
0.00000001
 43
0.00000001
 40
0.0
 40
0.0
 40
0.0
 40
0.0
 40
0.25
 40
0.25
 40
0.25
 40
0.25
 10
14.68097299608415
 20
11.43183169118682
 30
0.0
 10
14.69772102758021
 20
11.42829625811595
 30
0.0
 10
14.7838430748243
 20
11.441075785675
 30
0.0
 10
14.76737850789517
 20
10.96980806913957
 30
0.0
  0
SPLINE
  5
2E6
330
1F
100
AcDbEntity
  8
0
  6
Continuous
 62
   179
370
    15
100
AcDbSpline
210
0.0
220
0.0
230
1.0
 70
     8
 71
     3
 72
     8
 73
     4
 74
     0
 42
0.00000001
 43
0.00000001
 40
0.25
 40
0.25
 40
0.25
 40
0.25
 40
0.5
 40
0.5
 40
0.5
 40
0.5
 10
14.76737850789517
 20
10.96980806913957
 30
0.0
 10
14.75091394096603
 20
10.49853641559626
 30
0.0
 10
14.68854386222588
 20
10.30518602189548
 30
0.0
 10
14.42586669687155
 20
10.25783169118682
 30
0.0
  0
SPLINE
  5
2E7
330
1F
100
AcDbEntity
  8
0
  6
Continuous
 62
   179
370
    15
100
AcDbSpline
210
0.0
220
0.0
230
1.0
 70
     8
 71
     3
 72
     8
 73
     4
 74
     0
 42
0.00000001
 43
0.00000001
 40
0.5
 40
0.5
 40
0.5
 40
0.5
 40
1.0
 40
1.0
 40
1.0
 40
1.0
 10
14.42586669687155
 20
10.25783169118682
 30
0.0
 10
14.16318559450934
 20
10.21047736047815
 30
0.0
 10
13.93830370474556
 20
10.21609547071438
 30
0.0
 10
13.89919346852509
 20
10.22895767543879
 30
0.0
  0
SPLINE
  5
2E8
330
1F
100
AcDbEntity
  8
0
  6
Continuous
 62
   179
370
    15
100
AcDbSpline
210
0.0
220
0.0
230
1.0
 70
     8
 71
     2
 72
     6
 73
     3
 74
     0
 42
0.00000001
 43
0.00000001
 40
0.0
 40
0.0
 40
0.0
 40
0.25
 40
0.25
 40
0.25
 10
14.68097299608415
 20
11.44817027386398
 30
0.0
 10
14.80870527954871
 20
11.44450885654115
 30
0.0
 10
14.81881551576919
 20
11.17333169118682
 30
0.0
  0
SPLINE
  5
2E9
330
1F
100
AcDbEntity
  8
0
  6
Continuous
 62
   179
370
    15
100
AcDbSpline
210
0.0
220
0.0
230
1.0
 70
     8
 71
     3
 72
     8
 73
     4
 74
     0
 42
0.00000001
 43
0.00000001
 40
0.25
 40
0.25
 40
0.25
 40
0.25
 40
0.5
 40
0.5
 40
0.5
 40
0.5
 10
14.81881551576919
 20
11.17333169118682
 30
0.0
 10
14.82892181498178
 20
10.90215846284036
 30
0.0
 10
14.88330370474556
 20
10.58806397465138
 30
0.0
 10
14.94772496458808
 20
10.40346161244666
 30
0.0
  0
SPLINE
  5
2EA
330
1F
100
AcDbEntity
  8
0
  6
Continuous
 62
   179
370
    15
100
AcDbSpline
210
0.0
220
0.0
230
1.0
 70
     8
 71
     3
 72
     8
 73
     4
 74
     0
 42
0.00000001
 43
0.00000001
 40
0.5
 40
0.5
 40
0.5
 40
0.5
 40
1.0
 40
1.0
 40
1.0
 40
1.0
 10
14.94772496458808
 20
10.40346161244666
 30
0.0
 10
15.0121462244306
 20
10.21885925024193
 30
0.0
 10
15.06656748427312
 20
10.06987499827343
 30
0.0
 10
14.73190212994241
 20
10.0798789352813
 30
0.0
  0
SPLINE
  5
2EB
330
1F
100
AcDbEntity
  8
0
  6
Continuous
 62
   179
370
    15
100
AcDbSpline
210
0.0
220
0.0
230
1.0
 70
     8
 71
     3
 72
     8
 73
     4
 74
     0
 42
0.00000001
 43
0.00000001
 40
0.0
 40
0.0
 40
0.0
 40
0.0
 40
0.25
 40
0.25
 40
0.25
 40
0.25
 10
13.48362653939123
 20
10.22286318724981
 30
0.0
 10
13.34539425592667
 20
10.29465058882461
 30
0.0
 10
13.02525646065108
 20
10.33342224236792
 30
0.0
 10
13.14915803545423
 20
9.861441927407288
 30
0.0
  0
SPLINE
  5
2EC
330
1F
100
AcDbEntity
  8
0
  6
Continuous
 62
   179
370
    15
100
AcDbSpline
210
0.0
220
0.0
230
1.0
 70
     8
 71
     3
 72
     8
 73
     4
 74
     0
 42
0.00000001
 43
0.00000001
 40
0.25
 40
0.25
 40
0.25
 40
0.25
 40
0.5
 40
0.5
 40
0.5
 40
0.5
 10
13.14915803545423
 20
9.861441927407288
 30
0.0
 10
13.27306354726525
 20
9.389461612446658
 30
0.0
 10
13.65027614569044
 20
8.342485234493902
 30
0.0
 10
13.4733430748243
 20
7.749985234493902
 30
0.0
  0
SPLINE
  5
2ED
330
1F
100
AcDbEntity
  8
0
  6
Continuous
 62
   179
370
    15
100
AcDbSpline
210
0.0
220
0.0
230
1.0
 70
     8
 71
     3
 72
     8
 73
     4
 74
     0
 42
0.00000001
 43
0.00000001
 40
0.5
 40
0.5
 40
0.5
 40
0.5
 40
1.0
 40
1.0
 40
1.0
 40
1.0
 10
13.4733430748243
 20
7.749985234493902
 30
0.0
 10
13.29641000395816
 20
7.157485234493904
 30
0.0
 10
12.6527367756117
 20
7.251587596698627
 30
0.0
 10
12.44228795671407
 20
7.222323817171068
 30
0.0
  0
SPLINE
  5
2EE
330
1F
100
AcDbEntity
  8
0
  6
Continuous
 62
   179
370
    15
100
AcDbSpline
210
0.0
220
0.0
230
1.0
 70
     8
 71
     3
 72
     8
 73
     4
 74
     0
 42
0.00000001
 43
0.00000001
 40
0.0
 40
0.0
 40
0.0
 40
0.0
 40
0.3333333333333333
 40
0.3333333333333333
 40
0.3333333333333333
 40
0.3333333333333333
 10
14.31633520080855
 20
10.08295767543878
 30
0.0
 10
14.29141394096603
 20
10.12603641559626
 30
0.0
 10
13.98203205120226
 20
10.1558946833128
 30
0.0
 10
13.9868430748243
 20
9.970788384100203
 30
0.0
  0
SPLINE
  5
2EF
330
1F
100
AcDbEntity
  8
0
  6
Continuous
 62
   179
370
    15
100
AcDbSpline
210
0.0
220
0.0
230
1.0
 70
     8
 71
     3
 72
     8
 73
     4
 74
     0
 42
0.00000001
 43
0.00000001
 40
0.3333333333333333
 40
0.3333333333333333
 40
0.3333333333333333
 40
0.3333333333333333
 40
1.0
 40
1.0
 40
1.0
 40
1.0
 10
13.9868430748243
 20
9.970788384100203
 30
0.0
 10
14.00716984647785
 20
9.188441927407288
 30
0.0
 10
14.48295724805265
 20
7.107689958903351
 30
0.0
 10
12.44228795671407
 20
7.216493108509651
 30
0.0
  0
SPLINE
  5
2F0
330
1F
100
AcDbEntity
  8
0
  6
Continuous
 62
   179
370
    15
100
AcDbSpline
210
0.0
220
0.0
230
1.0
 70
     8
 71
     3
 72
     8
 73
     4
 74
     0
 42
0.00000001
 43
0.00000001
 40
0.0
 40
0.0
 40
0.0
 40
0.0
 40
0.3333333333333333
 40
0.3333333333333333
 40
0.3333333333333333
 40
0.3333333333333333
 10
13.48362653939123
 20
10.22286318724981
 30
0.0
 10
12.88151236616289
 20
10.28106397465138
 30
0.0
 10
13.71447693309202
 20
8.765977360478153
 30
0.0
 10
13.8478745708873
 20
8.365666336856107
 30
0.0
  0
SPLINE
  5
2F1
330
1F
100
AcDbEntity
  8
0
  6
Continuous
 62
   179
370
    15
100
AcDbSpline
210
0.0
220
0.0
230
1.0
 70
     8
 71
     3
 72
     8
 73
     4
 74
     0
 42
0.00000001
 43
0.00000001
 40
0.3333333333333333
 40
0.3333333333333333
 40
0.3333333333333333
 40
0.3333333333333333
 40
1.0
 40
1.0
 40
1.0
 40
1.0
 10
13.8478745708873
 20
8.365666336856107
 30
0.0
 10
13.98127614569045
 20
7.965371061265555
 30
0.0
 10
13.94538244490304
 20
7.250500982525399
 30
0.0
 10
14.8933745708873
 20
7.313666336856107
 30
0.0
  0
SPLINE
  5
2F2
330
1F
100
AcDbEntity
  8
0
  6
Continuous
 62
   179
370
    15
100
AcDbSpline
210
0.0
220
0.0
230
1.0
 70
     8
 71
     2
 72
     6
 73
     3
 74
     0
 42
0.00000001
 43
0.00000001
 40
0.0
 40
0.0
 40
0.0
 40
0.25
 40
0.25
 40
0.25
 10
14.31633520080855
 20
10.08295767543878
 30
0.0
 10
14.0966462244306
 20
10.16370964394272
 30
0.0
 10
14.09252417718651
 20
9.88392224236792
 30
0.0
  0
SPLINE
  5
2F3
330
1F
100
AcDbEntity
  8
0
  6
Continuous
 62
   179
370
    15
100
AcDbSpline
210
0.0
220
0.0
230
1.0
 70
     8
 71
     3
 72
     8
 73
     4
 74
     0
 42
0.00000001
 43
0.00000001
 40
0.25
 40
0.25
 40
0.25
 40
0.25
 40
0.5
 40
0.5
 40
0.5
 40
0.5
 10
14.09252417718651
 20
9.88392224236792
 30
0.0
 10
14.08840212994241
 20
9.604146651816738
 30
0.0
 10
14.20431945277706
 20
8.768327754178943
 30
0.0
 10
14.16652811419438
 20
8.352071848667132
 30
0.0
  0
SPLINE
  5
2F4
330
1F
100
AcDbEntity
  8
0
  6
Continuous
 62
   179
370
    15
100
AcDbSpline
210
0.0
220
0.0
230
1.0
 70
     8
 71
     3
 72
     8
 73
     4
 74
     0
 42
0.00000001
 43
0.00000001
 40
0.5
 40
0.5
 40
0.5
 40
0.5
 40
1.0
 40
1.0
 40
1.0
 40
1.0
 10
14.16652811419438
 20
8.352071848667132
 30
0.0
 10
14.12874071261958
 20
7.935812006147446
 30
0.0
 10
14.02302024017864
 20
7.3258946833128
 30
0.0
 10
14.89492968899753
 20
7.313843502210439
 30
0.0
  0
SPLINE
  5
2F5
330
1F
100
AcDbEntity
  8
0
  6
Continuous
 62
   179
370
    15
100
AcDbSpline
210
0.0
220
0.0
230
1.0
 70
     8
 71
     2
 72
     6
 73
     3
 74
     0
 42
0.00000001
 43
0.00000001
 40
0.0
 40
0.0
 40
0.0
 40
0.25
 40
0.25
 40
0.25
 10
14.68097299608415
 20
11.4634104313443
 30
0.0
 10
14.82427614569045
 20
11.50328051008445
 30
0.0
 10
14.85789819293454
 20
11.23916239984823
 30
0.0
  0
SPLINE
  5
2F6
330
1F
100
AcDbEntity
  8
0
  6
Continuous
 62
   179
370
    15
100
AcDbSpline
210
0.0
220
0.0
230
1.0
 70
     8
 71
     3
 72
     8
 73
     4
 74
     0
 42
0.00000001
 43
0.00000001
 40
0.25
 40
0.25
 40
0.25
 40
0.25
 40
0.5
 40
0.5
 40
0.5
 40
0.5
 10
14.85789819293454
 20
11.23916239984823
 30
0.0
 10
14.89151630317076
 20
10.97504428961201
 30
0.0
 10
15.11289031891879
 20
10.88518995890335
 30
0.0
 10
15.26490212994242
 20
10.89058365969075
 30
0.0
  0
SPLINE
  5
2F7
330
1F
100
AcDbEntity
  8
0
  6
Continuous
 62
   179
370
    15
100
AcDbSpline
210
0.0
220
0.0
230
1.0
 70
     8
 71
     3
 72
     8
 73
     4
 74
     0
 42
0.00000001
 43
0.00000001
 40
0.5
 40
0.5
 40
0.5
 40
0.5
 40
1.0
 40
1.0
 40
1.0
 40
1.0
 10
15.26490212994242
 20
10.89058365969075
 30
0.0
 10
15.41691394096603
 20
10.89597736047815
 30
0.0
 10
15.44978795671407
 20
11.00924901402146
 30
0.0
 10
15.60675646065107
 20
11.00232775417894
 30
0.0
  0
SPLINE
  5
2F8
330
1F
100
AcDbEntity
  8
0
  6
Continuous
 62
   179
370
    15
100
AcDbSpline
210
0.0
220
0.0
230
1.0
 70
     8
 71
     3
 72
     8
 73
     4
 74
     0
 42
0.00000001
 43
0.00000001
 40
0.0
 40
0.0
 40
0.0
 40
0.0
 40
0.3333333333333333
 40
0.3333333333333333
 40
0.3333333333333333
 40
0.3333333333333333
 10
14.68097299608415
 20
11.47369389591123
 30
0.0
 10
14.76026433466682
 20
11.48762302976949
 30
0.0
 10
14.89491787797391
 20
11.49839074630493
 30
0.0
 10
14.92372890159596
 20
11.37906397465138
 30
0.0
  0
SPLINE
  5
2F9
330
1F
100
AcDbEntity
  8
0
  6
Continuous
 62
   179
370
    15
100
AcDbSpline
210
0.0
220
0.0
230
1.0
 70
     8
 71
     3
 72
     8
 73
     4
 74
     0
 42
0.00000001
 43
0.00000001
 40
0.3333333333333333
 40
0.3333333333333333
 40
0.3333333333333333
 40
0.3333333333333333
 40
1.0
 40
1.0
 40
1.0
 40
1.0
 10
14.92372890159596
 20
11.37906397465138
 30
0.0
 10
14.95253598821013
 20
11.25973720299784
 30
0.0
 10
14.94180764175344
 20
11.11893405339154
 30
0.0
 10
15.06774071261958
 20
11.13465058882461
 30
0.0
  0
SPLINE
  5
2FA
330
1F
100
AcDbEntity
  8
0
  6
Continuous
 62
   179
370
    15
100
AcDbSpline
210
0.0
220
0.0
230
1.0
 70
     8
 71
     3
 72
     8
 73
     4
 74
     0
 42
0.00000001
 43
0.00000001
 40
0.0
 40
0.0
 40
0.0
 40
0.0
 40
1.0
 40
1.0
 40
1.0
 40
1.0
 10
15.48330764175344
 20
11.13630019512382
 30
0.0
 10
16.03606748427312
 20
11.17756003764351
 30
0.0
 10
16.44823283860383
 20
11.23452854158052
 30
0.0
 10
16.35149268112351
 20
10.5479104313443
 30
0.0
  0
SPLINE
  5
2FB
330
1F
100
AcDbEntity
  8
0
  6
Continuous
 62
   179
370
    15
100
AcDbSpline
210
0.0
220
0.0
230
1.0
 70
     8
 71
     3
 72
     8
 73
     4
 74
     0
 42
0.00000001
 43
0.00000001
 40
0.0
 40
0.0
 40
0.0
 40
0.0
 40
1.0
 40
1.0
 40
1.0
 40
1.0
 10
16.02232338978493
 20
10.99639862032067
 30
0.0
 10
16.32946118506052
 20
11.01824901402146
 30
0.0
 10
16.3242525236432
 20
10.79040255732855
 30
0.0
 10
16.32269740553296
 20
10.5479104313443
 30
0.0
  0
SPLINE
  5
2FC
330
1F
100
AcDbEntity
  8
0
  6
Continuous
 62
   179
370
    15
100
AcDbSpline
210
0.0
220
0.0
230
1.0
 70
     8
 71
     2
 72
     6
 73
     3
 74
     0
 42
0.00000001
 43
0.00000001
 40
0.0
 40
0.0
 40
0.0
 40
1.0
 40
1.0
 40
1.0
 10
10.59929583072982
 20
7.220339565202565
 30
0.0
 10
10.34744150002116
 20
7.18583562819469
 30
0.0
 10
10.29708716931249
 20
7.162264762052957
 30
0.0
  0
SPLINE
  5
2FD
330
1F
100
AcDbEntity
  8
0
  6
Continuous
 62
   179
370
    15
100
AcDbSpline
210
0.0
220
0.0
230
1.0
 70
     8
 71
     2
 72
     6
 73
     3
 74
     0
 42
0.00000001
 43
0.00000001
 40
0.0
 40
0.0
 40
0.0
 40
1.0
 40
1.0
 40
1.0
 10
10.59929583072982
 20
7.220339565202565
 30
0.0
 10
10.35585094884005
 20
7.255406494336422
 30
0.0
 10
10.2915556732495
 20
7.242548226619888
 30
0.0
  0
SPLINE
  5
2FE
330
1F
100
AcDbEntity
  8
0
  6
Continuous
 62
   179
370
    15
100
AcDbSpline
210
0.0
220
0.0
230
1.0
 70
     8
 71
     2
 72
     6
 73
     3
 74
     0
 42
0.00000001
 43
0.00000001
 40
0.0
 40
0.0
 40
0.0
 40
1.0
 40
1.0
 40
1.0
 10
18.83292181498178
 20
7.311859250241934
 30
0.0
 10
19.05739425592666
 20
7.344205706934847
 30
0.0
 10
19.14739819293454
 20
7.328130903785242
 30
0.0
  0
SPLINE
  5
2FF
330
1F
100
AcDbEntity
  8
0
  6
Continuous
 62
   179
370
    15
100
AcDbSpline
210
0.0
220
0.0
230
1.0
 70
     8
 71
     2
 72
     6
 73
     3
 74
     0
 42
0.00000001
 43
0.00000001
 40
0.0
 40
0.0
 40
0.0
 40
1.0
 40
1.0
 40
1.0
 10
18.83292181498178
 20
7.311859250241934
 30
0.0
 10
18.96578795671407
 20
7.268859250241935
 30
0.0
 10
19.14473283860383
 20
7.249575785675005
 30
0.0
  0
ELLIPSE
  5
300
330
1F
100
AcDbEntity
  8
0
  6
Continuous
 62
   179
370
    15
100
AcDbEllipse
 10
12.0507525236
 20
8.5343868093
 30
0.0
 11
0.0
 21
0.1307204724409452
 31
0.0
210
0.0
220
0.0
230
1.0
 40
0.8107701111
 41
0.0
 42
6.283185307179586
  0
ELLIPSE
  5
301
330
1F
100
AcDbEntity
  8
0
  6
Continuous
 62
   179
370
    15
100
AcDbEllipse
 10
12.3088903189
 20
8.5868907463
 30
0.0
 11
0.0
 21
0.1596574803149622
 31
0.0
210
0.0
220
0.0
230
1.0
 40
0.8456094494
 41
0.0
 42
6.283185307179586
  0
ELLIPSE
  5
302
330
1F
100
AcDbEntity
  8
0
  6
Continuous
 62
   179
370
    15
100
AcDbEllipse
 10
12.9242643347
 20
8.542717518
 30
0.0
 11
0.0
 21
0.1091181102362206
 31
0.0
210
0.0
220
0.0
230
1.0
 40
0.8146197142
 41
0.0
 42
6.283185307179586
  0
ELLIPSE
  5
303
330
1F
100
AcDbEntity
  8
0
  6
Continuous
 62
   179
370
    15
100
AcDbEllipse
 10
13.6651580355
 20
8.3413198802
 30
0.0
 11
0.0
 21
0.136948818897638
 31
0.0
210
0.0
220
0.0
230
1.0
 40
0.7141871496
 41
0.0
 42
6.283185307179586
  0
ELLIPSE
  5
304
330
1F
100
AcDbEntity
  8
0
  6
Continuous
 62
   179
370
    15
100
AcDbEllipse
 10
16.7941226024
 20
8.5501938959
 30
0.0
 11
0.0
 21
0.1369448818897645
 31
0.0
210
0.0
220
0.0
230
1.0
 40
0.6781853726
 41
0.0
 42
6.283185307179586
  0
ELLIPSE
  5
305
330
1F
100
AcDbEntity
  8
0
  6
Continuous
 62
   179
370
    15
100
AcDbEllipse
 10
14.6197525236
 20
8.5188868093
 30
0.0
 11
0.0
 21
0.1484055118110241
 31
0.0
210
0.0
220
0.0
230
1.0
 40
0.6750497413
 41
0.0
 42
6.283185307179586
  0
ELLIPSE
  5
306
330
1F
100
AcDbEntity
  8
0
  6
Continuous
 62
   179
370
    15
100
AcDbEllipse
 10
17.600949374
 20
8.6560009825
 30
0.0
 11
0.0
 21
0.1484055118110241
 31
0.0
210
0.0
220
0.0
230
1.0
 40
0.641013397
 41
0.0
 42
6.283185307179586
  0
ELLIPSE
  5
307
330
1F
100
AcDbEntity
  8
0
  6
Continuous
 62
   179
370
    15
100
AcDbEllipse
 10
15.3757603977
 20
8.585756888
 30
0.0
 11
0.0
 21
0.1328661417322845
 31
0.0
210
0.0
220
0.0
230
1.0
 40
0.7741495792
 41
0.0
 42
6.283185307179586
  0
ELLIPSE
  5
308
330
1F
100
AcDbEntity
  8
0
  6
Continuous
 62
   179
370
    15
100
AcDbEllipse
 10
18.251425752
 20
8.6359498014
 30
0.0
 11
0.0
 21
0.1328622047244092
 31
0.0
210
0.0
220
0.0
230
1.0
 40
0.7351468279
 41
0.0
 42
6.283185307179586
  0
ELLIPSE
  5
309
330
1F
100
AcDbEntity
  8
0
  6
Continuous
 62
   179
370
    15
100
AcDbEllipse
 10
16.1072670857
 20
8.6084378287
 30
0.0
 11
0.0
 21
0.13448031496063
 31
0.0
210
0.0
220
0.0
230
1.0
 40
0.7808419697
 41
0.0
 42
6.283185307179586
  0
ELLIPSE
  5
30A
330
1F
100
AcDbEntity
  8
0
  6
Continuous
 62
   179
370
    15
100
AcDbEllipse
 10
17.0485950433
 20
8.6371427148
 30
0.0
 11
0.0
 21
0.153228346456693
 31
0.0
210
0.0
220
0.0
230
1.0
 40
0.8740750257
 41
0.0
 42
6.283185307179586
  0
HATCH
  5
30B
330
1F
100
AcDbEntity
  8
0
  6
Continuous
 62
     7
100
AcDbHatch
 10
0.0
 20
0.0
 30
0.0
210
0.0
220
0.0
230
1.0
  2
SOLID
 70
     1
 71
     0
 91
        1
 92
        0
 93
        3
 72
     1
 10
17.35160291734399
 20
12.01817247519231
 11
17.44926433466682
 21
12.01817247519231
 72
     1
 10
17.44926433466682
 20
12.01817247519231
 11
17.40304386222588
 21
12.20197736047816
 72
     1
 10
17.40304386222588
 20
12.20197736047816
 11
17.35160291734399
 21
12.01817247519231
 97
        0
 75
     0
 76
     1
 98
        1
 10
0.0
 20
0.0
  0
HATCH
  5
30C
330
1F
100
AcDbEntity
  8
0
  6
Continuous
 62
     7
100
AcDbHatch
 10
0.0
 20
0.0
 30
0.0
210
0.0
220
0.0
230
1.0
  2
SOLID
 70
     1
 71
     0
 91
        1
 92
        0
 93
        3
 72
     1
 10
17.44926433466682
 20
11.13630019512382
 11
17.35160291734399
 21
11.13630019512382
 72
     1
 10
17.35160291734399
 20
11.13630019512382
 11
17.40304583072982
 21
10.98817421087185
 72
     1
 10
17.40304583072982
 20
10.98817421087185
 11
17.44926433466682
 21
11.13630019512382
 97
        0
 75
     0
 76
     1
 98
        1
 10
0.0
 20
0.0
  0
POINT
  5
30D
330
1F
100
AcDbEntity
  8
0
  6
Continuous
 62
     7
370
     0
100
AcDbPoint
 10
9.9476314064
 20
11.7943429196
 30
0.0
  0
INSERT
  5
318
102
{ACAD_REACTORS
330
31A
102
}
330
1F
100
AcDbEntity
  8
0
  6
Continuous
 62
     7
370
     0
100
AcDbBlockReference
  2
SW_NOTE_2
 10
20.3896938652
 20
13.5429091026
 30
0.0
  0
LEADER
  5
31A
330
1F
100
AcDbEntity
  8
0
  6
Continuous
 62
     7
370
     0
100
AcDbLeader
  3
SLDDIMSTYLE0
 73
     2
 76
     3
 10
19.7987324121
 20
12.7786241053
 30
0.0
 10
20.2396938652
 20
13.5429091026
 30
0.0
 10
20.3896938652
 20
13.5429091026
 30
0.0
340
318
  0
INSERT
  5
325
102
{ACAD_REACTORS
330
326
102
}
330
1F
100
AcDbEntity
  8
0
  6
Continuous
 62
     7
370
     0
100
AcDbBlockReference
  2
SW_NOTE_3
 10
19.4489309946
 20
11.7377764558
 30
0.0
  0
LEADER
  5
326
330
1F
100
AcDbEntity
  8
0
  6
Continuous
 62
     7
370
     0
100
AcDbLeader
  3
SLDDIMSTYLE0
 73
     2
 76
     3
 10
17.1565902829
 20
10.1271770023
 30
0.0
 10
19.2989309946
 20
11.7377764558
 30
0.0
 10
19.4489309946
 20
11.7377764558
 30
0.0
340
325
  0
INSERT
  5
331
102
{ACAD_REACTORS
330
332
102
}
330
1F
100
AcDbEntity
  8
0
  6
Continuous
 62
     7
370
     0
100
AcDbBlockReference
  2
SW_NOTE_4
 10
20.3896938652
 20
10.7427510808
 30
0.0
  0
LEADER
  5
332
330
1F
100
AcDbEntity
  8
0
  6
Continuous
 62
     7
370
     0
100
AcDbLeader
  3
SLDDIMSTYLE0
 73
     2
 76
     3
 10
18.7513709402
 20
10.3052992967
 30
0.0
 10
20.2396938652
 20
10.7427510808
 30
0.0
 10
20.3896938652
 20
10.7427510808
 30
0.0
340
331
  0
INSERT
  5
33D
102
{ACAD_REACTORS
330
33E
102
}
330
1F
100
AcDbEntity
  8
0
  6
Continuous
 62
     7
370
     0
100
AcDbBlockReference
  2
SW_NOTE_5
 10
20.3573491567
 20
8.3752035353
 30
0.0
  0
LEADER
  5
33E
330
1F
100
AcDbEntity
  8
0
  6
Continuous
 62
     7
370
     0
100
AcDbLeader
  3
SLDDIMSTYLE0
 73
     2
 76
     3
 10
19.3885179775
 20
9.0831230298
 30
0.0
 10
20.2073491567
 20
8.3752035353
 30
0.0
 10
20.3573491567
 20
8.3752035353
 30
0.0
340
33D
  0
INSERT
  5
349
102
{ACAD_REACTORS
330
34A
102
}
330
1F
100
AcDbEntity
  8
0
  6
Continuous
 62
     7
370
     0
100
AcDbBlockReference
  2
SW_NOTE_6
 10
20.3896938652
 20
6.5822001542
 30
0.0
  0
LEADER
  5
34A
330
1F
100
AcDbEntity
  8
0
  6
Continuous
 62
     7
370
     0
100
AcDbLeader
  3
SLDDIMSTYLE0
 73
     2
 76
     3
 10
19.3136829608
 20
7.7911387778
 30
0.0
 10
20.2396938652
 20
6.5822001542
 30
0.0
 10
20.3896938652
 20
6.5822001542
 30
0.0
340
349
  0
INSERT
  5
355
102
{ACAD_REACTORS
330
356
102
}
330
1F
100
AcDbEntity
  8
0
  6
Continuous
 62
     7
370
     0
100
AcDbBlockReference
  2
SW_NOTE_7
 10
19.1454865581
 20
6.5822001542
 30
0.0
  0
LEADER
  5
356
330
1F
100
AcDbEntity
  8
0
  6
Continuous
 62
     7
370
     0
100
AcDbLeader
  3
SLDDIMSTYLE0
 73
     2
 76
     3
 10
17.2857564607
 20
8.1714537384
 30
0.0
 10
18.9954865581
 20
6.5822001542
 30
0.0
 10
19.1454865581
 20
6.5822001542
 30
0.0
340
355
  0
INSERT
  5
361
102
{ACAD_REACTORS
330
362
102
}
330
1F
100
AcDbEntity
  8
0
  6
Continuous
 62
     7
370
     0
100
AcDbBlockReference
  2
SW_NOTE_8
 10
17.1358587476
 20
6.5822001542
 30
0.0
  0
LEADER
  5
362
330
1F
100
AcDbEntity
  8
0
  6
Continuous
 62
     7
370
     0
100
AcDbLeader
  3
SLDDIMSTYLE0
 73
     2
 76
     3
 10
14.9921048478
 20
10.2542644618
 30
0.0
 10
16.9858587476
 20
6.5822001542
 30
0.0
 10
17.1358587476
 20
6.5822001542
 30
0.0
340
361
  0
INSERT
  5
36D
102
{ACAD_REACTORS
330
36E
102
}
330
1F
100
AcDbEntity
  8
0
  6
Continuous
 62
     7
370
     0
100
AcDbBlockReference
  2
SW_NOTE_9
 10
14.0818404763
 20
6.5819873601
 30
0.0
  0
LEADER
  5
36E
330
1F
100
AcDbEntity
  8
0
  6
Continuous
 62
     7
370
     0
100
AcDbLeader
  3
SLDDIMSTYLE0
 73
     2
 76
     3
 10
15.3765406285
 20
7.276229329
 30
0.0
 10
14.2318404763
 20
6.5819873601
 30
0.0
 10
14.0818404763
 20
6.5819873601
 30
0.0
340
36D
  0
INSERT
  5
379
102
{ACAD_REACTORS
330
37A
102
}
330
1F
100
AcDbEntity
  8
0
  6
Continuous
 62
     7
370
     0
100
AcDbBlockReference
  2
SW_NOTE_10
 10
13.4981430106
 20
6.5822001542
 30
0.0
  0
LEADER
  5
37A
330
1F
100
AcDbEntity
  8
0
  6
Continuous
 62
     7
370
     0
100
AcDbLeader
  3
SLDDIMSTYLE0
 73
     2
 76
     3
 10
11.9633053452
 20
7.1808631872
 30
0.0
 10
13.3481430106
 20
6.5822001542
 30
0.0
 10
13.4981430106
 20
6.5822001542
 30
0.0
340
379
  0
INSERT
  5
380
330
1F
100
AcDbEntity
  8
0
  6
Continuous
 62
     7
370
     0
100
AcDbBlockReference
  2
SW_NOTE_11
 10
16.8521191648
 20
11.585162663
 30
0.0
  0
INSERT
  5
38B
102
{ACAD_REACTORS
330
38C
102
}
330
1F
100
AcDbEntity
  8
0
  6
Continuous
 62
     7
370
     0
100
AcDbBlockReference
  2
SW_NOTE_12
 10
17.412859822
 20
13.4655447732
 30
0.0
  0
LEADER
  5
38C
330
1F
100
AcDbEntity
  8
0
  6
Continuous
 62
     7
370
     0
100
AcDbLeader
  3
SLDDIMSTYLE0
 73
     2
 76
     3
 10
16.0454047357
 20
11.1464808482
 30
0.0
 10
17.262859822
 20
13.4655447732
 30
0.0
 10
17.412859822
 20
13.4655447732
 30
0.0
340
38B
  0
INSERT
  5
397
102
{ACAD_REACTORS
330
398
102
}
330
1F
100
AcDbEntity
  8
0
  6
Continuous
 62
     7
370
     0
100
AcDbBlockReference
  2
SW_NOTE_13
 10
16.8825768377
 20
14.0462599674
 30
0.0
  0
LEADER
  5
398
330
1F
100
AcDbEntity
  8
0
  6
Continuous
 62
     7
370
     0
100
AcDbLeader
  3
SLDDIMSTYLE0
 73
     2
 76
     3
 10
15.1911777205
 20
11.1651112187
 30
0.0
 10
16.7325768377
 20
14.0462599674
 30
0.0
 10
16.8825768377
 20
14.0462599674
 30
0.0
340
397
  0
INSERT
  5
3A3
102
{ACAD_REACTORS
330
3A4
102
}
330
1F
100
AcDbEntity
  8
0
  6
Continuous
 62
     7
370
     0
100
AcDbBlockReference
  2
SW_NOTE_14
 10
15.534951581
 20
13.4655447732
 30
0.0
  0
LEADER
  5
3A4
330
1F
100
AcDbEntity
  8
0
  6
Continuous
 62
     7
370
     0
100
AcDbLeader
  3
SLDDIMSTYLE0
 73
     2
 76
     3
 10
14.930716638
 20
11.3462318365
 30
0.0
 10
15.384951581
 20
13.4655447732
 30
0.0
 10
15.534951581
 20
13.4655447732
 30
0.0
340
3A3
  0
INSERT
  5
3AF
102
{ACAD_REACTORS
330
3B0
102
}
330
1F
100
AcDbEntity
  8
0
  6
Continuous
 62
     7
370
     0
100
AcDbBlockReference
  2
SW_NOTE_15
 10
13.532193236
 20
13.4722614498
 30
0.0
  0
LEADER
  5
3B0
330
1F
100
AcDbEntity
  8
0
  6
Continuous
 62
     7
370
     0
100
AcDbLeader
  3
SLDDIMSTYLE0
 73
     2
 76
     3
 10
14.225757598
 20
11.6958907463
 30
0.0
 10
13.682193236
 20
13.4722614498
 30
0.0
 10
13.532193236
 20
13.4722614498
 30
0.0
340
3AF
  0
INSERT
  5
3BB
102
{ACAD_REACTORS
330
3BC
102
}
330
1F
100
AcDbEntity
  8
0
  6
Continuous
 62
     7
370
     0
100
AcDbBlockReference
  2
SW_NOTE_16
 10
11.7079091171
 20
11.6677671854
 30
0.0
  0
LEADER
  5
3BC
330
1F
100
AcDbEntity
  8
0
  6
Continuous
 62
     7
370
     0
100
AcDbLeader
  3
SLDDIMSTYLE0
 73
     2
 76
     3
 10
13.7963352008
 20
11.152756888
 30
0.0
 10
11.8579091171
 20
11.6677671854
 30
0.0
 10
11.7079091171
 20
11.6677671854
 30
0.0
340
3BB
  0
INSERT
  5
3C7
102
{ACAD_REACTORS
330
3C8
102
}
330
1F
100
AcDbEntity
  8
0
  6
Continuous
 62
     7
370
     0
100
AcDbBlockReference
  2
SW_NOTE_17
 10
9.8408533668
 20
9.4583256822
 30
0.0
  0
LEADER
  5
3C8
330
1F
100
AcDbEntity
  8
0
  6
Continuous
 62
     7
370
     0
100
AcDbLeader
  3
SLDDIMSTYLE0
 73
     2
 76
     3
 10
12.4172924057
 20
10.5456198021
 30
0.0
 10
9.9908533668
 20
9.4583256822
 30
0.0
 10
9.8408533668
 20
9.4583256822
 30
0.0
340
3C7
  0
INSERT
  5
3D3
102
{ACAD_REACTORS
330
3D4
102
}
330
1F
100
AcDbEntity
  8
0
  6
Continuous
 62
     7
370
     0
100
AcDbBlockReference
  2
SW_NOTE_18
 10
9.5484742356
 20
13.5812120469
 30
0.0
  0
LEADER
  5
3D4
330
1F
100
AcDbEntity
  8
0
  6
Continuous
 62
     7
370
     0
100
AcDbLeader
  3
SLDDIMSTYLE0
 73
     2
 76
     3
 10
10.5243824449
 20
13.2253367465
 30
0.0
 10
9.6984742356
 20
13.5812120469
 30
0.0
 10
9.5484742356
 20
13.5812120469
 30
0.0
340
3D3
  0
INSERT
  5
3DF
102
{ACAD_REACTORS
330
3E0
102
}
330
1F
100
AcDbEntity
  8
0
  6
Continuous
 62
     7
370
     0
100
AcDbBlockReference
  2
SW_NOTE_19
 10
9.1622528807
 20
12.3563690061
 30
0.0
  0
LEADER
  5
3E0
330
1F
100
AcDbEntity
  8
0
  6
Continuous
 62
     7
370
     0
100
AcDbLeader
  3
SLDDIMSTYLE0
 73
     2
 76
     3
 10
9.9476314064
 20
11.7943429196
 30
0.0
 10
9.3122528807
 20
12.3563690061
 30
0.0
 10
9.1622528807
 20
12.3563690061
 30
0.0
340
3DF
  0
INSERT
  5
3E1
330
1F
100
AcDbEntity
  8
0
  6
Continuous
 62
     7
100
AcDbBlockReference
  2
hexagon
 10
0.9938089456
 20
2.4084107147
 30
0.0
 41
3.2
 42
3.2
 43
3.2
  0
INSERT
  5
3E2
330
1F
100
AcDbEntity
  8
0
  6
Continuous
 62
     7
100
AcDbBlockReference
  2
hexagon
 10
1.0186204422
 20
3.1676425105
 30
0.0
 41
3.2
 42
3.2
 43
3.2
  0
INSERT
  5
3E3
330
1F
100
AcDbEntity
  8
0
  6
Continuous
 62
     7
100
AcDbBlockReference
  2
hexagon
 10
1.0136581429
 20
3.921912007
 30
0.0
 41
3.2
 42
3.2
 43
3.2
  0
INSERT
  5
3E4
330
1F
100
AcDbEntity
  8
0
  6
Continuous
 62
     7
100
AcDbBlockReference
  2
hexagon
 10
1.0186204422
 20
4.4181419389
 30
0.0
 41
3.2
 42
3.2
 43
3.2
  0
INSERT
  5
3E5
330
1F
100
AcDbEntity
  8
0
  6
Continuous
 62
     7
100
AcDbBlockReference
  2
hexagon
 10
1.0259161224
 20
5.4194587244
 30
0.0
 41
3.2
 42
3.2
 43
3.2
  0
INSERT
  5
3E6
330
1F
100
AcDbEntity
  8
0
  6
Continuous
 62
     7
100
AcDbBlockReference
  2
hexagon
 10
1.0048838657
 20
5.9163457887
 30
0.0
 41
3.2
 42
3.2
 43
3.2
  0
INSERT
  5
3E7
330
1F
100
AcDbEntity
  8
0
  6
Continuous
 62
     7
100
AcDbBlockReference
  2
hexagon
 10
1.0081234178
 20
6.4118882621
 30
0.0
 41
3.2
 42
3.2
 43
3.2
  0
INSERT
  5
3E8
330
1F
100
AcDbEntity
  8
0
  6
Continuous
 62
     7
100
AcDbBlockReference
  2
hexagon
 10
1.0027780882
 20
6.9250399107
 30
0.0
 41
3.2
 42
3.2
 43
3.2
  0
INSERT
  5
3E9
330
1F
100
AcDbEntity
  8
0
  6
Continuous
 62
     7
100
AcDbBlockReference
  2
hexagon
 10
1.0081234178
 20
7.4007742516
 30
0.0
 41
3.2
 42
3.2
 43
3.2
  0
INSERT
  5
3EA
330
1F
100
AcDbEntity
  8
0
  6
Continuous
 62
     7
100
AcDbBlockReference
  2
hexagon
 10
0.9974327585
 20
7.9299618893
 30
0.0
 41
3.2
 42
3.2
 43
3.2
  0
INSERT
  5
3EB
330
1F
100
AcDbEntity
  8
0
  6
Continuous
 62
     7
100
AcDbBlockReference
  2
hexagon
 10
1.0134687475
 20
8.4163868895
 30
0.0
 41
3.2
 42
3.2
 43
3.2
  0
INSERT
  5
3EC
330
1F
100
AcDbEntity
  8
0
  6
Continuous
 62
     7
100
AcDbBlockReference
  2
hexagon
 10
0.9439794618
 20
8.9135025491
 30
0.0
 41
3.2
 42
3.2
 43
3.2
  0
INSERT
  5
3ED
330
1F
100
AcDbEntity
  8
0
  6
Continuous
 62
     7
100
AcDbBlockReference
  2
hexagon
 10
0.9375070788
 20
9.6615949668
 30
0.0
 41
3.2
 42
3.2
 43
3.2
  0
INSERT
  5
3EE
330
1F
100
AcDbEntity
  8
0
  6
Continuous
 62
     7
100
AcDbBlockReference
  2
hexagon
 10
0.9302891842
 20
10.1740654806
 30
0.0
 41
3.2
 42
3.2
 43
3.2
  0
INSERT
  5
3EF
330
1F
100
AcDbEntity
  8
0
  6
Continuous
 62
     7
100
AcDbBlockReference
  2
hexagon
 10
0.9302891842
 20
11.1484812463
 30
0.0
 41
3.2
 42
3.2
 43
3.2
  0
INSERT
  5
3F0
330
1F
100
AcDbEntity
  8
0
  6
Continuous
 62
     7
100
AcDbBlockReference
  2
hexagon
 10
0.9230712896
 20
11.6537338656
 30
0.0
 41
3.2
 42
3.2
 43
3.2
  0
INSERT
  5
42C
330
1F
100
AcDbEntity
  8
0
  6
Continuous
 62
     7
370
     0
100
AcDbBlockReference
  2
SW_NOTE_20
 10
1.0868897617
 20
15.7216725867
 30
0.0
  0
ENDSEC
  0
SECTION
  2
OBJECTS
  0
DICTIONARY
  5
C
330
0
100
AcDbDictionary
281
     1
  3
ACAD_GROUP
350
D
  3
ACAD_LAYOUT
350
1A
  3
ACAD_MLINESTYLE
350
17
  3
ACAD_PLOTSETTINGS
350
19
  3
ACAD_PLOTSTYLENAME
350
E
  0
DICTIONARY
  5
D
102
{ACAD_REACTORS
330
C
102
}
330
C
100
AcDbDictionary
281
     1
  0
DICTIONARY
  5
1A
102
{ACAD_REACTORS
330
C
102
}
330
C
100
AcDbDictionary
281
     1
  3
Layout1
350
1E
  3
Layout2
350
26
  3
Model
350
22
  0
DICTIONARY
  5
17
102
{ACAD_REACTORS
330
C
102
}
330
C
100
AcDbDictionary
281
     1
  3
Standard
350
18
  0
DICTIONARY
  5
19
102
{ACAD_REACTORS
330
C
102
}
330
C
100
AcDbDictionary
281
     1
  0
ACDBDICTIONARYWDFLT
  5
E
102
{ACAD_REACTORS
330
C
102
}
330
C
100
AcDbDictionary
281
     1
  3
Normal
350
F
100
AcDbDictionaryWithDefault
340
F
  0
LAYOUT
  5
1E
102
{ACAD_REACTORS
330
1A
102
}
330
1A
100
AcDbPlotSettings
  1

  2
none_device
  4

  6

 40
0.0
 41
0.0
 42
0.0
 43
0.0
 44
0.0
 45
0.0
 46
0.0
 47
0.0
 48
0.0
 49
0.0
140
0.0
141
0.0
142
1.0
143
1.0
 70
   688
 72
     0
 73
     0
 74
     5
  7

 75
    16
147
1.0
148
0.0
149
0.0
100
AcDbLayout
  1
Layout1
 70
     1
 71
     1
 10
0.0
 20
0.0
 11
12.0
 21
9.0
 12
0.0
 22
0.0
 32
0.0
 14
1.0000000000E+20
 24
1.0000000000E+20
 34
1.0000000000E+20
 15
-1.0000000000E+20
 25
-1.0000000000E+20
 35
-1.0000000000E+20
146
0.0
 13
0.0
 23
0.0
 33
0.0
 16
1.0
 26
0.0
 36
0.0
 17
0.0
 27
1.0
 37
0.0
 76
     0
330
1B
  0
LAYOUT
  5
26
102
{ACAD_REACTORS
330
1A
102
}
330
1A
100
AcDbPlotSettings
  1

  2
none_device
  4

  6

 40
0.0
 41
0.0
 42
0.0
 43
0.0
 44
0.0
 45
0.0
 46
0.0
 47
0.0
 48
0.0
 49
0.0
140
0.0
141
0.0
142
1.0
143
1.0
 70
   688
 72
     0
 73
     0
 74
     5
  7

 75
    16
147
1.0
148
0.0
149
0.0
100
AcDbLayout
  1
Layout2
 70
     1
 71
     2
 10
0.0
 20
0.0
 11
0.0
 21
0.0
 12
0.0
 22
0.0
 32
0.0
 14
0.0
 24
0.0
 34
0.0
 15
0.0
 25
0.0
 35
0.0
146
0.0
 13
0.0
 23
0.0
 33
0.0
 16
1.0
 26
0.0
 36
0.0
 17
0.0
 27
1.0
 37
0.0
 76
     0
330
23
  0
LAYOUT
  5
22
102
{ACAD_REACTORS
330
1A
102
}
330
1A
100
AcDbPlotSettings
  1

  2
none_device
  4

  6

 40
0.0
 41
0.0
 42
0.0
 43
0.0
 44
0.0
 45
0.0
 46
0.0
 47
0.0
 48
0.0
 49
0.0
140
0.0
141
0.0
142
1.0
143
1.0
 70
  1712
 72
     0
 73
     0
 74
     0
  7

 75
     0
147
1.0
148
0.0
149
0.0
100
AcDbLayout
  1
Model
 70
     1
 71
     0
 10
0.0
 20
0.0
 11
22.0
 21
17.0
 12
0.0
 22
0.0
 32
0.0
 14
0.0
 24
0.0
 34
0.0
 15
22.0
 25
17.0
 35
0.0
146
0.0
 13
0.0
 23
0.0
 33
0.0
 16
1.0
 26
0.0
 36
0.0
 17
0.0
 27
1.0
 37
0.0
 76
     0
330
1F
331
29
  0
MLINESTYLE
  5
18
102
{ACAD_REACTORS
330
17
102
}
330
17
100
AcDbMlineStyle
  2
Standard
 70
     0
  3

 62
   256
 51
90.0
 52
90.0
 71
     2
 49
0.5
 62
   256
  6
BYLAYER
 49
-0.5
 62
   256
  6
BYLAYER
  0
ACDBPLACEHOLDER
  5
F
102
{ACAD_REACTORS
330
E
102
}
330
E
  0
ENDSEC
  0
EOF
